ISO-10303-21;
HEADER;
FILE_DESCRIPTION (( 'STEP AP203' ),
    '1' );
FILE_NAME ('3D_P7215_42 x 1-2_141231460.STEP',
    '2024-11-18T12:17:24',
    ( '' ),
    ( '' ),
    'SwSTEP 2.0',
    'SolidWorks 2023',
    '' );
FILE_SCHEMA (( 'CONFIG_CONTROL_DESIGN' ));
ENDSEC;

DATA;
#1 = FACE_BOUND ( 'NONE', #343, .T. ) ;
#2 = APPROVAL ( #150, 'UNSPECIFIED' ) ;
#3 = VERTEX_POINT ( 'NONE', #24 ) ;
#4 = LINE ( 'NONE', #101, #371 ) ;
#5 = AXIS2_PLACEMENT_3D ( 'NONE', #263, #407, #256 ) ;
#6 = AXIS2_PLACEMENT_3D ( 'NONE', #62, #374, #313 ) ;
#7 =( GEOMETRIC_REPRESENTATION_CONTEXT ( 3 ) GLOBAL_UNCERTAINTY_ASSIGNED_CONTEXT ( ( #305 ) ) GLOBAL_UNIT_ASSIGNED_CONTEXT ( ( #308, #241, #273 ) ) REPRESENTATION_CONTEXT ( 'NONE', 'WORKASPACE' ) );
#8 = VERTEX_POINT ( 'NONE', #189 ) ;
#9 = DIRECTION ( 'NONE',  ( -1.000000000000000000, 0.000000000000000000, 0.000000000000000000 ) ) ;
#10 = ORIENTED_EDGE ( 'NONE', *, *, #307, .T. ) ;
#11 = PLANE ( 'NONE',  #378 ) ;
#12 = ORIENTED_EDGE ( 'NONE', *, *, #400, .T. ) ;
#13 = DIRECTION ( 'NONE',  ( 1.000000000000000000, -0.000000000000000000, -0.000000000000000000 ) ) ;
#14 = EDGE_CURVE ( 'NONE', #196, #197, #93, .T. ) ;
#15 = CIRCLE ( 'NONE', #88, 22.99999999999999289 ) ;
#16 = DIRECTION ( 'NONE',  ( 1.000000000000000000, -0.000000000000000000, -0.000000000000000000 ) ) ;
#17 = CALENDAR_DATE ( 2024, 18, 11 ) ;
#18 = PRODUCT_RELATED_PRODUCT_CATEGORY ( 'detail', '', ( #396 ) ) ;
#19 = DIRECTION ( 'NONE',  ( -1.000000000000000000, 0.000000000000000000, 0.000000000000000000 ) ) ;
#20 = VECTOR ( 'NONE', #16, 1000.000000000000000 ) ;
#21 = LINE ( 'NONE', #149, #181 ) ;
#22 = DATE_TIME_ROLE ( 'classification_date' ) ;
#23 = CC_DESIGN_SECURITY_CLASSIFICATION ( #245, ( #77 ) ) ;
#24 = CARTESIAN_POINT ( 'NONE',  ( 0.000000000000000000, 2.816687638038911563E-15, 22.99999999999999289 ) ) ;
#25 = ADVANCED_FACE ( 'NONE', ( #1, #406 ), #59, .T. ) ;
#26 = FACE_OUTER_BOUND ( 'NONE', #157, .T. ) ;
#27 = DIRECTION ( 'NONE',  ( 0.000000000000000000, 0.000000000000000000, -1.000000000000000000 ) ) ;
#28 = DIRECTION ( 'NONE',  ( 1.000000000000000000, -0.000000000000000000, -0.000000000000000000 ) ) ;
#29 = DIRECTION ( 'NONE',  ( 0.000000000000000000, 0.000000000000000000, 1.000000000000000000 ) ) ;
#30 = APPROVAL_PERSON_ORGANIZATION ( #44, #367, #332 ) ;
#31 = CARTESIAN_POINT ( 'NONE',  ( -10.00000000000000000, 1.800000000000000044, -5.249999999999999112 ) ) ;
#32 = CARTESIAN_POINT ( 'NONE',  ( 0.000000000000000000, 1.800000000000000044, 0.000000000000000000 ) ) ;
#33 = ADVANCED_FACE ( 'NONE', ( #131, #259 ), #372, .T. ) ;
#34 = ORIENTED_EDGE ( 'NONE', *, *, #161, .F. ) ;
#35 = EDGE_LOOP ( 'NONE', ( #264, #91, #228, #349 ) ) ;
#36 = CARTESIAN_POINT ( 'NONE',  ( 46.48091902202271797, 0.000000000000000000, -20.99999999999999645 ) ) ;
#37 = ADVANCED_FACE ( 'NONE', ( #65 ), #249, .T. ) ;
#38 = VERTEX_POINT ( 'NONE', #222 ) ;
#39 = DIRECTION ( 'NONE',  ( -1.000000000000000000, 0.000000000000000000, 0.000000000000000000 ) ) ;
#40 = AXIS2_PLACEMENT_3D ( 'NONE', #377, #39, #94 ) ;
#41 = EDGE_LOOP ( 'NONE', ( #136, #234, #98, #261 ) ) ;
#42 = CYLINDRICAL_SURFACE ( 'NONE', #244, 20.99999999999999645 ) ;
#43 = ORIENTED_EDGE ( 'NONE', *, *, #164, .F. ) ;
#44 = PERSON_AND_ORGANIZATION ( #214, #51 ) ;
#45 = APPROVAL_PERSON_ORGANIZATION ( #81, #169, #395 ) ;
#46 = EDGE_CURVE ( 'NONE', #316, #322, #54, .T. ) ;
#47 = LINE ( 'NONE', #215, #269 ) ;
#48 = AXIS2_PLACEMENT_3D ( 'NONE', #315, #28, #27 ) ;
#49 = MANIFOLD_SOLID_BREP ( 'Aufsatz-Linear austragen3', #158 ) ;
#50 = DATE_AND_TIME ( #219, #278 ) ;
#51 = ORGANIZATION ( 'UNSPECIFIED', 'UNSPECIFIED', '' ) ;
#52 = DIRECTION ( 'NONE',  ( -1.000000000000000000, 0.000000000000000000, 0.000000000000000000 ) ) ;
#53 = CIRCLE ( 'NONE', #361, 22.99999999999999289 ) ;
#54 = LINE ( 'NONE', #191, #218 ) ;
#55 = CARTESIAN_POINT ( 'NONE',  ( -2.000000000000000000, 1.800000000000000044, 0.000000000000000000 ) ) ;
#56 = ORIENTED_EDGE ( 'NONE', *, *, #161, .T. ) ;
#57 = EDGE_CURVE ( 'NONE', #172, #199, #302, .T. ) ;
#58 = CARTESIAN_POINT ( 'NONE',  ( -2.000000000000001776, 0.000000000000000000, 0.000000000000000000 ) ) ;
#59 = PLANE ( 'NONE',  #6 ) ;
#60 = CARTESIAN_POINT ( 'NONE',  ( -55.00000000000000000, 2.816687638038911563E-15, 22.99999999999999289 ) ) ;
#61 = CIRCLE ( 'NONE', #394, 5.249999999999999112 ) ;
#62 = CARTESIAN_POINT ( 'NONE',  ( 0.000000000000000000, 22.99999999999999289, 0.000000000000000000 ) ) ;
#63 = ORIENTED_EDGE ( 'NONE', *, *, #217, .T. ) ;
#64 = DIRECTION ( 'NONE',  ( -1.000000000000000000, 0.000000000000000000, 0.000000000000000000 ) ) ;
#65 = FACE_OUTER_BOUND ( 'NONE', #167, .T. ) ;
#66 = VERTEX_POINT ( 'NONE', #282 ) ;
#67 = DIRECTION ( 'NONE',  ( 0.000000000000000000, 0.000000000000000000, -1.000000000000000000 ) ) ;
#68 = EDGE_LOOP ( 'NONE', ( #128, #205, #226, #56 ) ) ;
#69 = CARTESIAN_POINT ( 'NONE',  ( -2.000000000000001776, 0.000000000000000000, 0.000000000000000000 ) ) ;
#70 = AXIS2_PLACEMENT_3D ( 'NONE', #32, #163, #67 ) ;
#71 = CIRCLE ( 'NONE', #230, 22.99999999999999289 ) ;
#72 = EDGE_CURVE ( 'NONE', #165, #8, #124, .T. ) ;
#73 = ORIENTED_EDGE ( 'NONE', *, *, #129, .T. ) ;
#74 = ORIENTED_EDGE ( 'NONE', *, *, #299, .F. ) ;
#75 = DIRECTION ( 'NONE',  ( 0.000000000000000000, 0.000000000000000000, 1.000000000000000000 ) ) ;
#76 = CIRCLE ( 'NONE', #134, 5.249999999999999112 ) ;
#77 = PRODUCT_DEFINITION_FORMATION_WITH_SPECIFIED_SOURCE ( 'ANY', '', #396, .NOT_KNOWN. ) ;
#78 = CARTESIAN_POINT ( 'NONE',  ( -55.00000000000000000, 0.000000000000000000, 0.000000000000000000 ) ) ;
#79 = COORDINATED_UNIVERSAL_TIME_OFFSET ( 1, 0, .AHEAD. ) ;
#80 = CARTESIAN_POINT ( 'NONE',  ( 0.000000000000000000, 0.000000000000000000, 0.000000000000000000 ) ) ;
#81 = PERSON_AND_ORGANIZATION ( #214, #51 ) ;
#82 = PERSON_AND_ORGANIZATION ( #214, #51 ) ;
#83 = AXIS2_PLACEMENT_3D ( 'NONE', #379, #370, #97 ) ;
#84 = ADVANCED_FACE ( 'NONE', ( #89 ), #126, .T. ) ;
#85 = COORDINATED_UNIVERSAL_TIME_OFFSET ( 1, 0, .AHEAD. ) ;
#86 = CARTESIAN_POINT ( 'NONE',  ( -55.00000000000000000, 20.99999999999998934, 0.000000000000000000 ) ) ;
#87 = DIRECTION ( 'NONE',  ( 0.000000000000000000, 0.000000000000000000, -1.000000000000000000 ) ) ;
#88 = AXIS2_PLACEMENT_3D ( 'NONE', #283, #90, #342 ) ;
#89 = FACE_OUTER_BOUND ( 'NONE', #35, .T. ) ;
#90 = DIRECTION ( 'NONE',  ( 1.000000000000000000, -0.000000000000000000, -0.000000000000000000 ) ) ;
#91 = ORIENTED_EDGE ( 'NONE', *, *, #57, .T. ) ;
#92 = CARTESIAN_POINT ( 'NONE',  ( 0.000000000000000000, 1.800000000000000044, 0.000000000000000000 ) ) ;
#93 = LINE ( 'NONE', #233, #387 ) ;
#94 = DIRECTION ( 'NONE',  ( 0.000000000000000000, 0.000000000000000000, 1.000000000000000000 ) ) ;
#95 = AXIS2_PLACEMENT_3D ( 'NONE', #78, #106, #334 ) ;
#96 = ADVANCED_BREP_SHAPE_REPRESENTATION ( '3D_P7215_42 x 1-2_141231460', ( #49, #204 ), #7 ) ;
#97 = DIRECTION ( 'NONE',  ( 0.000000000000000000, 0.000000000000000000, 1.000000000000000000 ) ) ;
#98 = ORIENTED_EDGE ( 'NONE', *, *, #177, .T. ) ;
#99 = FACE_OUTER_BOUND ( 'NONE', #301, .T. ) ;
#100 = ORIENTED_EDGE ( 'NONE', *, *, #384, .F. ) ;
#101 = CARTESIAN_POINT ( 'NONE',  ( 46.48091902202271797, 2.816687638038911563E-15, 22.99999999999999289 ) ) ;
#102 = ORIENTED_EDGE ( 'NONE', *, *, #217, .F. ) ;
#103 = MECHANICAL_CONTEXT ( 'NONE', #166, 'mechanical' ) ;
#104 = APPROVAL_PERSON_ORGANIZATION ( #82, #2, #398 ) ;
#105 = ORIENTED_EDGE ( 'NONE', *, *, #299, .T. ) ;
#106 = DIRECTION ( 'NONE',  ( 1.000000000000000000, -0.000000000000000000, -0.000000000000000000 ) ) ;
#107 = DIRECTION ( 'NONE',  ( 0.000000000000000000, 0.000000000000000000, -1.000000000000000000 ) ) ;
#108 = APPLICATION_PROTOCOL_DEFINITION ( 'international standard', 'config_control_design', 1994, #318 ) ;
#109 = EDGE_CURVE ( 'NONE', #327, #316, #248, .T. ) ;
#110 = AXIS2_PLACEMENT_3D ( 'NONE', #151, #120, #368 ) ;
#111 = LINE ( 'NONE', #268, #20 ) ;
#112 = CC_DESIGN_PERSON_AND_ORGANIZATION_ASSIGNMENT ( #206, #208, ( #396 ) ) ;
#113 = CALENDAR_DATE ( 2024, 18, 11 ) ;
#114 = EDGE_CURVE ( 'NONE', #350, #38, #21, .T. ) ;
#115 = CALENDAR_DATE ( 2024, 18, 11 ) ;
#116 = SHAPE_DEFINITION_REPRESENTATION ( #148, #96 ) ;
#117 = AXIS2_PLACEMENT_3D ( 'NONE', #58, #171, #328 ) ;
#118 = ADVANCED_FACE ( 'NONE', ( #122, #314 ), #275, .T. ) ;
#119 = CC_DESIGN_PERSON_AND_ORGANIZATION_ASSIGNMENT ( #242, #183, ( #160 ) ) ;
#120 = DIRECTION ( 'NONE',  ( 1.000000000000000000, -0.000000000000000000, -0.000000000000000000 ) ) ;
#121 = ORIENTED_EDGE ( 'NONE', *, *, #46, .F. ) ;
#122 = FACE_BOUND ( 'NONE', #389, .T. ) ;
#123 = ADVANCED_FACE ( 'NONE', ( #26 ), #223, .T. ) ;
#124 = LINE ( 'NONE', #31, #209 ) ;
#125 = CIRCLE ( 'NONE', #95, 20.99999999999998934 ) ;
#126 = CYLINDRICAL_SURFACE ( 'NONE', #345, 22.99999999999999289 ) ;
#127 = CARTESIAN_POINT ( 'NONE',  ( 14.50000000000000000, 1.800000000000000044, 0.000000000000000000 ) ) ;
#128 = ORIENTED_EDGE ( 'NONE', *, *, #391, .F. ) ;
#129 = EDGE_CURVE ( 'NONE', #165, #196, #284, .T. ) ;
#130 = CARTESIAN_POINT ( 'NONE',  ( -2.000000000000000000, 1.800000000000000711, 5.249999999999999112 ) ) ;
#131 = FACE_BOUND ( 'NONE', #404, .T. ) ;
#132 = ORIENTED_EDGE ( 'NONE', *, *, #254, .T. ) ;
#133 = DIRECTION ( 'NONE',  ( 1.000000000000000000, -0.000000000000000000, -0.000000000000000000 ) ) ;
#134 = AXIS2_PLACEMENT_3D ( 'NONE', #286, #64, #326 ) ;
#135 = AXIS2_PLACEMENT_3D ( 'NONE', #306, #142, #180 ) ;
#136 = ORIENTED_EDGE ( 'NONE', *, *, #369, .F. ) ;
#137 = DIRECTION ( 'NONE',  ( 0.000000000000000000, 0.000000000000000000, -1.000000000000000000 ) ) ;
#138 = ORIENTED_EDGE ( 'NONE', *, *, #109, .T. ) ;
#139 = CARTESIAN_POINT ( 'NONE',  ( -2.000000000000001776, 2.571758278209441661E-15, 21.00000000000000000 ) ) ;
#140 = ORIENTED_EDGE ( 'NONE', *, *, #114, .F. ) ;
#141 = CYLINDRICAL_SURFACE ( 'NONE', #252, 20.99999999999999645 ) ;
#142 = DIRECTION ( 'NONE',  ( 1.000000000000000000, -0.000000000000000000, -0.000000000000000000 ) ) ;
#143 = APPROVAL_DATE_TIME ( #175, #367 ) ;
#144 = CARTESIAN_POINT ( 'NONE',  ( 14.50000000000000000, 1.800000000000000044, 6.250000000000000000 ) ) ;
#145 = CIRCLE ( 'NONE', #405, 6.250000000000000000 ) ;
#146 = LOCAL_TIME ( 13, 17, 24.00000000000000000, #147 ) ;
#147 = COORDINATED_UNIVERSAL_TIME_OFFSET ( 1, 0, .AHEAD. ) ;
#148 = PRODUCT_DEFINITION_SHAPE ( 'NONE', 'NONE',  #160 ) ;
#149 = CARTESIAN_POINT ( 'NONE',  ( 14.50000000000000000, 1.800000000000000044, 6.250000000000000000 ) ) ;
#150 = APPROVAL_STATUS ( 'not_yet_approved' ) ;
#151 = CARTESIAN_POINT ( 'NONE',  ( -55.00000000000000000, 0.000000000000000000, 0.000000000000000000 ) ) ;
#152 = AXIS2_PLACEMENT_3D ( 'NONE', #159, #227, #321 ) ;
#153 = DIRECTION ( 'NONE',  ( 1.000000000000000000, -0.000000000000000000, -0.000000000000000000 ) ) ;
#154 = EDGE_CURVE ( 'NONE', #199, #172, #15, .T. ) ;
#155 = ORIENTED_EDGE ( 'NONE', *, *, #179, .F. ) ;
#156 = DIRECTION ( 'NONE',  ( 0.000000000000000000, 0.000000000000000000, 1.000000000000000000 ) ) ;
#157 = EDGE_LOOP ( 'NONE', ( #105, #382, #237, #140 ) ) ;
#158 = CLOSED_SHELL ( 'NONE', ( #123, #207, #291, #37, #84, #25, #33, #333, #118, #359, #192, #236 ) ) ;
#159 = CARTESIAN_POINT ( 'NONE',  ( -10.00000000000000000, 1.800000000000000044, 0.000000000000000000 ) ) ;
#160 = PRODUCT_DEFINITION ( 'UNKNOWN', '', #77, #288 ) ;
#161 = EDGE_CURVE ( 'NONE', #38, #329, #221, .T. ) ;
#162 = CARTESIAN_POINT ( 'NONE',  ( 46.48091902202271797, 0.000000000000000000, 0.000000000000000000 ) ) ;
#163 = DIRECTION ( 'NONE',  ( 1.000000000000000000, -0.000000000000000000, -0.000000000000000000 ) ) ;
#164 = EDGE_CURVE ( 'NONE', #197, #8, #61, .T. ) ;
#165 = VERTEX_POINT ( 'NONE', #289 ) ;
#166 = APPLICATION_CONTEXT ( 'configuration controlled 3d designs of mechanical parts and assemblies' ) ;
#167 = EDGE_LOOP ( 'NONE', ( #325, #10, #100, #323 ) ) ;
#168 = DIRECTION ( 'NONE',  ( -1.000000000000000000, 0.000000000000000000, 0.000000000000000000 ) ) ;
#169 = APPROVAL ( #403, 'UNSPECIFIED' ) ;
#170 = EDGE_LOOP ( 'NONE', ( #357, #12 ) ) ;
#171 = DIRECTION ( 'NONE',  ( 1.000000000000000000, -0.000000000000000000, -0.000000000000000000 ) ) ;
#172 = VERTEX_POINT ( 'NONE', #60 ) ;
#173 = CARTESIAN_POINT ( 'NONE',  ( 14.50000000000000000, 1.800000000000000044, 0.000000000000000000 ) ) ;
#174 = ORIENTED_EDGE ( 'NONE', *, *, #14, .T. ) ;
#175 = DATE_AND_TIME ( #17, #210 ) ;
#176 = APPROVAL_STATUS ( 'not_yet_approved' ) ;
#177 = EDGE_CURVE ( 'NONE', #322, #66, #310, .T. ) ;
#178 = COORDINATED_UNIVERSAL_TIME_OFFSET ( 1, 0, .AHEAD. ) ;
#179 = EDGE_CURVE ( 'NONE', #66, #322, #277, .T. ) ;
#180 = DIRECTION ( 'NONE',  ( 0.000000000000000000, 0.000000000000000000, -1.000000000000000000 ) ) ;
#181 = VECTOR ( 'NONE', #276, 1000.000000000000000 ) ;
#182 = SECURITY_CLASSIFICATION_LEVEL ( 'unclassified' ) ;
#183 = PERSON_AND_ORGANIZATION_ROLE ( 'creator' ) ;
#184 = CALENDAR_DATE ( 2024, 18, 11 ) ;
#185 = EDGE_CURVE ( 'NONE', #327, #66, #193, .T. ) ;
#186 = CIRCLE ( 'NONE', #5, 6.250000000000000000 ) ;
#187 = LOCAL_TIME ( 13, 17, 24.00000000000000000, #274 ) ;
#188 = DIRECTION ( 'NONE',  ( 0.000000000000000000, 0.000000000000000000, 1.000000000000000000 ) ) ;
#189 = CARTESIAN_POINT ( 'NONE',  ( 14.50000000000000000, 1.800000000000000044, -5.249999999999999112 ) ) ;
#190 = DIRECTION ( 'NONE',  ( -1.000000000000000000, 0.000000000000000000, 0.000000000000000000 ) ) ;
#191 = CARTESIAN_POINT ( 'NONE',  ( 46.48091902202271797, 2.571758278209441267E-15, 20.99999999999999645 ) ) ;
#192 = ADVANCED_FACE ( 'NONE', ( #409 ), #344, .T. ) ;
#193 = LINE ( 'NONE', #36, #229 ) ;
#194 = CARTESIAN_POINT ( 'NONE',  ( 46.48091902202271797, 0.000000000000000000, 0.000000000000000000 ) ) ;
#195 = CYLINDRICAL_SURFACE ( 'NONE', #152, 5.249999999999999112 ) ;
#196 = VERTEX_POINT ( 'NONE', #130 ) ;
#197 = VERTEX_POINT ( 'NONE', #200 ) ;
#198 = CARTESIAN_POINT ( 'NONE',  ( 46.48091902202271797, 0.000000000000000000, 0.000000000000000000 ) ) ;
#199 = VERTEX_POINT ( 'NONE', #373 ) ;
#200 = CARTESIAN_POINT ( 'NONE',  ( 14.50000000000000000, 1.800000000000000711, 5.249999999999999112 ) ) ;
#201 = ORIENTED_EDGE ( 'NONE', *, *, #109, .F. ) ;
#202 = AXIS2_PLACEMENT_3D ( 'NONE', #55, #190, #156 ) ;
#203 = DIRECTION ( 'NONE',  ( 0.000000000000000000, 0.000000000000000000, 1.000000000000000000 ) ) ;
#204 = AXIS2_PLACEMENT_3D ( 'NONE', #358, #75, #393 ) ;
#205 = ORIENTED_EDGE ( 'NONE', *, *, #220, .T. ) ;
#206 = PERSON_AND_ORGANIZATION ( #214, #51 ) ;
#207 = ADVANCED_FACE ( 'NONE', ( #99 ), #195, .F. ) ;
#208 = PERSON_AND_ORGANIZATION_ROLE ( 'design_owner' ) ;
#209 = VECTOR ( 'NONE', #253, 1000.000000000000000 ) ;
#210 = LOCAL_TIME ( 13, 17, 24.00000000000000000, #178 ) ;
#211 = CYLINDRICAL_SURFACE ( 'NONE', #135, 5.249999999999999112 ) ;
#212 = CC_DESIGN_DATE_AND_TIME_ASSIGNMENT ( #247, #22, ( #245 ) ) ;
#213 = PERSON_AND_ORGANIZATION ( #214, #51 ) ;
#214 = PERSON ( 'UNSPECIFIED', 'UNSPECIFIED', 'UNSPECIFIED', ('UNSPECIFIED'), ('UNSPECIFIED'), ('UNSPECIFIED') ) ;
#215 = CARTESIAN_POINT ( 'NONE',  ( 14.50000000000000000, 1.800000000000000711, -6.250000000000000000 ) ) ;
#216 = PERSON_AND_ORGANIZATION ( #214, #51 ) ;
#217 = EDGE_CURVE ( 'NONE', #196, #165, #260, .T. ) ;
#218 = VECTOR ( 'NONE', #320, 1000.000000000000000 ) ;
#219 = CALENDAR_DATE ( 2024, 18, 11 ) ;
#220 = EDGE_CURVE ( 'NONE', #338, #350, #145, .T. ) ;
#221 = CIRCLE ( 'NONE', #70, 6.250000000000000000 ) ;
#222 = CARTESIAN_POINT ( 'NONE',  ( 0.000000000000000000, 1.800000000000000044, 6.250000000000000000 ) ) ;
#223 = CYLINDRICAL_SURFACE ( 'NONE', #238, 6.250000000000000000 ) ;
#224 = DIRECTION ( 'NONE',  ( 1.000000000000000000, -0.000000000000000000, -0.000000000000000000 ) ) ;
#225 = DIRECTION ( 'NONE',  ( 0.000000000000000000, 0.000000000000000000, 1.000000000000000000 ) ) ;
#226 = ORIENTED_EDGE ( 'NONE', *, *, #114, .T. ) ;
#227 = DIRECTION ( 'NONE',  ( 1.000000000000000000, -0.000000000000000000, -0.000000000000000000 ) ) ;
#228 = ORIENTED_EDGE ( 'NONE', *, *, #341, .T. ) ;
#229 = VECTOR ( 'NONE', #351, 1000.000000000000000 ) ;
#230 = AXIS2_PLACEMENT_3D ( 'NONE', #271, #356, #239 ) ;
#231 = CC_DESIGN_PERSON_AND_ORGANIZATION_ASSIGNMENT ( #397, #272, ( #245 ) ) ;
#232 = CARTESIAN_POINT ( 'NONE',  ( 14.50000000000000000, 1.800000000000000044, 0.000000000000000000 ) ) ;
#233 = CARTESIAN_POINT ( 'NONE',  ( -10.00000000000000000, 1.800000000000000711, 5.249999999999999112 ) ) ;
#234 = ORIENTED_EDGE ( 'NONE', *, *, #46, .T. ) ;
#235 = DIRECTION ( 'NONE',  ( -1.000000000000000000, 0.000000000000000000, 0.000000000000000000 ) ) ;
#236 = ADVANCED_FACE ( 'NONE', ( #324, #258 ), #11, .F. ) ;
#237 = ORIENTED_EDGE ( 'NONE', *, *, #330, .T. ) ;
#238 = AXIS2_PLACEMENT_3D ( 'NONE', #281, #251, #339 ) ;
#239 = DIRECTION ( 'NONE',  ( 0.000000000000000000, 0.000000000000000000, -1.000000000000000000 ) ) ;
#240 = EDGE_LOOP ( 'NONE', ( #132, #255 ) ) ;
#241 =( NAMED_UNIT ( * ) PLANE_ANGLE_UNIT ( ) SI_UNIT ( $, .RADIAN. ) );
#242 = PERSON_AND_ORGANIZATION ( #214, #51 ) ;
#243 = CIRCLE ( 'NONE', #294, 6.250000000000000000 ) ;
#244 = AXIS2_PLACEMENT_3D ( 'NONE', #198, #293, #137 ) ;
#245 = SECURITY_CLASSIFICATION ( '', '', #182 ) ;
#246 = CARTESIAN_POINT ( 'NONE',  ( 14.50000000000000000, 1.800000000000000711, -6.250000000000000000 ) ) ;
#247 = DATE_AND_TIME ( #113, #337 ) ;
#248 = CIRCLE ( 'NONE', #110, 20.99999999999998934 ) ;
#249 = CYLINDRICAL_SURFACE ( 'NONE', #267, 22.99999999999999289 ) ;
#250 = DATE_AND_TIME ( #184, #187 ) ;
#251 = DIRECTION ( 'NONE',  ( -1.000000000000000000, 0.000000000000000000, 0.000000000000000000 ) ) ;
#252 = AXIS2_PLACEMENT_3D ( 'NONE', #390, #13, #392 ) ;
#253 = DIRECTION ( 'NONE',  ( 1.000000000000000000, -0.000000000000000000, -0.000000000000000000 ) ) ;
#254 = EDGE_CURVE ( 'NONE', #8, #197, #76, .T. ) ;
#255 = ORIENTED_EDGE ( 'NONE', *, *, #164, .T. ) ;
#256 = DIRECTION ( 'NONE',  ( 0.000000000000000000, 0.000000000000000000, 1.000000000000000000 ) ) ;
#257 = ORIENTED_EDGE ( 'NONE', *, *, #254, .F. ) ;
#258 = FACE_OUTER_BOUND ( 'NONE', #355, .T. ) ;
#259 = FACE_OUTER_BOUND ( 'NONE', #376, .T. ) ;
#260 = CIRCLE ( 'NONE', #40, 5.249999999999999112 ) ;
#261 = ORIENTED_EDGE ( 'NONE', *, *, #185, .F. ) ;
#262 = CARTESIAN_POINT ( 'NONE',  ( -55.00000000000000000, 0.000000000000000000, -20.99999999999998934 ) ) ;
#263 = CARTESIAN_POINT ( 'NONE',  ( 14.50000000000000000, 1.800000000000000044, 0.000000000000000000 ) ) ;
#264 = ORIENTED_EDGE ( 'NONE', *, *, #307, .F. ) ;
#265 = APPLICATION_PROTOCOL_DEFINITION ( 'international standard', 'config_control_design', 1994, #166 ) ;
#266 = ORIENTED_EDGE ( 'NONE', *, *, #129, .F. ) ;
#267 = AXIS2_PLACEMENT_3D ( 'NONE', #194, #153, #87 ) ;
#268 = CARTESIAN_POINT ( 'NONE',  ( 46.48091902202271797, 0.000000000000000000, -22.99999999999999289 ) ) ;
#269 = VECTOR ( 'NONE', #19, 1000.000000000000000 ) ;
#270 = DIRECTION ( 'NONE',  ( 1.000000000000000000, -0.000000000000000000, -0.000000000000000000 ) ) ;
#271 = CARTESIAN_POINT ( 'NONE',  ( 0.000000000000000000, 0.000000000000000000, 0.000000000000000000 ) ) ;
#272 = PERSON_AND_ORGANIZATION_ROLE ( 'classification_officer' ) ;
#273 =( NAMED_UNIT ( * ) SI_UNIT ( $, .STERADIAN. ) SOLID_ANGLE_UNIT ( ) );
#274 = COORDINATED_UNIVERSAL_TIME_OFFSET ( 1, 0, .AHEAD. ) ;
#275 = PLANE ( 'NONE',  #364 ) ;
#276 = DIRECTION ( 'NONE',  ( -1.000000000000000000, 0.000000000000000000, 0.000000000000000000 ) ) ;
#277 = CIRCLE ( 'NONE', #399, 21.00000000000000000 ) ;
#278 = LOCAL_TIME ( 13, 17, 24.00000000000000000, #85 ) ;
#279 = ORIENTED_EDGE ( 'NONE', *, *, #177, .F. ) ;
#280 = DATE_AND_TIME ( #115, #146 ) ;
#281 = CARTESIAN_POINT ( 'NONE',  ( 14.50000000000000000, 1.800000000000000044, 0.000000000000000000 ) ) ;
#282 = CARTESIAN_POINT ( 'NONE',  ( -2.000000000000001776, 0.000000000000000000, -21.00000000000000000 ) ) ;
#283 = CARTESIAN_POINT ( 'NONE',  ( -55.00000000000000000, 0.000000000000000000, 0.000000000000000000 ) ) ;
#284 = CIRCLE ( 'NONE', #202, 5.249999999999999112 ) ;
#285 = ORIENTED_EDGE ( 'NONE', *, *, #57, .F. ) ;
#286 = CARTESIAN_POINT ( 'NONE',  ( 14.50000000000000000, 1.800000000000000044, 0.000000000000000000 ) ) ;
#287 = ORIENTED_EDGE ( 'NONE', *, *, #154, .F. ) ;
#288 = DESIGN_CONTEXT ( 'detailed design', #318, 'design' ) ;
#289 = CARTESIAN_POINT ( 'NONE',  ( -2.000000000000000000, 1.800000000000000044, -5.249999999999999112 ) ) ;
#290 = ORIENTED_EDGE ( 'NONE', *, *, #185, .T. ) ;
#291 = ADVANCED_FACE ( 'NONE', ( #297 ), #42, .F. ) ;
#292 = ORIENTED_EDGE ( 'NONE', *, *, #220, .F. ) ;
#293 = DIRECTION ( 'NONE',  ( 1.000000000000000000, -0.000000000000000000, -0.000000000000000000 ) ) ;
#294 = AXIS2_PLACEMENT_3D ( 'NONE', #92, #360, #309 ) ;
#295 = ORIENTED_EDGE ( 'NONE', *, *, #14, .F. ) ;
#296 = CC_DESIGN_APPROVAL ( #169, ( #77 ) ) ;
#297 = FACE_OUTER_BOUND ( 'NONE', #41, .T. ) ;
#298 = ORIENTED_EDGE ( 'NONE', *, *, #72, .T. ) ;
#299 = EDGE_CURVE ( 'NONE', #350, #338, #186, .T. ) ;
#300 = CARTESIAN_POINT ( 'NONE',  ( -55.00000000000000000, 2.571758278209440872E-15, 20.99999999999998934 ) ) ;
#301 = EDGE_LOOP ( 'NONE', ( #73, #174, #257, #380 ) ) ;
#302 = CIRCLE ( 'NONE', #48, 22.99999999999999289 ) ;
#303 = CARTESIAN_POINT ( 'NONE',  ( 0.000000000000000000, 0.000000000000000000, -22.99999999999999289 ) ) ;
#304 = CC_DESIGN_PERSON_AND_ORGANIZATION_ASSIGNMENT ( #213, #311, ( #77 ) ) ;
#305 = UNCERTAINTY_MEASURE_WITH_UNIT (LENGTH_MEASURE( 1.000000000000000082E-05 ), #308, 'distance_accuracy_value', 'NONE');
#306 = CARTESIAN_POINT ( 'NONE',  ( -10.00000000000000000, 1.800000000000000044, 0.000000000000000000 ) ) ;
#307 = EDGE_CURVE ( 'NONE', #172, #3, #4, .T. ) ;
#308 =( LENGTH_UNIT ( ) NAMED_UNIT ( * ) SI_UNIT ( .MILLI., .METRE. ) );
#309 = DIRECTION ( 'NONE',  ( 0.000000000000000000, 0.000000000000000000, -1.000000000000000000 ) ) ;
#310 = CIRCLE ( 'NONE', #117, 21.00000000000000000 ) ;
#311 = PERSON_AND_ORGANIZATION_ROLE ( 'creator' ) ;
#312 = CC_DESIGN_DATE_AND_TIME_ASSIGNMENT ( #280, #363, ( #160 ) ) ;
#313 = DIRECTION ( 'NONE',  ( -0.000000000000000000, 0.000000000000000000, -1.000000000000000000 ) ) ;
#314 = FACE_OUTER_BOUND ( 'NONE', #347, .T. ) ;
#315 = CARTESIAN_POINT ( 'NONE',  ( -55.00000000000000000, 0.000000000000000000, 0.000000000000000000 ) ) ;
#316 = VERTEX_POINT ( 'NONE', #300 ) ;
#317 = APPROVAL_DATE_TIME ( #250, #169 ) ;
#318 = APPLICATION_CONTEXT ( 'configuration controlled 3d designs of mechanical parts and assemblies' ) ;
#319 = DIRECTION ( 'NONE',  ( -1.000000000000000000, 0.000000000000000000, 0.000000000000000000 ) ) ;
#320 = DIRECTION ( 'NONE',  ( 1.000000000000000000, -0.000000000000000000, -0.000000000000000000 ) ) ;
#321 = DIRECTION ( 'NONE',  ( 0.000000000000000000, 0.000000000000000000, -1.000000000000000000 ) ) ;
#322 = VERTEX_POINT ( 'NONE', #139 ) ;
#323 = ORIENTED_EDGE ( 'NONE', *, *, #341, .F. ) ;
#324 = FACE_BOUND ( 'NONE', #240, .T. ) ;
#325 = ORIENTED_EDGE ( 'NONE', *, *, #154, .T. ) ;
#326 = DIRECTION ( 'NONE',  ( 0.000000000000000000, 0.000000000000000000, 1.000000000000000000 ) ) ;
#327 = VERTEX_POINT ( 'NONE', #262 ) ;
#328 = DIRECTION ( 'NONE',  ( 0.000000000000000000, 0.000000000000000000, -1.000000000000000000 ) ) ;
#329 = VERTEX_POINT ( 'NONE', #375 ) ;
#330 = EDGE_CURVE ( 'NONE', #329, #38, #243, .T. ) ;
#331 = AXIS2_PLACEMENT_3D ( 'NONE', #381, #319, #29 ) ;
#332 = APPROVAL_ROLE ( '' ) ;
#333 = ADVANCED_FACE ( 'NONE', ( #386 ), #141, .F. ) ;
#334 = DIRECTION ( 'NONE',  ( 0.000000000000000000, 0.000000000000000000, -1.000000000000000000 ) ) ;
#335 = APPROVAL_DATE_TIME ( #50, #2 ) ;
#336 = PERSON_AND_ORGANIZATION_ROLE ( 'design_supplier' ) ;
#337 = LOCAL_TIME ( 13, 17, 24.00000000000000000, #79 ) ;
#338 = VERTEX_POINT ( 'NONE', #246 ) ;
#339 = DIRECTION ( 'NONE',  ( 0.000000000000000000, 0.000000000000000000, 1.000000000000000000 ) ) ;
#340 = EDGE_LOOP ( 'NONE', ( #295, #63, #298, #43 ) ) ;
#341 = EDGE_CURVE ( 'NONE', #199, #346, #111, .T. ) ;
#342 = DIRECTION ( 'NONE',  ( 0.000000000000000000, 0.000000000000000000, -1.000000000000000000 ) ) ;
#343 = EDGE_LOOP ( 'NONE', ( #34, #385 ) ) ;
#344 = CYLINDRICAL_SURFACE ( 'NONE', #331, 6.250000000000000000 ) ;
#345 = AXIS2_PLACEMENT_3D ( 'NONE', #162, #365, #401 ) ;
#346 = VERTEX_POINT ( 'NONE', #303 ) ;
#347 = EDGE_LOOP ( 'NONE', ( #287, #285 ) ) ;
#348 = DIRECTION ( 'NONE',  ( 0.000000000000000000, 0.000000000000000000, 1.000000000000000000 ) ) ;
#349 = ORIENTED_EDGE ( 'NONE', *, *, #400, .F. ) ;
#350 = VERTEX_POINT ( 'NONE', #144 ) ;
#351 = DIRECTION ( 'NONE',  ( 1.000000000000000000, -0.000000000000000000, -0.000000000000000000 ) ) ;
#352 = CC_DESIGN_PERSON_AND_ORGANIZATION_ASSIGNMENT ( #216, #336, ( #77 ) ) ;
#353 = ORIENTED_EDGE ( 'NONE', *, *, #179, .T. ) ;
#354 = DIRECTION ( 'NONE',  ( 1.000000000000000000, -0.000000000000000000, -0.000000000000000000 ) ) ;
#355 = EDGE_LOOP ( 'NONE', ( #74, #292 ) ) ;
#356 = DIRECTION ( 'NONE',  ( 1.000000000000000000, -0.000000000000000000, -0.000000000000000000 ) ) ;
#357 = ORIENTED_EDGE ( 'NONE', *, *, #384, .T. ) ;
#358 = CARTESIAN_POINT ( 'NONE',  ( 0.000000000000000000, 0.000000000000000000, 0.000000000000000000 ) ) ;
#359 = ADVANCED_FACE ( 'NONE', ( #362 ), #211, .F. ) ;
#360 = DIRECTION ( 'NONE',  ( 1.000000000000000000, -0.000000000000000000, -0.000000000000000000 ) ) ;
#361 = AXIS2_PLACEMENT_3D ( 'NONE', #80, #270, #107 ) ;
#362 = FACE_OUTER_BOUND ( 'NONE', #340, .T. ) ;
#363 = DATE_TIME_ROLE ( 'creation_date' ) ;
#364 = AXIS2_PLACEMENT_3D ( 'NONE', #86, #52, #188 ) ;
#365 = DIRECTION ( 'NONE',  ( 1.000000000000000000, -0.000000000000000000, -0.000000000000000000 ) ) ;
#366 = CC_DESIGN_APPROVAL ( #367, ( #160 ) ) ;
#367 = APPROVAL ( #176, 'UNSPECIFIED' ) ;
#368 = DIRECTION ( 'NONE',  ( 0.000000000000000000, 0.000000000000000000, -1.000000000000000000 ) ) ;
#369 = EDGE_CURVE ( 'NONE', #316, #327, #125, .T. ) ;
#370 = DIRECTION ( 'NONE',  ( -1.000000000000000000, 0.000000000000000000, 0.000000000000000000 ) ) ;
#371 = VECTOR ( 'NONE', #133, 1000.000000000000000 ) ;
#372 = PLANE ( 'NONE',  #83 ) ;
#373 = CARTESIAN_POINT ( 'NONE',  ( -55.00000000000000000, 0.000000000000000000, -22.99999999999999289 ) ) ;
#374 = DIRECTION ( 'NONE',  ( 1.000000000000000000, 0.000000000000000000, -0.000000000000000000 ) ) ;
#375 = CARTESIAN_POINT ( 'NONE',  ( 0.000000000000000000, 1.800000000000000711, -6.250000000000000000 ) ) ;
#376 = EDGE_LOOP ( 'NONE', ( #155, #279 ) ) ;
#377 = CARTESIAN_POINT ( 'NONE',  ( -2.000000000000000000, 1.800000000000000044, 0.000000000000000000 ) ) ;
#378 = AXIS2_PLACEMENT_3D ( 'NONE', #173, #235, #348 ) ;
#379 = CARTESIAN_POINT ( 'NONE',  ( -2.000000000000000888, 21.00000000000000000, 0.000000000000000000 ) ) ;
#380 = ORIENTED_EDGE ( 'NONE', *, *, #72, .F. ) ;
#381 = CARTESIAN_POINT ( 'NONE',  ( 14.50000000000000000, 1.800000000000000044, 0.000000000000000000 ) ) ;
#382 = ORIENTED_EDGE ( 'NONE', *, *, #391, .T. ) ;
#383 = DIRECTION ( 'NONE',  ( 0.000000000000000000, 0.000000000000000000, -1.000000000000000000 ) ) ;
#384 = EDGE_CURVE ( 'NONE', #346, #3, #53, .T. ) ;
#385 = ORIENTED_EDGE ( 'NONE', *, *, #330, .F. ) ;
#386 = FACE_OUTER_BOUND ( 'NONE', #402, .T. ) ;
#387 = VECTOR ( 'NONE', #224, 1000.000000000000000 ) ;
#388 = CC_DESIGN_APPROVAL ( #2, ( #245 ) ) ;
#389 = EDGE_LOOP ( 'NONE', ( #138, #408 ) ) ;
#390 = CARTESIAN_POINT ( 'NONE',  ( 46.48091902202271797, 0.000000000000000000, 0.000000000000000000 ) ) ;
#391 = EDGE_CURVE ( 'NONE', #338, #329, #47, .T. ) ;
#392 = DIRECTION ( 'NONE',  ( 0.000000000000000000, 0.000000000000000000, -1.000000000000000000 ) ) ;
#393 = DIRECTION ( 'NONE',  ( 1.000000000000000000, 0.000000000000000000, 0.000000000000000000 ) ) ;
#394 = AXIS2_PLACEMENT_3D ( 'NONE', #127, #9, #225 ) ;
#395 = APPROVAL_ROLE ( '' ) ;
#396 = PRODUCT ( '3D_P7215_42 x 1-2_141231460', '3D_P7215_42 x 1-2_141231460', '', ( #103 ) ) ;
#397 = PERSON_AND_ORGANIZATION ( #214, #51 ) ;
#398 = APPROVAL_ROLE ( '' ) ;
#399 = AXIS2_PLACEMENT_3D ( 'NONE', #69, #354, #383 ) ;
#400 = EDGE_CURVE ( 'NONE', #3, #346, #71, .T. ) ;
#401 = DIRECTION ( 'NONE',  ( 0.000000000000000000, 0.000000000000000000, -1.000000000000000000 ) ) ;
#402 = EDGE_LOOP ( 'NONE', ( #121, #201, #290, #353 ) ) ;
#403 = APPROVAL_STATUS ( 'not_yet_approved' ) ;
#404 = EDGE_LOOP ( 'NONE', ( #266, #102 ) ) ;
#405 = AXIS2_PLACEMENT_3D ( 'NONE', #232, #168, #203 ) ;
#406 = FACE_OUTER_BOUND ( 'NONE', #170, .T. ) ;
#407 = DIRECTION ( 'NONE',  ( -1.000000000000000000, 0.000000000000000000, 0.000000000000000000 ) ) ;
#408 = ORIENTED_EDGE ( 'NONE', *, *, #369, .T. ) ;
#409 = FACE_OUTER_BOUND ( 'NONE', #68, .T. ) ;
ENDSEC;
END-ISO-10303-21;
