ISO-10303-21;
HEADER;
/* Generated by software containing ST-Developer
 * from STEP Tools, Inc. (www.steptools.com) 
 */

FILE_DESCRIPTION(
/* description */ ('TAPPO DI CHIUSURA DN 42'),
/* implementation_level */ '2;1');

FILE_NAME(
/* name */ 
'R:\\Disegni3D_Area_Manager\\Steelpres.step\\383_003_STEELPRES\\383042
003_Steelpres.stp',
/* time_stamp */ '2022-10-21T16:15:39+02:00',
/* author */ ('Vault'),
/* organization */ ('Raccorderie metalliche s.p.a. '),
/* preprocessor_version */ 'ST-DEVELOPER v18.1',
/* originating_system */ 'Autodesk Inventor 2020',
/* authorisation */ 'Raccorderie metalliche s.p.a. ');

FILE_SCHEMA (('AUTOMOTIVE_DESIGN { 1 0 10303 214 3 1 1 }'));
ENDSEC;

DATA;
#10=MECHANICAL_DESIGN_GEOMETRIC_PRESENTATION_REPRESENTATION('',(#13),#432);
#11=SHAPE_REPRESENTATION_RELATIONSHIP('SRR','None',#439,#12);
#12=ADVANCED_BREP_SHAPE_REPRESENTATION('',(#14),#431);
#13=STYLED_ITEM('',(#448),#14);
#14=MANIFOLD_SOLID_BREP('Solido1',#218);
#15=CONICAL_SURFACE('',#263,22.2,0.785398163397444);
#16=PLANE('',#259);
#17=PLANE('',#268);
#18=LINE('',#388,#23);
#19=LINE('',#402,#24);
#20=LINE('',#412,#25);
#21=LINE('',#418,#26);
#22=LINE('',#423,#27);
#23=VECTOR('',#309,21.35);
#24=VECTOR('',#326,21.2);
#25=VECTOR('',#337,22.2);
#26=VECTOR('',#346,22.7);
#27=VECTOR('',#353,21.35);
#28=CYLINDRICAL_SURFACE('',#250,21.35);
#29=CYLINDRICAL_SURFACE('',#260,21.2);
#30=CYLINDRICAL_SURFACE('',#269,22.7);
#31=CYLINDRICAL_SURFACE('',#272,21.35);
#32=FACE_OUTER_BOUND('',#44,.T.);
#33=FACE_OUTER_BOUND('',#45,.T.);
#34=FACE_OUTER_BOUND('',#46,.T.);
#35=FACE_OUTER_BOUND('',#47,.T.);
#36=FACE_OUTER_BOUND('',#48,.T.);
#37=FACE_OUTER_BOUND('',#49,.T.);
#38=FACE_OUTER_BOUND('',#50,.T.);
#39=FACE_OUTER_BOUND('',#51,.T.);
#40=FACE_OUTER_BOUND('',#52,.T.);
#41=FACE_OUTER_BOUND('',#53,.T.);
#42=FACE_OUTER_BOUND('',#54,.T.);
#43=FACE_OUTER_BOUND('',#55,.T.);
#44=EDGE_LOOP('',(#137,#138,#139,#140,#141,#142));
#45=EDGE_LOOP('',(#143,#144,#145,#146,#147,#148));
#46=EDGE_LOOP('',(#149,#150,#151,#152,#153,#154));
#47=EDGE_LOOP('',(#155,#156,#157,#158,#159,#160));
#48=EDGE_LOOP('',(#161,#162));
#49=EDGE_LOOP('',(#163,#164,#165,#166,#167,#168));
#50=EDGE_LOOP('',(#169,#170,#171,#172,#173,#174));
#51=EDGE_LOOP('',(#175,#176));
#52=EDGE_LOOP('',(#177,#178,#179,#180,#181,#182));
#53=EDGE_LOOP('',(#183,#184,#185,#186,#187,#188));
#54=EDGE_LOOP('',(#189,#190,#191,#192,#193,#194));
#55=EDGE_LOOP('',(#195,#196,#197,#198,#199,#200));
#56=CIRCLE('',#239,22.7);
#57=CIRCLE('',#240,22.7);
#58=CIRCLE('',#241,4.61137198433924);
#59=CIRCLE('',#242,21.9815758416831);
#60=CIRCLE('',#243,21.9815758416831);
#61=CIRCLE('',#245,21.35);
#62=CIRCLE('',#246,21.35);
#63=CIRCLE('',#247,3.);
#64=CIRCLE('',#248,21.35);
#65=CIRCLE('',#249,21.35);
#66=CIRCLE('',#251,21.35);
#67=CIRCLE('',#252,21.35);
#68=CIRCLE('',#254,20.4);
#69=CIRCLE('',#255,0.8);
#70=CIRCLE('',#256,21.2);
#71=CIRCLE('',#257,21.2);
#72=CIRCLE('',#258,20.4);
#73=CIRCLE('',#261,21.2);
#74=CIRCLE('',#262,21.2);
#75=CIRCLE('',#264,21.7);
#76=CIRCLE('',#265,21.7);
#77=CIRCLE('',#266,22.7);
#78=CIRCLE('',#267,22.7);
#79=CIRCLE('',#271,2.);
#80=CIRCLE('',#273,21.35);
#81=CIRCLE('',#274,21.35);
#82=CIRCLE('',#276,0.6);
#83=VERTEX_POINT('',#364);
#84=VERTEX_POINT('',#365);
#85=VERTEX_POINT('',#368);
#86=VERTEX_POINT('',#370);
#87=VERTEX_POINT('',#374);
#88=VERTEX_POINT('',#375);
#89=VERTEX_POINT('',#378);
#90=VERTEX_POINT('',#380);
#91=VERTEX_POINT('',#384);
#92=VERTEX_POINT('',#385);
#93=VERTEX_POINT('',#390);
#94=VERTEX_POINT('',#391);
#95=VERTEX_POINT('',#393);
#96=VERTEX_POINT('',#395);
#97=VERTEX_POINT('',#401);
#98=VERTEX_POINT('',#403);
#99=VERTEX_POINT('',#407);
#100=VERTEX_POINT('',#408);
#101=VERTEX_POINT('',#411);
#102=VERTEX_POINT('',#413);
#103=VERTEX_POINT('',#422);
#104=VERTEX_POINT('',#424);
#105=EDGE_CURVE('',#83,#84,#56,.T.);
#106=EDGE_CURVE('',#84,#83,#57,.T.);
#107=EDGE_CURVE('',#84,#85,#58,.T.);
#108=EDGE_CURVE('',#85,#86,#59,.T.);
#109=EDGE_CURVE('',#86,#85,#60,.T.);
#110=EDGE_CURVE('',#87,#88,#61,.T.);
#111=EDGE_CURVE('',#88,#87,#62,.T.);
#112=EDGE_CURVE('',#88,#89,#63,.T.);
#113=EDGE_CURVE('',#89,#90,#64,.T.);
#114=EDGE_CURVE('',#90,#89,#65,.T.);
#115=EDGE_CURVE('',#91,#92,#66,.T.);
#116=EDGE_CURVE('',#92,#91,#67,.T.);
#117=EDGE_CURVE('',#92,#89,#18,.T.);
#118=EDGE_CURVE('',#93,#94,#68,.T.);
#119=EDGE_CURVE('',#94,#95,#69,.T.);
#120=EDGE_CURVE('',#95,#96,#70,.T.);
#121=EDGE_CURVE('',#96,#95,#71,.T.);
#122=EDGE_CURVE('',#94,#93,#72,.T.);
#123=EDGE_CURVE('',#95,#97,#19,.T.);
#124=EDGE_CURVE('',#98,#97,#73,.T.);
#125=EDGE_CURVE('',#97,#98,#74,.T.);
#126=EDGE_CURVE('',#99,#100,#75,.T.);
#127=EDGE_CURVE('',#100,#99,#76,.T.);
#128=EDGE_CURVE('',#100,#101,#20,.T.);
#129=EDGE_CURVE('',#101,#102,#77,.T.);
#130=EDGE_CURVE('',#102,#101,#78,.T.);
#131=EDGE_CURVE('',#101,#84,#21,.T.);
#132=EDGE_CURVE('',#92,#97,#79,.T.);
#133=EDGE_CURVE('',#88,#103,#22,.T.);
#134=EDGE_CURVE('',#104,#103,#80,.T.);
#135=EDGE_CURVE('',#103,#104,#81,.T.);
#136=EDGE_CURVE('',#85,#103,#82,.T.);
#137=ORIENTED_EDGE('',*,*,#105,.F.);
#138=ORIENTED_EDGE('',*,*,#106,.F.);
#139=ORIENTED_EDGE('',*,*,#107,.T.);
#140=ORIENTED_EDGE('',*,*,#108,.T.);
#141=ORIENTED_EDGE('',*,*,#109,.T.);
#142=ORIENTED_EDGE('',*,*,#107,.F.);
#143=ORIENTED_EDGE('',*,*,#110,.F.);
#144=ORIENTED_EDGE('',*,*,#111,.F.);
#145=ORIENTED_EDGE('',*,*,#112,.T.);
#146=ORIENTED_EDGE('',*,*,#113,.T.);
#147=ORIENTED_EDGE('',*,*,#114,.T.);
#148=ORIENTED_EDGE('',*,*,#112,.F.);
#149=ORIENTED_EDGE('',*,*,#115,.F.);
#150=ORIENTED_EDGE('',*,*,#116,.F.);
#151=ORIENTED_EDGE('',*,*,#117,.T.);
#152=ORIENTED_EDGE('',*,*,#114,.F.);
#153=ORIENTED_EDGE('',*,*,#113,.F.);
#154=ORIENTED_EDGE('',*,*,#117,.F.);
#155=ORIENTED_EDGE('',*,*,#118,.T.);
#156=ORIENTED_EDGE('',*,*,#119,.T.);
#157=ORIENTED_EDGE('',*,*,#120,.T.);
#158=ORIENTED_EDGE('',*,*,#121,.T.);
#159=ORIENTED_EDGE('',*,*,#119,.F.);
#160=ORIENTED_EDGE('',*,*,#122,.T.);
#161=ORIENTED_EDGE('',*,*,#118,.F.);
#162=ORIENTED_EDGE('',*,*,#122,.F.);
#163=ORIENTED_EDGE('',*,*,#121,.F.);
#164=ORIENTED_EDGE('',*,*,#120,.F.);
#165=ORIENTED_EDGE('',*,*,#123,.T.);
#166=ORIENTED_EDGE('',*,*,#124,.F.);
#167=ORIENTED_EDGE('',*,*,#125,.F.);
#168=ORIENTED_EDGE('',*,*,#123,.F.);
#169=ORIENTED_EDGE('',*,*,#126,.F.);
#170=ORIENTED_EDGE('',*,*,#127,.F.);
#171=ORIENTED_EDGE('',*,*,#128,.T.);
#172=ORIENTED_EDGE('',*,*,#129,.T.);
#173=ORIENTED_EDGE('',*,*,#130,.T.);
#174=ORIENTED_EDGE('',*,*,#128,.F.);
#175=ORIENTED_EDGE('',*,*,#126,.T.);
#176=ORIENTED_EDGE('',*,*,#127,.T.);
#177=ORIENTED_EDGE('',*,*,#130,.F.);
#178=ORIENTED_EDGE('',*,*,#129,.F.);
#179=ORIENTED_EDGE('',*,*,#131,.T.);
#180=ORIENTED_EDGE('',*,*,#106,.T.);
#181=ORIENTED_EDGE('',*,*,#105,.T.);
#182=ORIENTED_EDGE('',*,*,#131,.F.);
#183=ORIENTED_EDGE('',*,*,#115,.T.);
#184=ORIENTED_EDGE('',*,*,#132,.T.);
#185=ORIENTED_EDGE('',*,*,#125,.T.);
#186=ORIENTED_EDGE('',*,*,#124,.T.);
#187=ORIENTED_EDGE('',*,*,#132,.F.);
#188=ORIENTED_EDGE('',*,*,#116,.T.);
#189=ORIENTED_EDGE('',*,*,#110,.T.);
#190=ORIENTED_EDGE('',*,*,#133,.T.);
#191=ORIENTED_EDGE('',*,*,#134,.F.);
#192=ORIENTED_EDGE('',*,*,#135,.F.);
#193=ORIENTED_EDGE('',*,*,#133,.F.);
#194=ORIENTED_EDGE('',*,*,#111,.T.);
#195=ORIENTED_EDGE('',*,*,#109,.F.);
#196=ORIENTED_EDGE('',*,*,#108,.F.);
#197=ORIENTED_EDGE('',*,*,#136,.T.);
#198=ORIENTED_EDGE('',*,*,#135,.T.);
#199=ORIENTED_EDGE('',*,*,#134,.T.);
#200=ORIENTED_EDGE('',*,*,#136,.F.);
#201=TOROIDAL_SURFACE('',#238,21.7388959221507,4.61137198433924);
#202=TOROIDAL_SURFACE('',#244,24.,3.);
#203=TOROIDAL_SURFACE('',#253,20.4,0.8);
#204=TOROIDAL_SURFACE('',#270,23.2,2.);
#205=TOROIDAL_SURFACE('',#275,21.95,0.6);
#206=ADVANCED_FACE('',(#32),#201,.T.);
#207=ADVANCED_FACE('',(#33),#202,.T.);
#208=ADVANCED_FACE('',(#34),#28,.F.);
#209=ADVANCED_FACE('',(#35),#203,.F.);
#210=ADVANCED_FACE('',(#36),#16,.T.);
#211=ADVANCED_FACE('',(#37),#29,.F.);
#212=ADVANCED_FACE('',(#38),#15,.T.);
#213=ADVANCED_FACE('',(#39),#17,.T.);
#214=ADVANCED_FACE('',(#40),#30,.T.);
#215=ADVANCED_FACE('',(#41),#204,.T.);
#216=ADVANCED_FACE('',(#42),#31,.F.);
#217=ADVANCED_FACE('',(#43),#205,.T.);
#218=CLOSED_SHELL('',(#206,#207,#208,#209,#210,#211,#212,#213,#214,#215,
#216,#217));
#219=DERIVED_UNIT_ELEMENT(#221,1.);
#220=DERIVED_UNIT_ELEMENT(#434,3.);
#221=(
MASS_UNIT()
NAMED_UNIT(*)
SI_UNIT($,.GRAM.)
);
#222=DERIVED_UNIT((#219,#220));
#223=MEASURE_REPRESENTATION_ITEM('density measure',
POSITIVE_RATIO_MEASURE(1.),#222);
#224=PROPERTY_DEFINITION_REPRESENTATION(#229,#226);
#225=PROPERTY_DEFINITION_REPRESENTATION(#230,#227);
#226=REPRESENTATION('material name',(#228),#431);
#227=REPRESENTATION('density',(#223),#431);
#228=DESCRIPTIVE_REPRESENTATION_ITEM('Generico','Generico');
#229=PROPERTY_DEFINITION('material property','material name',#441);
#230=PROPERTY_DEFINITION('material property','density of part',#441);
#231=DATE_TIME_ROLE('creation_date');
#232=APPLIED_DATE_AND_TIME_ASSIGNMENT(#233,#231,(#441));
#233=DATE_AND_TIME(#234,#235);
#234=CALENDAR_DATE(2015,21,12);
#235=LOCAL_TIME(14,58,14.,#236);
#236=COORDINATED_UNIVERSAL_TIME_OFFSET(0,0,.BEHIND.);
#237=AXIS2_PLACEMENT_3D('placement',#362,#277,#278);
#238=AXIS2_PLACEMENT_3D('',#363,#279,#280);
#239=AXIS2_PLACEMENT_3D('',#366,#281,#282);
#240=AXIS2_PLACEMENT_3D('',#367,#283,#284);
#241=AXIS2_PLACEMENT_3D('',#369,#285,#286);
#242=AXIS2_PLACEMENT_3D('',#371,#287,#288);
#243=AXIS2_PLACEMENT_3D('',#372,#289,#290);
#244=AXIS2_PLACEMENT_3D('',#373,#291,#292);
#245=AXIS2_PLACEMENT_3D('',#376,#293,#294);
#246=AXIS2_PLACEMENT_3D('',#377,#295,#296);
#247=AXIS2_PLACEMENT_3D('',#379,#297,#298);
#248=AXIS2_PLACEMENT_3D('',#381,#299,#300);
#249=AXIS2_PLACEMENT_3D('',#382,#301,#302);
#250=AXIS2_PLACEMENT_3D('',#383,#303,#304);
#251=AXIS2_PLACEMENT_3D('',#386,#305,#306);
#252=AXIS2_PLACEMENT_3D('',#387,#307,#308);
#253=AXIS2_PLACEMENT_3D('',#389,#310,#311);
#254=AXIS2_PLACEMENT_3D('',#392,#312,#313);
#255=AXIS2_PLACEMENT_3D('',#394,#314,#315);
#256=AXIS2_PLACEMENT_3D('',#396,#316,#317);
#257=AXIS2_PLACEMENT_3D('',#397,#318,#319);
#258=AXIS2_PLACEMENT_3D('',#398,#320,#321);
#259=AXIS2_PLACEMENT_3D('',#399,#322,#323);
#260=AXIS2_PLACEMENT_3D('',#400,#324,#325);
#261=AXIS2_PLACEMENT_3D('',#404,#327,#328);
#262=AXIS2_PLACEMENT_3D('',#405,#329,#330);
#263=AXIS2_PLACEMENT_3D('',#406,#331,#332);
#264=AXIS2_PLACEMENT_3D('',#409,#333,#334);
#265=AXIS2_PLACEMENT_3D('',#410,#335,#336);
#266=AXIS2_PLACEMENT_3D('',#414,#338,#339);
#267=AXIS2_PLACEMENT_3D('',#415,#340,#341);
#268=AXIS2_PLACEMENT_3D('',#416,#342,#343);
#269=AXIS2_PLACEMENT_3D('',#417,#344,#345);
#270=AXIS2_PLACEMENT_3D('',#419,#347,#348);
#271=AXIS2_PLACEMENT_3D('',#420,#349,#350);
#272=AXIS2_PLACEMENT_3D('',#421,#351,#352);
#273=AXIS2_PLACEMENT_3D('',#425,#354,#355);
#274=AXIS2_PLACEMENT_3D('',#426,#356,#357);
#275=AXIS2_PLACEMENT_3D('',#427,#358,#359);
#276=AXIS2_PLACEMENT_3D('',#428,#360,#361);
#277=DIRECTION('axis',(0.,0.,1.));
#278=DIRECTION('refdir',(1.,0.,0.));
#279=DIRECTION('center_axis',(0.,1.,0.));
#280=DIRECTION('ref_axis',(0.,0.,1.));
#281=DIRECTION('center_axis',(0.,1.,0.));
#282=DIRECTION('ref_axis',(0.,0.,1.));
#283=DIRECTION('center_axis',(0.,1.,0.));
#284=DIRECTION('ref_axis',(0.,0.,1.));
#285=DIRECTION('center_axis',(-1.,0.,1.22464679914735E-16));
#286=DIRECTION('ref_axis',(-1.22464679914735E-16,0.,-1.));
#287=DIRECTION('center_axis',(0.,1.,0.));
#288=DIRECTION('ref_axis',(0.,3.76089577232465E-19,1.));
#289=DIRECTION('center_axis',(0.,1.,0.));
#290=DIRECTION('ref_axis',(0.,3.76089577232465E-19,1.));
#291=DIRECTION('center_axis',(0.,1.,0.));
#292=DIRECTION('ref_axis',(0.,0.,1.));
#293=DIRECTION('center_axis',(0.,1.,0.));
#294=DIRECTION('ref_axis',(1.,0.,0.));
#295=DIRECTION('center_axis',(0.,1.,0.));
#296=DIRECTION('ref_axis',(1.,0.,0.));
#297=DIRECTION('center_axis',(-1.,0.,1.22464679914735E-16));
#298=DIRECTION('ref_axis',(-1.22464679914735E-16,0.,-1.));
#299=DIRECTION('center_axis',(0.,1.,0.));
#300=DIRECTION('ref_axis',(1.,0.,0.));
#301=DIRECTION('center_axis',(0.,1.,0.));
#302=DIRECTION('ref_axis',(1.,0.,0.));
#303=DIRECTION('center_axis',(0.,1.,0.));
#304=DIRECTION('ref_axis',(0.,0.,1.));
#305=DIRECTION('center_axis',(0.,-1.,0.));
#306=DIRECTION('ref_axis',(0.,0.,1.));
#307=DIRECTION('center_axis',(0.,-1.,0.));
#308=DIRECTION('ref_axis',(0.,0.,1.));
#309=DIRECTION('',(0.,-1.,0.));
#310=DIRECTION('center_axis',(0.,1.,0.));
#311=DIRECTION('ref_axis',(0.,0.,1.));
#312=DIRECTION('center_axis',(0.,1.,0.));
#313=DIRECTION('ref_axis',(1.22460635382238E-16,0.,-1.));
#314=DIRECTION('center_axis',(-1.,0.,1.22464679914735E-16));
#315=DIRECTION('ref_axis',(-1.22464679914735E-16,0.,-1.));
#316=DIRECTION('center_axis',(0.,-1.,0.));
#317=DIRECTION('ref_axis',(1.22460635382238E-16,0.,-1.));
#318=DIRECTION('center_axis',(0.,-1.,0.));
#319=DIRECTION('ref_axis',(1.22460635382238E-16,0.,-1.));
#320=DIRECTION('center_axis',(0.,1.,0.));
#321=DIRECTION('ref_axis',(1.22460635382238E-16,0.,-1.));
#322=DIRECTION('center_axis',(0.,-1.,0.));
#323=DIRECTION('ref_axis',(0.,0.,-1.));
#324=DIRECTION('center_axis',(0.,1.,0.));
#325=DIRECTION('ref_axis',(0.,0.,1.));
#326=DIRECTION('',(0.,-1.,0.));
#327=DIRECTION('center_axis',(0.,1.,0.));
#328=DIRECTION('ref_axis',(0.,0.,1.));
#329=DIRECTION('center_axis',(0.,1.,0.));
#330=DIRECTION('ref_axis',(0.,0.,1.));
#331=DIRECTION('center_axis',(0.,-1.,0.));
#332=DIRECTION('ref_axis',(0.,0.,1.));
#333=DIRECTION('center_axis',(0.,1.,0.));
#334=DIRECTION('ref_axis',(0.,0.,1.));
#335=DIRECTION('center_axis',(0.,1.,0.));
#336=DIRECTION('ref_axis',(0.,0.,1.));
#337=DIRECTION('',(-8.65956056235489E-17,-0.707106781186551,-0.707106781186544));
#338=DIRECTION('center_axis',(0.,1.,0.));
#339=DIRECTION('ref_axis',(0.,0.,1.));
#340=DIRECTION('center_axis',(0.,1.,0.));
#341=DIRECTION('ref_axis',(0.,0.,1.));
#342=DIRECTION('center_axis',(0.,1.,0.));
#343=DIRECTION('ref_axis',(0.,0.,1.));
#344=DIRECTION('center_axis',(0.,1.,0.));
#345=DIRECTION('ref_axis',(0.,0.,1.));
#346=DIRECTION('',(0.,-1.,0.));
#347=DIRECTION('center_axis',(0.,1.,0.));
#348=DIRECTION('ref_axis',(0.,0.,1.));
#349=DIRECTION('center_axis',(-1.,0.,1.22464679914735E-16));
#350=DIRECTION('ref_axis',(-1.22464679914735E-16,0.,-1.));
#351=DIRECTION('center_axis',(0.,1.,0.));
#352=DIRECTION('ref_axis',(0.,0.,1.));
#353=DIRECTION('',(0.,-1.,0.));
#354=DIRECTION('center_axis',(0.,1.,0.));
#355=DIRECTION('ref_axis',(0.,0.,1.));
#356=DIRECTION('center_axis',(0.,1.,0.));
#357=DIRECTION('ref_axis',(0.,0.,1.));
#358=DIRECTION('center_axis',(0.,1.,0.));
#359=DIRECTION('ref_axis',(0.,0.,1.));
#360=DIRECTION('center_axis',(-1.,0.,1.22464679914735E-16));
#361=DIRECTION('ref_axis',(-1.22464679914735E-16,0.,-1.));
#362=CARTESIAN_POINT('',(0.,0.,0.));
#363=CARTESIAN_POINT('Origin',(0.,4.6058133088122,0.));
#364=CARTESIAN_POINT('',(0.,9.11591647054698,22.7));
#365=CARTESIAN_POINT('',(-2.77994823406449E-15,9.11591647054698,-22.7));
#366=CARTESIAN_POINT('Origin',(0.,9.11591647054698,0.));
#367=CARTESIAN_POINT('Origin',(0.,9.11591647054698,0.));
#368=CARTESIAN_POINT('',(-2.6919666494732E-15,0.000831437555328107,-21.9815758416831));
#369=CARTESIAN_POINT('Origin',(-2.66224693080592E-15,4.6058133088122,-21.7388959221507));
#370=CARTESIAN_POINT('',(0.,0.000831437555328107,21.9815758416831));
#371=CARTESIAN_POINT('Origin',(0.,0.000831437555328107,0.));
#372=CARTESIAN_POINT('Origin',(0.,0.000831437555328107,0.));
#373=CARTESIAN_POINT('Origin',(0.,4.6058133088122,0.));
#374=CARTESIAN_POINT('',(0.,3.19957719776968,21.35));
#375=CARTESIAN_POINT('',(-2.6146209161796E-15,3.19957719776968,-21.35));
#376=CARTESIAN_POINT('Origin',(0.,3.19957719776968,0.));
#377=CARTESIAN_POINT('Origin',(0.,3.19957719776968,0.));
#378=CARTESIAN_POINT('',(-2.6146209161796E-15,6.01204941985473,-21.35));
#379=CARTESIAN_POINT('Origin',(-2.93915231795365E-15,4.6058133088122,-24.));
#380=CARTESIAN_POINT('',(0.,6.01204941985473,21.35));
#381=CARTESIAN_POINT('Origin',(0.,6.01204941985473,0.));
#382=CARTESIAN_POINT('Origin',(0.,6.01204941985473,0.));
#383=CARTESIAN_POINT('Origin',(0.,7.18401584136159,0.));
#384=CARTESIAN_POINT('',(0.,8.35598226286845,21.35));
#385=CARTESIAN_POINT('',(-2.6146209161796E-15,8.35598226286845,-21.35));
#386=CARTESIAN_POINT('Origin',(0.,8.35598226286845,0.));
#387=CARTESIAN_POINT('Origin',(0.,8.35598226286845,0.));
#388=CARTESIAN_POINT('',(-2.6146209161796E-15,7.18401584136159,-21.35));
#389=CARTESIAN_POINT('Origin',(0.,30.2,0.));
#390=CARTESIAN_POINT('',(0.,31.,20.4));
#391=CARTESIAN_POINT('',(-2.4982794702606E-15,31.,-20.4));
#392=CARTESIAN_POINT('Origin',(0.,31.,0.));
#393=CARTESIAN_POINT('',(-2.59625121419239E-15,30.2,-21.2));
#394=CARTESIAN_POINT('Origin',(-2.4982794702606E-15,30.2,-20.4));
#395=CARTESIAN_POINT('',(-5.19233094020688E-15,30.2,21.2));
#396=CARTESIAN_POINT('Origin',(0.,30.2,0.));
#397=CARTESIAN_POINT('Origin',(0.,30.2,0.));
#398=CARTESIAN_POINT('Origin',(0.,31.,0.));
#399=CARTESIAN_POINT('Origin',(0.,31.,21.95));
#400=CARTESIAN_POINT('Origin',(0.,20.0579582352735,0.));
#401=CARTESIAN_POINT('',(-2.59625121419239E-15,9.11591647054698,-21.2));
#402=CARTESIAN_POINT('',(-2.59625121419239E-15,20.0579582352735,-21.2));
#403=CARTESIAN_POINT('',(0.,9.11591647054698,21.2));
#404=CARTESIAN_POINT('Origin',(0.,9.11591647054698,0.));
#405=CARTESIAN_POINT('Origin',(0.,9.11591647054698,0.));
#406=CARTESIAN_POINT('Origin',(0.,35.5,0.));
#407=CARTESIAN_POINT('',(0.,36.,21.7));
#408=CARTESIAN_POINT('',(-2.65748355414976E-15,36.,-21.7));
#409=CARTESIAN_POINT('Origin',(0.,36.,0.));
#410=CARTESIAN_POINT('Origin',(0.,36.,0.));
#411=CARTESIAN_POINT('',(-2.77994823406449E-15,35.,-22.7));
#412=CARTESIAN_POINT('',(-2.71871589410713E-15,35.5,-22.2));
#413=CARTESIAN_POINT('',(0.,35.,22.7));
#414=CARTESIAN_POINT('Origin',(0.,35.,0.));
#415=CARTESIAN_POINT('Origin',(0.,35.,0.));
#416=CARTESIAN_POINT('Origin',(0.,36.,10.85));
#417=CARTESIAN_POINT('Origin',(0.,20.0579582352735,0.));
#418=CARTESIAN_POINT('',(-2.77994823406449E-15,20.0579582352735,-22.7));
#419=CARTESIAN_POINT('Origin',(0.,9.11591647054698,0.));
#420=CARTESIAN_POINT('Origin',(-2.84118057402186E-15,9.11591647054698,-23.2));
#421=CARTESIAN_POINT('Origin',(0.,0.946410161513773,0.));
#422=CARTESIAN_POINT('',(-2.6146209161796E-15,0.6,-21.35));
#423=CARTESIAN_POINT('',(-2.6146209161796E-15,0.946410161513773,-21.35));
#424=CARTESIAN_POINT('',(0.,0.6,21.35));
#425=CARTESIAN_POINT('Origin',(0.,0.6,0.));
#426=CARTESIAN_POINT('Origin',(0.,0.6,0.));
#427=CARTESIAN_POINT('Origin',(0.,0.6,0.));
#428=CARTESIAN_POINT('Origin',(-2.68809972412844E-15,0.6,-21.95));
#429=UNCERTAINTY_MEASURE_WITH_UNIT(LENGTH_MEASURE(0.01),#433,
'DISTANCE_ACCURACY_VALUE',
'Maximum model space distance between geometric entities at asserted c
onnectivities');
#430=UNCERTAINTY_MEASURE_WITH_UNIT(LENGTH_MEASURE(0.01),#433,
'DISTANCE_ACCURACY_VALUE',
'Maximum model space distance between geometric entities at asserted c
onnectivities');
#431=(
GEOMETRIC_REPRESENTATION_CONTEXT(3)
GLOBAL_UNCERTAINTY_ASSIGNED_CONTEXT((#429))
GLOBAL_UNIT_ASSIGNED_CONTEXT((#433,#435,#436))
REPRESENTATION_CONTEXT('','3D')
);
#432=(
GEOMETRIC_REPRESENTATION_CONTEXT(3)
GLOBAL_UNCERTAINTY_ASSIGNED_CONTEXT((#430))
GLOBAL_UNIT_ASSIGNED_CONTEXT((#433,#435,#436))
REPRESENTATION_CONTEXT('','3D')
);
#433=(
LENGTH_UNIT()
NAMED_UNIT(*)
SI_UNIT(.MILLI.,.METRE.)
);
#434=(
LENGTH_UNIT()
NAMED_UNIT(*)
SI_UNIT(.CENTI.,.METRE.)
);
#435=(
NAMED_UNIT(*)
PLANE_ANGLE_UNIT()
SI_UNIT($,.RADIAN.)
);
#436=(
NAMED_UNIT(*)
SI_UNIT($,.STERADIAN.)
SOLID_ANGLE_UNIT()
);
#437=SHAPE_DEFINITION_REPRESENTATION(#438,#439);
#438=PRODUCT_DEFINITION_SHAPE('',$,#441);
#439=SHAPE_REPRESENTATION('',(#237),#431);
#440=PRODUCT_DEFINITION_CONTEXT('part definition',#445,'design');
#441=PRODUCT_DEFINITION('383042003_Steelpres','383042003_Steelpres',#442,
#440);
#442=PRODUCT_DEFINITION_FORMATION('0',$,#447);
#443=PRODUCT_RELATED_PRODUCT_CATEGORY('383042003_Steelpres',
'383042003_Steelpres',(#447));
#444=APPLICATION_PROTOCOL_DEFINITION('international standard',
'automotive_design',2009,#445);
#445=APPLICATION_CONTEXT(
'Core Data for Automotive Mechanical Design Process');
#446=PRODUCT_CONTEXT('part definition',#445,'mechanical');
#447=PRODUCT('383042003_Steelpres','383042003_Steelpres',
'TAPPO DI CHIUSURA DN 42',(#446));
#448=PRESENTATION_STYLE_ASSIGNMENT((#449));
#449=SURFACE_STYLE_USAGE(.BOTH.,#452);
#450=SURFACE_STYLE_RENDERING_WITH_PROPERTIES($,#456,(#451));
#451=SURFACE_STYLE_TRANSPARENT(0.);
#452=SURFACE_SIDE_STYLE('',(#453,#450));
#453=SURFACE_STYLE_FILL_AREA(#454);
#454=FILL_AREA_STYLE('',(#455));
#455=FILL_AREA_STYLE_COLOUR('',#456);
#456=COLOUR_RGB('',0.83921568627451,0.886274509803922,0.854901960784314);
ENDSEC;
END-ISO-10303-21;
