ISO-10303-21;
HEADER;
FILE_DESCRIPTION (( 'STEP AP203' ),
    '1' );
FILE_NAME ('3D_R169_ DN54-30_17323205.STEP',
    '2024-07-17T12:17:53',
    ( '' ),
    ( '' ),
    'SwSTEP 2.0',
    'SolidWorks 2024',
    '' );
FILE_SCHEMA (( 'CONFIG_CONTROL_DESIGN' ));
ENDSEC;

DATA;
#1 = DIRECTION ( 'NONE',  ( 1.000000000000000000, 0.000000000000000000, 0.000000000000000000 ) ) ;
#2 = ORIENTED_EDGE ( 'NONE', *, *, #213, .T. ) ;
#3 = SHAPE_DEFINITION_REPRESENTATION ( #20, #71 ) ;
#4 = ORIENTED_EDGE ( 'NONE', *, *, #140, .T. ) ;
#5 = CC_DESIGN_SECURITY_CLASSIFICATION ( #173, ( #30 ) ) ;
#6 = CARTESIAN_POINT ( 'NONE',  ( 72.00000000000000000, 0.000000000000000000, 0.000000000000000000 ) ) ;
#7 = PLANE ( 'NONE',  #138 ) ;
#8 = CARTESIAN_POINT ( 'NONE',  ( 0.000000000000000000, 0.000000000000000000, 0.000000000000000000 ) ) ;
#9 = DIRECTION ( 'NONE',  ( 0.000000000000000000, 0.000000000000000000, -1.000000000000000000 ) ) ;
#10 = VECTOR ( 'NONE', #220, 1000.000000000000000 ) ;
#11 = EDGE_CURVE ( 'NONE', #51, #235, #57, .T. ) ;
#12 = AXIS2_PLACEMENT_3D ( 'NONE', #8, #179, #9 ) ;
#13 = DIRECTION ( 'NONE',  ( 1.000000000000000000, 0.000000000000000000, 0.000000000000000000 ) ) ;
#14 = CALENDAR_DATE ( 2024, 17, 7 ) ;
#15 = APPROVAL_PERSON_ORGANIZATION ( #146, #202, #16 ) ;
#16 = APPROVAL_ROLE ( '' ) ;
#17 = CIRCLE ( 'NONE', #201, 27.00000000000000000 ) ;
#18 = CARTESIAN_POINT ( 'NONE',  ( 72.00000000000000000, 0.000000000000000000, 0.000000000000000000 ) ) ;
#19 = PRODUCT_RELATED_PRODUCT_CATEGORY ( 'detail', '', ( #128 ) ) ;
#20 = PRODUCT_DEFINITION_SHAPE ( 'NONE', 'NONE',  #38 ) ;
#21 = EDGE_LOOP ( 'NONE', ( #48, #194, #211, #108 ) ) ;
#22 = CARTESIAN_POINT ( 'NONE',  ( 72.00000000000000000, 0.000000000000000000, 12.97241248990059148 ) ) ;
#23 =( GEOMETRIC_REPRESENTATION_CONTEXT ( 3 ) GLOBAL_UNCERTAINTY_ASSIGNED_CONTEXT ( ( #136 ) ) GLOBAL_UNIT_ASSIGNED_CONTEXT ( ( #190, #162, #210 ) ) REPRESENTATION_CONTEXT ( 'NONE', 'WORKASPACE' ) );
#24 = CARTESIAN_POINT ( 'NONE',  ( 0.000000000000000000, -1.653273178848926472E-15, 26.99999999999999645 ) ) ;
#25 = DIRECTION ( 'NONE',  ( 0.000000000000000000, 0.000000000000000000, -1.000000000000000000 ) ) ;
#26 = FACE_BOUND ( 'NONE', #192, .T. ) ;
#27 = DIRECTION ( 'NONE',  ( 1.000000000000000000, 0.000000000000000000, 0.000000000000000000 ) ) ;
#28 = APPLICATION_PROTOCOL_DEFINITION ( 'international standard', 'config_control_design', 1994, #224 ) ;
#29 = DATE_AND_TIME ( #14, #153 ) ;
#30 = PRODUCT_DEFINITION_FORMATION_WITH_SPECIFIED_SOURCE ( 'ANY', '', #128, .NOT_KNOWN. ) ;
#31 = ORIENTED_EDGE ( 'NONE', *, *, #99, .F. ) ;
#32 = COORDINATED_UNIVERSAL_TIME_OFFSET ( 1, 0, .AHEAD. ) ;
#33 = APPROVAL_DATE_TIME ( #29, #202 ) ;
#34 = ORIENTED_EDGE ( 'NONE', *, *, #183, .F. ) ;
#35 = APPROVAL_DATE_TIME ( #53, #101 ) ;
#36 = AXIS2_PLACEMENT_3D ( 'NONE', #217, #177, #60 ) ;
#37 = CARTESIAN_POINT ( 'NONE',  ( 0.000000000000000000, 3.058238502274414619E-15, -24.97241248990059148 ) ) ;
#38 = PRODUCT_DEFINITION ( 'UNKNOWN', '', #30, #155 ) ;
#39 = CARTESIAN_POINT ( 'NONE',  ( 72.00000000000000000, 0.000000000000000000, 0.000000000000000000 ) ) ;
#40 = DIRECTION ( 'NONE',  ( 0.000000000000000000, 0.000000000000000000, -1.000000000000000000 ) ) ;
#41 = LINE ( 'NONE', #141, #10 ) ;
#42 = DIRECTION ( 'NONE',  ( -0.9863939238321437486, 2.013306935865721687E-17, -0.1643989873053572914 ) ) ;
#43 = LOCAL_TIME ( 14, 17, 53.00000000000000000, #231 ) ;
#44 = PERSON_AND_ORGANIZATION ( #227, #118 ) ;
#45 = APPROVAL_STATUS ( 'not_yet_approved' ) ;
#46 = APPROVAL ( #246, 'UNSPECIFIED' ) ;
#47 = PERSON_AND_ORGANIZATION_ROLE ( 'design_owner' ) ;
#48 = ORIENTED_EDGE ( 'NONE', *, *, #125, .F. ) ;
#49 = VERTEX_POINT ( 'NONE', #249 ) ;
#50 = APPROVAL_DATE_TIME ( #186, #46 ) ;
#51 = VERTEX_POINT ( 'NONE', #90 ) ;
#52 = VERTEX_POINT ( 'NONE', #116 ) ;
#53 = DATE_AND_TIME ( #73, #75 ) ;
#54 = APPROVAL_PERSON_ORGANIZATION ( #65, #101, #123 ) ;
#55 = ORIENTED_EDGE ( 'NONE', *, *, #125, .T. ) ;
#56 = DIRECTION ( 'NONE',  ( -1.000000000000000000, -0.000000000000000000, -0.000000000000000000 ) ) ;
#57 = CIRCLE ( 'NONE', #166, 24.97241248990059148 ) ;
#58 = AXIS2_PLACEMENT_3D ( 'NONE', #94, #13, #238 ) ;
#59 = LINE ( 'NONE', #114, #82 ) ;
#60 = DIRECTION ( 'NONE',  ( 0.000000000000000000, 0.000000000000000000, 1.000000000000000000 ) ) ;
#61 = EDGE_CURVE ( 'NONE', #69, #51, #137, .T. ) ;
#62 = DIRECTION ( 'NONE',  ( 0.000000000000000000, 0.000000000000000000, -1.000000000000000000 ) ) ;
#63 = CARTESIAN_POINT ( 'NONE',  ( 72.00000000000000000, 9.184850993605147944E-16, -15.00000000000000000 ) ) ;
#64 = CALENDAR_DATE ( 2024, 17, 7 ) ;
#65 = PERSON_AND_ORGANIZATION ( #227, #118 ) ;
#66 = ADVANCED_FACE ( 'NONE', ( #26, #198 ), #7, .T. ) ;
#67 = CIRCLE ( 'NONE', #228, 12.97241248990059148 ) ;
#68 = CARTESIAN_POINT ( 'NONE',  ( 0.000000000000000000, 0.000000000000000000, 0.000000000000000000 ) ) ;
#69 = VERTEX_POINT ( 'NONE', #22 ) ;
#70 = ORIENTED_EDGE ( 'NONE', *, *, #174, .T. ) ;
#71 = ADVANCED_BREP_SHAPE_REPRESENTATION ( '3D_R169_ DN54-30_17323205', ( #222, #142 ), #23 ) ;
#72 = ORIENTED_EDGE ( 'NONE', *, *, #129, .F. ) ;
#73 = CALENDAR_DATE ( 2024, 17, 7 ) ;
#74 = CC_DESIGN_DATE_AND_TIME_ASSIGNMENT ( #204, #102, ( #173 ) ) ;
#75 = LOCAL_TIME ( 14, 17, 53.00000000000000000, #206 ) ;
#76 = ORIENTED_EDGE ( 'NONE', *, *, #165, .F. ) ;
#77 = DIRECTION ( 'NONE',  ( 0.000000000000000000, 0.000000000000000000, -1.000000000000000000 ) ) ;
#78 = AXIS2_PLACEMENT_3D ( 'NONE', #6, #154, #77 ) ;
#79 = CARTESIAN_POINT ( 'NONE',  ( 72.00000000000000000, 0.000000000000000000, 0.000000000000000000 ) ) ;
#80 = FACE_OUTER_BOUND ( 'NONE', #105, .T. ) ;
#81 = DIRECTION ( 'NONE',  ( 1.000000000000000000, 0.000000000000000000, 0.000000000000000000 ) ) ;
#82 = VECTOR ( 'NONE', #239, 1000.000000000000000 ) ;
#83 = PERSON_AND_ORGANIZATION ( #227, #118 ) ;
#84 = ADVANCED_FACE ( 'NONE', ( #218 ), #216, .T. ) ;
#85 = CALENDAR_DATE ( 2024, 17, 7 ) ;
#86 = DATE_AND_TIME ( #64, #43 ) ;
#87 = PERSON_AND_ORGANIZATION_ROLE ( 'design_supplier' ) ;
#88 = CONICAL_SURFACE ( 'NONE', #237, 13.02721215233571073, 0.1651486774146267988 ) ;
#89 = CARTESIAN_POINT ( 'NONE',  ( 0.000000000000000000, 0.000000000000000000, 0.000000000000000000 ) ) ;
#90 = CARTESIAN_POINT ( 'NONE',  ( 0.000000000000000000, 0.000000000000000000, 24.97241248990059148 ) ) ;
#91 = CC_DESIGN_PERSON_AND_ORGANIZATION_ASSIGNMENT ( #83, #104, ( #38 ) ) ;
#92 = VERTEX_POINT ( 'NONE', #63 ) ;
#93 = CONICAL_SURFACE ( 'NONE', #126, 15.00000000000000000, 0.1651486774146267988 ) ;
#94 = CARTESIAN_POINT ( 'NONE',  ( 0.000000000000000000, 0.000000000000000000, 0.000000000000000000 ) ) ;
#95 = FACE_BOUND ( 'NONE', #187, .T. ) ;
#96 = DIRECTION ( 'NONE',  ( 0.000000000000000000, 0.000000000000000000, 1.000000000000000000 ) ) ;
#97 = DIRECTION ( 'NONE',  ( 0.000000000000000000, 0.000000000000000000, -1.000000000000000000 ) ) ;
#98 = CARTESIAN_POINT ( 'NONE',  ( 72.00000000000000000, 0.000000000000000000, 0.000000000000000000 ) ) ;
#99 = EDGE_CURVE ( 'NONE', #49, #130, #41, .T. ) ;
#100 = CIRCLE ( 'NONE', #12, 24.97241248990059148 ) ;
#101 = APPROVAL ( #226, 'UNSPECIFIED' ) ;
#102 = DATE_TIME_ROLE ( 'classification_date' ) ;
#103 = DIRECTION ( 'NONE',  ( 0.000000000000000000, 0.000000000000000000, 1.000000000000000000 ) ) ;
#104 = PERSON_AND_ORGANIZATION_ROLE ( 'creator' ) ;
#105 = EDGE_LOOP ( 'NONE', ( #127, #72 ) ) ;
#106 = PERSON_AND_ORGANIZATION ( #227, #118 ) ;
#107 = EDGE_LOOP ( 'NONE', ( #172, #2, #149, #229 ) ) ;
#108 = ORIENTED_EDGE ( 'NONE', *, *, #195, .T. ) ;
#109 = ADVANCED_FACE ( 'NONE', ( #156 ), #214, .F. ) ;
#110 = ORIENTED_EDGE ( 'NONE', *, *, #129, .T. ) ;
#111 = CIRCLE ( 'NONE', #58, 27.00000000000000000 ) ;
#112 = FACE_OUTER_BOUND ( 'NONE', #21, .T. ) ;
#113 = APPLICATION_CONTEXT ( 'configuration controlled 3d designs of mechanical parts and assemblies' ) ;
#114 = CARTESIAN_POINT ( 'NONE',  ( 72.00000000000000000, 1.836970198721029589E-15, -15.00000000000000000 ) ) ;
#115 = CARTESIAN_POINT ( 'NONE',  ( 0.000000000000000000, 4.959819536546779811E-15, -26.99999999999999645 ) ) ;
#116 = CARTESIAN_POINT ( 'NONE',  ( 72.00000000000000000, 2.323450422786002547E-15, -12.97241248990059148 ) ) ;
#117 = CARTESIAN_POINT ( 'NONE',  ( 71.67120202538927742, 0.000000000000000000, 0.000000000000000000 ) ) ;
#118 = ORGANIZATION ( 'UNSPECIFIED', 'UNSPECIFIED', '' ) ;
#119 = CC_DESIGN_PERSON_AND_ORGANIZATION_ASSIGNMENT ( #148, #47, ( #128 ) ) ;
#120 = CIRCLE ( 'NONE', #78, 15.00000000000000000 ) ;
#121 = EDGE_CURVE ( 'NONE', #52, #69, #67, .T. ) ;
#122 = SECURITY_CLASSIFICATION_LEVEL ( 'unclassified' ) ;
#123 = APPROVAL_ROLE ( '' ) ;
#124 = DATE_TIME_ROLE ( 'creation_date' ) ;
#125 = EDGE_CURVE ( 'NONE', #92, #147, #59, .T. ) ;
#126 = AXIS2_PLACEMENT_3D ( 'NONE', #18, #144, #184 ) ;
#127 = ORIENTED_EDGE ( 'NONE', *, *, #195, .F. ) ;
#128 = PRODUCT ( '3D_R169_ DN54-30_17323205', '3D_R169_ DN54-30_17323205', '', ( #243 ) ) ;
#129 = EDGE_CURVE ( 'NONE', #147, #130, #111, .T. ) ;
#130 = VERTEX_POINT ( 'NONE', #24 ) ;
#131 = LOCAL_TIME ( 14, 17, 53.00000000000000000, #32 ) ;
#132 = CLOSED_SHELL ( 'NONE', ( #234, #84, #66, #178, #245, #109 ) ) ;
#133 = PLANE ( 'NONE',  #145 ) ;
#134 = AXIS2_PLACEMENT_3D ( 'NONE', #98, #196, #40 ) ;
#135 = CARTESIAN_POINT ( 'NONE',  ( 72.00000000000000000, 0.000000000000000000, 0.000000000000000000 ) ) ;
#136 = UNCERTAINTY_MEASURE_WITH_UNIT (LENGTH_MEASURE( 1.000000000000000082E-05 ), #190, 'distance_accuracy_value', 'NONE');
#137 = LINE ( 'NONE', #180, #193 ) ;
#138 = AXIS2_PLACEMENT_3D ( 'NONE', #135, #175, #25 ) ;
#139 = CARTESIAN_POINT ( 'NONE',  ( 71.67120202538927742, 1.595373366417143171E-15, -13.02721215233571073 ) ) ;
#140 = EDGE_CURVE ( 'NONE', #49, #92, #158, .T. ) ;
#141 = CARTESIAN_POINT ( 'NONE',  ( 72.00000000000000000, 0.000000000000000000, 15.00000000000000000 ) ) ;
#142 = AXIS2_PLACEMENT_3D ( 'NONE', #68, #103, #1 ) ;
#143 = CALENDAR_DATE ( 2024, 17, 7 ) ;
#144 = DIRECTION ( 'NONE',  ( -1.000000000000000000, -0.000000000000000000, -0.000000000000000000 ) ) ;
#145 = AXIS2_PLACEMENT_3D ( 'NONE', #161, #27, #159 ) ;
#146 = PERSON_AND_ORGANIZATION ( #227, #118 ) ;
#147 = VERTEX_POINT ( 'NONE', #115 ) ;
#148 = PERSON_AND_ORGANIZATION ( #227, #118 ) ;
#149 = ORIENTED_EDGE ( 'NONE', *, *, #11, .F. ) ;
#150 = CC_DESIGN_PERSON_AND_ORGANIZATION_ASSIGNMENT ( #44, #207, ( #30 ) ) ;
#151 = EDGE_LOOP ( 'NONE', ( #4, #209 ) ) ;
#152 = ORIENTED_EDGE ( 'NONE', *, *, #213, .F. ) ;
#153 = LOCAL_TIME ( 14, 17, 53.00000000000000000, #163 ) ;
#154 = DIRECTION ( 'NONE',  ( 1.000000000000000000, 0.000000000000000000, 0.000000000000000000 ) ) ;
#155 = DESIGN_CONTEXT ( 'detailed design', #113, 'design' ) ;
#156 = FACE_OUTER_BOUND ( 'NONE', #233, .T. ) ;
#157 = CC_DESIGN_PERSON_AND_ORGANIZATION_ASSIGNMENT ( #248, #230, ( #173 ) ) ;
#158 = CIRCLE ( 'NONE', #223, 15.00000000000000000 ) ;
#159 = DIRECTION ( 'NONE',  ( 0.000000000000000000, 0.000000000000000000, -1.000000000000000000 ) ) ;
#160 = DIRECTION ( 'NONE',  ( 0.000000000000000000, 0.000000000000000000, -1.000000000000000000 ) ) ;
#161 = CARTESIAN_POINT ( 'NONE',  ( 0.000000000000000000, 0.000000000000000000, 0.000000000000000000 ) ) ;
#162 =( NAMED_UNIT ( * ) PLANE_ANGLE_UNIT ( ) SI_UNIT ( $, .RADIAN. ) );
#163 = COORDINATED_UNIVERSAL_TIME_OFFSET ( 1, 0, .AHEAD. ) ;
#164 = CC_DESIGN_APPROVAL ( #46, ( #30 ) ) ;
#165 = EDGE_CURVE ( 'NONE', #69, #52, #181, .T. ) ;
#166 = AXIS2_PLACEMENT_3D ( 'NONE', #89, #168, #232 ) ;
#167 = APPLICATION_PROTOCOL_DEFINITION ( 'international standard', 'config_control_design', 1994, #113 ) ;
#168 = DIRECTION ( 'NONE',  ( 1.000000000000000000, 0.000000000000000000, 0.000000000000000000 ) ) ;
#169 = ORIENTED_EDGE ( 'NONE', *, *, #121, .F. ) ;
#170 = ORIENTED_EDGE ( 'NONE', *, *, #11, .T. ) ;
#171 = ORIENTED_EDGE ( 'NONE', *, *, #61, .T. ) ;
#172 = ORIENTED_EDGE ( 'NONE', *, *, #165, .T. ) ;
#173 = SECURITY_CLASSIFICATION ( '', '', #122 ) ;
#174 = EDGE_CURVE ( 'NONE', #235, #51, #100, .T. ) ;
#175 = DIRECTION ( 'NONE',  ( 1.000000000000000000, 0.000000000000000000, 0.000000000000000000 ) ) ;
#176 = DIRECTION ( 'NONE',  ( -0.9863939238321437486, 0.000000000000000000, 0.1643989873053572914 ) ) ;
#177 = DIRECTION ( 'NONE',  ( -1.000000000000000000, -0.000000000000000000, -0.000000000000000000 ) ) ;
#178 = ADVANCED_FACE ( 'NONE', ( #95, #80 ), #133, .F. ) ;
#179 = DIRECTION ( 'NONE',  ( 1.000000000000000000, 0.000000000000000000, 0.000000000000000000 ) ) ;
#180 = CARTESIAN_POINT ( 'NONE',  ( 71.67120202538927742, 0.000000000000000000, 13.02721215233571073 ) ) ;
#181 = CIRCLE ( 'NONE', #134, 12.97241248990059148 ) ;
#182 = COORDINATED_UNIVERSAL_TIME_OFFSET ( 1, 0, .AHEAD. ) ;
#183 = EDGE_CURVE ( 'NONE', #92, #49, #120, .T. ) ;
#184 = DIRECTION ( 'NONE',  ( 0.000000000000000000, 0.000000000000000000, 1.000000000000000000 ) ) ;
#185 = CC_DESIGN_APPROVAL ( #202, ( #38 ) ) ;
#186 = DATE_AND_TIME ( #143, #131 ) ;
#187 = EDGE_LOOP ( 'NONE', ( #170, #70 ) ) ;
#188 = PERSON_AND_ORGANIZATION ( #227, #118 ) ;
#189 = EDGE_LOOP ( 'NONE', ( #34, #55, #110, #31 ) ) ;
#190 =( LENGTH_UNIT ( ) NAMED_UNIT ( * ) SI_UNIT ( .MILLI., .METRE. ) );
#191 = ORIENTED_EDGE ( 'NONE', *, *, #121, .T. ) ;
#192 = EDGE_LOOP ( 'NONE', ( #76, #169 ) ) ;
#193 = VECTOR ( 'NONE', #176, 1000.000000000000000 ) ;
#194 = ORIENTED_EDGE ( 'NONE', *, *, #140, .F. ) ;
#195 = EDGE_CURVE ( 'NONE', #130, #147, #17, .T. ) ;
#196 = DIRECTION ( 'NONE',  ( 1.000000000000000000, 0.000000000000000000, 0.000000000000000000 ) ) ;
#197 = CARTESIAN_POINT ( 'NONE',  ( 72.00000000000000000, 0.000000000000000000, 0.000000000000000000 ) ) ;
#198 = FACE_OUTER_BOUND ( 'NONE', #151, .T. ) ;
#199 = DIRECTION ( 'NONE',  ( 1.000000000000000000, 0.000000000000000000, 0.000000000000000000 ) ) ;
#200 = DIRECTION ( 'NONE',  ( -1.000000000000000000, -0.000000000000000000, -0.000000000000000000 ) ) ;
#201 = AXIS2_PLACEMENT_3D ( 'NONE', #219, #240, #62 ) ;
#202 = APPROVAL ( #45, 'UNSPECIFIED' ) ;
#203 = AXIS2_PLACEMENT_3D ( 'NONE', #79, #200, #96 ) ;
#204 = DATE_AND_TIME ( #85, #208 ) ;
#205 = CC_DESIGN_DATE_AND_TIME_ASSIGNMENT ( #86, #124, ( #38 ) ) ;
#206 = COORDINATED_UNIVERSAL_TIME_OFFSET ( 1, 0, .AHEAD. ) ;
#207 = PERSON_AND_ORGANIZATION_ROLE ( 'creator' ) ;
#208 = LOCAL_TIME ( 14, 17, 53.00000000000000000, #182 ) ;
#209 = ORIENTED_EDGE ( 'NONE', *, *, #183, .T. ) ;
#210 =( NAMED_UNIT ( * ) SI_UNIT ( $, .STERADIAN. ) SOLID_ANGLE_UNIT ( ) );
#211 = ORIENTED_EDGE ( 'NONE', *, *, #99, .T. ) ;
#212 = ORIENTED_EDGE ( 'NONE', *, *, #174, .F. ) ;
#213 = EDGE_CURVE ( 'NONE', #52, #235, #241, .T. ) ;
#214 = CONICAL_SURFACE ( 'NONE', #36, 13.02721215233571073, 0.1651486774146267988 ) ;
#215 = DIRECTION ( 'NONE',  ( 0.000000000000000000, 0.000000000000000000, 1.000000000000000000 ) ) ;
#216 = CONICAL_SURFACE ( 'NONE', #203, 15.00000000000000000, 0.1651486774146267988 ) ;
#217 = CARTESIAN_POINT ( 'NONE',  ( 71.67120202538927742, 0.000000000000000000, 0.000000000000000000 ) ) ;
#218 = FACE_OUTER_BOUND ( 'NONE', #189, .T. ) ;
#219 = CARTESIAN_POINT ( 'NONE',  ( 0.000000000000000000, 0.000000000000000000, 0.000000000000000000 ) ) ;
#220 = DIRECTION ( 'NONE',  ( -0.9863939238321437486, 0.000000000000000000, 0.1643989873053572914 ) ) ;
#221 = CC_DESIGN_APPROVAL ( #101, ( #173 ) ) ;
#222 = MANIFOLD_SOLID_BREP ( 'Wandung2', #132 ) ;
#223 = AXIS2_PLACEMENT_3D ( 'NONE', #197, #81, #160 ) ;
#224 = APPLICATION_CONTEXT ( 'configuration controlled 3d designs of mechanical parts and assemblies' ) ;
#225 = APPROVAL_ROLE ( '' ) ;
#226 = APPROVAL_STATUS ( 'not_yet_approved' ) ;
#227 = PERSON ( 'UNSPECIFIED', 'UNSPECIFIED', 'UNSPECIFIED', ('UNSPECIFIED'), ('UNSPECIFIED'), ('UNSPECIFIED') ) ;
#228 = AXIS2_PLACEMENT_3D ( 'NONE', #39, #199, #97 ) ;
#229 = ORIENTED_EDGE ( 'NONE', *, *, #61, .F. ) ;
#230 = PERSON_AND_ORGANIZATION_ROLE ( 'classification_officer' ) ;
#231 = COORDINATED_UNIVERSAL_TIME_OFFSET ( 1, 0, .AHEAD. ) ;
#232 = DIRECTION ( 'NONE',  ( 0.000000000000000000, 0.000000000000000000, -1.000000000000000000 ) ) ;
#233 = EDGE_LOOP ( 'NONE', ( #152, #191, #171, #212 ) ) ;
#234 = ADVANCED_FACE ( 'NONE', ( #236 ), #88, .F. ) ;
#235 = VERTEX_POINT ( 'NONE', #37 ) ;
#236 = FACE_OUTER_BOUND ( 'NONE', #107, .T. ) ;
#237 = AXIS2_PLACEMENT_3D ( 'NONE', #117, #56, #215 ) ;
#238 = DIRECTION ( 'NONE',  ( 0.000000000000000000, 0.000000000000000000, -1.000000000000000000 ) ) ;
#239 = DIRECTION ( 'NONE',  ( -0.9863939238321437486, 2.013306935865721687E-17, -0.1643989873053572914 ) ) ;
#240 = DIRECTION ( 'NONE',  ( 1.000000000000000000, 0.000000000000000000, 0.000000000000000000 ) ) ;
#241 = LINE ( 'NONE', #139, #247 ) ;
#242 = CC_DESIGN_PERSON_AND_ORGANIZATION_ASSIGNMENT ( #188, #87, ( #30 ) ) ;
#243 = MECHANICAL_CONTEXT ( 'NONE', #224, 'mechanical' ) ;
#244 = APPROVAL_PERSON_ORGANIZATION ( #106, #46, #225 ) ;
#245 = ADVANCED_FACE ( 'NONE', ( #112 ), #93, .T. ) ;
#246 = APPROVAL_STATUS ( 'not_yet_approved' ) ;
#247 = VECTOR ( 'NONE', #42, 1000.000000000000000 ) ;
#248 = PERSON_AND_ORGANIZATION ( #227, #118 ) ;
#249 = CARTESIAN_POINT ( 'NONE',  ( 72.00000000000000000, 9.184850993605147944E-16, 15.00000000000000000 ) ) ;
ENDSEC;
END-ISO-10303-21;
