ISO-10303-21;
HEADER;
FILE_DESCRIPTION (( 'STEP AP203' ),
    '1' );
FILE_NAME ('19-0408-76_outokumpu.step',
    '2015-08-11T09:41:13',
    ( '' ),
    ( '' ),
    'SwSTEP 2.0',
    'SolidWorks 2008',
    '' );
FILE_SCHEMA (( 'CONFIG_CONTROL_DESIGN' ));
ENDSEC;

DATA;
#1 = AXIS2_PLACEMENT_3D ( 'NONE', #6, #7, #5 ) ;
#2 = DIRECTION ( 'NONE',  ( -0.0000000000000000000, -0.0000000000000000000, 1.000000000000000000 ) ) ;
#3 = VECTOR ( 'NONE', #2, 1000.000000000000000 ) ;
#4 = CIRCLE ( 'NONE', #1, 15.14549999999998600 ) ;
#5 = DIRECTION ( 'NONE',  ( 1.000000000000000000, 0.0000000000000000000, 0.0000000000000000000 ) ) ;
#6 = CARTESIAN_POINT ( 'NONE',  ( 0.0000000000000000000, 0.0000000000000000000, -59.99999999999999300 ) ) ;
#7 = DIRECTION ( 'NONE',  ( -0.0000000000000000000, -0.0000000000000000000, 1.000000000000000000 ) ) ;
#8 = UNCERTAINTY_MEASURE_WITH_UNIT (LENGTH_MEASURE( 1.000000000000000100E-005 ), #338, 'distance_accuracy_value', 'NONE');
#9 = APPROVAL_ROLE ( '' ) ;
#10 =( GEOMETRIC_REPRESENTATION_CONTEXT ( 3 ) GLOBAL_UNCERTAINTY_ASSIGNED_CONTEXT ( ( #8 ) ) GLOBAL_UNIT_ASSIGNED_CONTEXT ( ( #338, #343, #344 ) ) REPRESENTATION_CONTEXT ( 'NONE', 'WORKASPACE' ) );
#11 = ADVANCED_BREP_SHAPE_REPRESENTATION ( '19-0408-76_outokumpu', ( #105, #42 ), #10 ) ;
#12 = DIRECTION ( 'NONE',  ( 0.0000000000000000000, 1.000000000000000000, 0.0000000000000000000 ) ) ;
#13 = DIRECTION ( 'NONE',  ( -0.0000000000000000000, -2.556168068605762400E-018, -1.000000000000000000 ) ) ;
#14 = DIRECTION ( 'NONE',  ( 0.0000000000000000000, 0.0000000000000000000, 1.000000000000000000 ) ) ;
#15 = ADVANCED_FACE ( 'NONE', ( #47 ), #45, .F. ) ;
#16 = EDGE_LOOP ( 'NONE', ( #17, #21, #76, #77, #80 ) ) ;
#17 = ORIENTED_EDGE ( 'NONE', *, *, #18, .F. ) ;
#18 = EDGE_CURVE ( 'NONE', #19, #20, #154, .T. ) ;
#19 = VERTEX_POINT ( 'NONE', #149 ) ;
#20 = VERTEX_POINT ( 'NONE', #148 ) ;
#21 = ORIENTED_EDGE ( 'NONE', *, *, #22, .T. ) ;
#22 = EDGE_CURVE ( 'NONE', #19, #127, #147, .T. ) ;
#23 = ORIENTED_EDGE ( 'NONE', *, *, #24, .F. ) ;
#24 = EDGE_CURVE ( 'NONE', #128, #79, #4, .T. ) ;
#25 = ORIENTED_EDGE ( 'NONE', *, *, #81, .T. ) ;
#26 = ORIENTED_EDGE ( 'NONE', *, *, #27, .F. ) ;
#27 = EDGE_CURVE ( 'NONE', #20, #19, #287, .T. ) ;
#28 = ORIENTED_EDGE ( 'NONE', *, *, #22, .F. ) ;
#29 = ADVANCED_FACE ( 'NONE', ( #291 ), #286, .F. ) ;
#30 = EDGE_CURVE ( 'NONE', #114, #113, #285, .T. ) ;
#31 = ORIENTED_EDGE ( 'NONE', *, *, #140, .T. ) ;
#32 = EDGE_CURVE ( 'NONE', #131, #89, #196, .T. ) ;
#33 = ORIENTED_EDGE ( 'NONE', *, *, #32, .T. ) ;
#34 = EDGE_LOOP ( 'NONE', ( #28, #26, #25, #23, #38 ) ) ;
#35 = ORIENTED_EDGE ( 'NONE', *, *, #30, .F. ) ;
#36 = ORIENTED_EDGE ( 'NONE', *, *, #86, .F. ) ;
#37 = ADVANCED_FACE ( 'NONE', ( #197 ), #293, .F. ) ;
#38 = ORIENTED_EDGE ( 'NONE', *, *, #126, .F. ) ;
#39 = EDGE_LOOP ( 'NONE', ( #36, #35, #31, #33 ) ) ;
#40 = EDGE_CURVE ( 'NONE', #117, #120, #253, .T. ) ;
#41 = CARTESIAN_POINT ( 'NONE',  ( 0.0000000000000000000, 0.0000000000000000000, 0.0000000000000000000 ) ) ;
#42 = AXIS2_PLACEMENT_3D ( 'NONE', #41, #14, #143 ) ;
#43 = ORIENTED_EDGE ( 'NONE', *, *, #40, .T. ) ;
#44 = AXIS2_PLACEMENT_3D ( 'NONE', #46, #13, #12 ) ;
#45 = CYLINDRICAL_SURFACE ( 'NONE', #44, 15.14550000000000200 ) ;
#46 = CARTESIAN_POINT ( 'NONE',  ( 0.0000000000000000000, -3.673940397442076500E-015, -80.00000000000007100 ) ) ;
#47 = FACE_OUTER_BOUND ( 'NONE', #16, .T. ) ;
#48 = ORIENTED_EDGE ( 'NONE', *, *, #135, .T. ) ;
#49 = ORIENTED_EDGE ( 'NONE', *, *, #122, .T. ) ;
#50 = ORIENTED_EDGE ( 'NONE', *, *, #40, .F. ) ;
#51 = CLOSED_SHELL ( 'NONE', ( #106, #123, #95, #15, #82, #141, #37, #29, #73, #69, #61, #52 ) ) ;
#52 = ADVANCED_FACE ( 'NONE', ( #202 ), #201, .F. ) ;
#53 = EDGE_LOOP ( 'NONE', ( #54, #55, #49, #50 ) ) ;
#54 = ORIENTED_EDGE ( 'NONE', *, *, #116, .F. ) ;
#55 = ORIENTED_EDGE ( 'NONE', *, *, #30, .T. ) ;
#56 = ORIENTED_EDGE ( 'NONE', *, *, #91, .T. ) ;
#57 = ORIENTED_EDGE ( 'NONE', *, *, #32, .F. ) ;
#58 = ORIENTED_EDGE ( 'NONE', *, *, #24, .T. ) ;
#59 = ORIENTED_EDGE ( 'NONE', *, *, #78, .T. ) ;
#60 = ORIENTED_EDGE ( 'NONE', *, *, #130, .F. ) ;
#61 = ADVANCED_FACE ( 'NONE', ( #200 ), #171, .F. ) ;
#62 = EDGE_LOOP ( 'NONE', ( #60, #58, #59, #56, #57 ) ) ;
#63 = ORIENTED_EDGE ( 'NONE', *, *, #68, .T. ) ;
#64 = EDGE_LOOP ( 'NONE', ( #48, #63 ) ) ;
#65 = ORIENTED_EDGE ( 'NONE', *, *, #27, .T. ) ;
#66 = ORIENTED_EDGE ( 'NONE', *, *, #18, .T. ) ;
#67 = ORIENTED_EDGE ( 'NONE', *, *, #68, .F. ) ;
#68 = EDGE_CURVE ( 'NONE', #133, #136, #170, .T. ) ;
#69 = ADVANCED_FACE ( 'NONE', ( #297, #296 ), #295, .F. ) ;
#70 = EDGE_LOOP ( 'NONE', ( #65, #66 ) ) ;
#71 = ORIENTED_EDGE ( 'NONE', *, *, #138, .T. ) ;
#72 = ORIENTED_EDGE ( 'NONE', *, *, #102, .F. ) ;
#73 = ADVANCED_FACE ( 'NONE', ( #218 ), #214, .T. ) ;
#74 = EDGE_LOOP ( 'NONE', ( #72, #103, #71, #67 ) ) ;
#75 = ORIENTED_EDGE ( 'NONE', *, *, #98, .F. ) ;
#76 = ORIENTED_EDGE ( 'NONE', *, *, #94, .F. ) ;
#77 = ORIENTED_EDGE ( 'NONE', *, *, #78, .F. ) ;
#78 = EDGE_CURVE ( 'NONE', #79, #92, #167, .T. ) ;
#79 = VERTEX_POINT ( 'NONE', #274 ) ;
#80 = ORIENTED_EDGE ( 'NONE', *, *, #81, .F. ) ;
#81 = EDGE_CURVE ( 'NONE', #20, #79, #273, .T. ) ;
#82 = ADVANCED_FACE ( 'NONE', ( #269 ), #268, .F. ) ;
#83 = EDGE_LOOP ( 'NONE', ( #84, #85, #87, #139 ) ) ;
#84 = ORIENTED_EDGE ( 'NONE', *, *, #112, .F. ) ;
#85 = ORIENTED_EDGE ( 'NONE', *, *, #86, .T. ) ;
#86 = EDGE_CURVE ( 'NONE', #113, #89, #263, .T. ) ;
#87 = ORIENTED_EDGE ( 'NONE', *, *, #88, .T. ) ;
#88 = EDGE_CURVE ( 'NONE', #89, #131, #259, .T. ) ;
#89 = VERTEX_POINT ( 'NONE', #211 ) ;
#90 = ORIENTED_EDGE ( 'NONE', *, *, #91, .F. ) ;
#91 = EDGE_CURVE ( 'NONE', #92, #89, #210, .T. ) ;
#92 = VERTEX_POINT ( 'NONE', #206 ) ;
#93 = ORIENTED_EDGE ( 'NONE', *, *, #94, .T. ) ;
#94 = EDGE_CURVE ( 'NONE', #92, #127, #284, .T. ) ;
#95 = ADVANCED_FACE ( 'NONE', ( #205 ), #279, .T. ) ;
#96 = EDGE_LOOP ( 'NONE', ( #97, #101, #134, #137 ) ) ;
#97 = ORIENTED_EDGE ( 'NONE', *, *, #98, .T. ) ;
#98 = EDGE_CURVE ( 'NONE', #99, #100, #249, .T. ) ;
#99 = VERTEX_POINT ( 'NONE', #244 ) ;
#100 = VERTEX_POINT ( 'NONE', #243 ) ;
#101 = ORIENTED_EDGE ( 'NONE', *, *, #102, .T. ) ;
#102 = EDGE_CURVE ( 'NONE', #100, #133, #242, .T. ) ;
#103 = ORIENTED_EDGE ( 'NONE', *, *, #109, .T. ) ;
#104 = EDGE_LOOP ( 'NONE', ( #107, #115, #118, #121 ) ) ;
#105 = MANIFOLD_SOLID_BREP ( 'NONE', #51 ) ;
#106 = ADVANCED_FACE ( 'NONE', ( #238 ), #237, .F. ) ;
#107 = ORIENTED_EDGE ( 'NONE', *, *, #112, .T. ) ;
#108 = ORIENTED_EDGE ( 'NONE', *, *, #109, .F. ) ;
#109 = EDGE_CURVE ( 'NONE', #100, #99, #232, .T. ) ;
#110 = EDGE_LOOP ( 'NONE', ( #111, #43 ) ) ;
#111 = ORIENTED_EDGE ( 'NONE', *, *, #119, .T. ) ;
#112 = EDGE_CURVE ( 'NONE', #113, #114, #227, .T. ) ;
#113 = VERTEX_POINT ( 'NONE', #222 ) ;
#114 = VERTEX_POINT ( 'NONE', #221 ) ;
#115 = ORIENTED_EDGE ( 'NONE', *, *, #116, .T. ) ;
#116 = EDGE_CURVE ( 'NONE', #114, #117, #220, .T. ) ;
#117 = VERTEX_POINT ( 'NONE', #323 ) ;
#118 = ORIENTED_EDGE ( 'NONE', *, *, #119, .F. ) ;
#119 = EDGE_CURVE ( 'NONE', #120, #117, #322, .T. ) ;
#120 = VERTEX_POINT ( 'NONE', #317 ) ;
#121 = ORIENTED_EDGE ( 'NONE', *, *, #122, .F. ) ;
#122 = EDGE_CURVE ( 'NONE', #113, #120, #316, .T. ) ;
#123 = ADVANCED_FACE ( 'NONE', ( #312 ), #310, .F. ) ;
#124 = EDGE_LOOP ( 'NONE', ( #125, #129, #132, #90, #93 ) ) ;
#125 = ORIENTED_EDGE ( 'NONE', *, *, #126, .T. ) ;
#126 = EDGE_CURVE ( 'NONE', #127, #128, #311, .T. ) ;
#127 = VERTEX_POINT ( 'NONE', #190 ) ;
#128 = VERTEX_POINT ( 'NONE', #189 ) ;
#129 = ORIENTED_EDGE ( 'NONE', *, *, #130, .T. ) ;
#130 = EDGE_CURVE ( 'NONE', #128, #131, #188, .T. ) ;
#131 = VERTEX_POINT ( 'NONE', #184 ) ;
#132 = ORIENTED_EDGE ( 'NONE', *, *, #88, .F. ) ;
#133 = VERTEX_POINT ( 'NONE', #183 ) ;
#134 = ORIENTED_EDGE ( 'NONE', *, *, #135, .F. ) ;
#135 = EDGE_CURVE ( 'NONE', #136, #133, #182, .T. ) ;
#136 = VERTEX_POINT ( 'NONE', #330 ) ;
#137 = ORIENTED_EDGE ( 'NONE', *, *, #138, .F. ) ;
#138 = EDGE_CURVE ( 'NONE', #99, #136, #328, .T. ) ;
#139 = ORIENTED_EDGE ( 'NONE', *, *, #140, .F. ) ;
#140 = EDGE_CURVE ( 'NONE', #114, #131, #337, .T. ) ;
#141 = ADVANCED_FACE ( 'NONE', ( #336, #332 ), #331, .F. ) ;
#142 = EDGE_LOOP ( 'NONE', ( #75, #108 ) ) ;
#143 = DIRECTION ( 'NONE',  ( 1.000000000000000000, 0.0000000000000000000, 0.0000000000000000000 ) ) ;
#144 = DIRECTION ( 'NONE',  ( -0.0000000000000000000, -2.556168068605762400E-018, -1.000000000000000000 ) ) ;
#145 = VECTOR ( 'NONE', #144, 1000.000000000000000 ) ;
#146 = CARTESIAN_POINT ( 'NONE',  ( 1.854727553181681600E-015, -15.14550000000000600, -80.00000000000007100 ) ) ;
#147 = LINE ( 'NONE', #146, #145 ) ;
#148 = CARTESIAN_POINT ( 'NONE',  ( 0.0000000000000000000, 15.14549999999998800, -3.871444348306855000E-017 ) ) ;
#149 = CARTESIAN_POINT ( 'NONE',  ( 1.854727553181681200E-015, -15.14549999999999500, 3.871444348306854300E-017 ) ) ;
#150 = DIRECTION ( 'NONE',  ( 0.0000000000000000000, 1.000000000000000000, -2.556168068605762000E-018 ) ) ;
#151 = DIRECTION ( 'NONE',  ( -0.0000000000000000000, -2.556168068605762400E-018, -1.000000000000000000 ) ) ;
#152 = CARTESIAN_POINT ( 'NONE',  ( 0.0000000000000000000, -3.469446951953615000E-015, 0.0000000000000000000 ) ) ;
#153 = AXIS2_PLACEMENT_3D ( 'NONE', #152, #151, #150 ) ;
#154 = CIRCLE ( 'NONE', #153, 15.14549999999999100 ) ;
#155 = DIRECTION ( 'NONE',  ( 1.000000000000000000, 0.0000000000000000000, 0.0000000000000000000 ) ) ;
#156 = DIRECTION ( 'NONE',  ( -0.0000000000000000000, -0.0000000000000000000, 1.000000000000000000 ) ) ;
#157 = CARTESIAN_POINT ( 'NONE',  ( 0.0000000000000000000, 0.0000000000000000000, -79.41945966758454700 ) ) ;
#158 = AXIS2_PLACEMENT_3D ( 'NONE', #157, #156, #155 ) ;
#159 = CARTESIAN_POINT ( 'NONE',  ( 0.0000000000000000000, 0.0000000000000000000, -61.15449999999998500 ) ) ;
#160 = DIRECTION ( 'NONE',  ( -0.0000000000000000000, -0.0000000000000000000, 1.000000000000000000 ) ) ;
#161 = CARTESIAN_POINT ( 'NONE',  ( 0.0000000000000000000, 0.0000000000000000000, -59.99999999999999300 ) ) ;
#162 = AXIS2_PLACEMENT_3D ( 'NONE', #161, #160, #275 ) ;
#163 = DIRECTION ( 'NONE',  ( 1.000000000000000000, 0.0000000000000000000, 0.0000000000000000000 ) ) ;
#164 = DIRECTION ( 'NONE',  ( -0.0000000000000000000, -0.0000000000000000000, 1.000000000000000000 ) ) ;
#165 = CARTESIAN_POINT ( 'NONE',  ( 0.0000000000000000000, 0.0000000000000000000, -4.336808689942017700E-016 ) ) ;
#166 = AXIS2_PLACEMENT_3D ( 'NONE', #165, #164, #163 ) ;
#167 = CIRCLE ( 'NONE', #162, 15.14549999999998600 ) ;
#168 = CARTESIAN_POINT ( 'NONE',  ( 0.0000000000000000000, 0.0000000000000000000, -61.15449999999998500 ) ) ;
#169 = AXIS2_PLACEMENT_3D ( 'NONE', #168, #303, #302 ) ;
#170 = CIRCLE ( 'NONE', #301, 19.89999999999999900 ) ;
#171 = CONICAL_SURFACE ( 'NONE', #169, 16.62450000000000100, 0.9080002089392093000 ) ;
#172 = DIRECTION ( 'NONE',  ( -1.000000000000000000, 0.0000000000000000000, 0.0000000000000000000 ) ) ;
#173 = DIRECTION ( 'NONE',  ( 0.0000000000000000000, 0.0000000000000000000, -1.000000000000000000 ) ) ;
#174 = DIRECTION ( 'NONE',  ( 0.0000000000000000000, 1.000000000000000000, 0.0000000000000000000 ) ) ;
#175 = DIRECTION ( 'NONE',  ( -0.0000000000000000000, -2.556168068605762400E-018, -1.000000000000000000 ) ) ;
#176 = CARTESIAN_POINT ( 'NONE',  ( 0.0000000000000000000, -3.673940397442076500E-015, -80.00000000000007100 ) ) ;
#177 = AXIS2_PLACEMENT_3D ( 'NONE', #176, #175, #174 ) ;
#178 = DIRECTION ( 'NONE',  ( 1.000000000000000000, 0.0000000000000000000, 0.0000000000000000000 ) ) ;
#179 = DIRECTION ( 'NONE',  ( -0.0000000000000000000, -0.0000000000000000000, 1.000000000000000000 ) ) ;
#180 = CARTESIAN_POINT ( 'NONE',  ( 0.0000000000000000000, 0.0000000000000000000, 0.0000000000000000000 ) ) ;
#181 = AXIS2_PLACEMENT_3D ( 'NONE', #180, #179, #178 ) ;
#182 = CIRCLE ( 'NONE', #181, 19.89999999999999900 ) ;
#183 = CARTESIAN_POINT ( 'NONE',  ( -19.89999999999999900, 2.436966644106530700E-015, 0.0000000000000000000 ) ) ;
#184 = CARTESIAN_POINT ( 'NONE',  ( 16.62450000000000100, 0.0000000000000000000, -61.15449999999998500 ) ) ;
#185 = DIRECTION ( 'NONE',  ( 0.7882747985675415700, 9.653263268838659800E-017, -0.6153233637229305100 ) ) ;
#186 = VECTOR ( 'NONE', #185, 1000.000000000000000 ) ;
#187 = CARTESIAN_POINT ( 'NONE',  ( 16.62450000000000100, 2.035846832912011300E-015, -61.15449999999998500 ) ) ;
#188 = LINE ( 'NONE', #187, #186 ) ;
#189 = CARTESIAN_POINT ( 'NONE',  ( 15.14549999999998600, 1.945287193046845300E-015, -59.99999999999999300 ) ) ;
#190 = CARTESIAN_POINT ( 'NONE',  ( 1.854727553181680900E-015, -15.14549999999998600, -59.99999999999999300 ) ) ;
#191 = DIRECTION ( 'NONE',  ( 1.000000000000000000, 0.0000000000000000000, 0.0000000000000000000 ) ) ;
#192 = DIRECTION ( 'NONE',  ( -0.0000000000000000000, -0.0000000000000000000, 1.000000000000000000 ) ) ;
#193 = DIRECTION ( 'NONE',  ( 1.000000000000000000, 0.0000000000000000000, 0.0000000000000000000 ) ) ;
#194 = DIRECTION ( 'NONE',  ( -0.0000000000000000000, -0.0000000000000000000, 1.000000000000000000 ) ) ;
#195 = AXIS2_PLACEMENT_3D ( 'NONE', #159, #194, #193 ) ;
#196 = CIRCLE ( 'NONE', #195, 16.62450000000000100 ) ;
#197 = FACE_OUTER_BOUND ( 'NONE', #39, .T. ) ;
#198 = CARTESIAN_POINT ( 'NONE',  ( 0.0000000000000000000, 0.0000000000000000000, -80.00000000000001400 ) ) ;
#199 = AXIS2_PLACEMENT_3D ( 'NONE', #198, #173, #172 ) ;
#200 = FACE_OUTER_BOUND ( 'NONE', #62, .T. ) ;
#201 = CONICAL_SURFACE ( 'NONE', #199, 17.20504033241546800, 0.7853981633974422800 ) ;
#202 = FACE_OUTER_BOUND ( 'NONE', #53, .T. ) ;
#203 = DIRECTION ( 'NONE',  ( 1.000000000000000000, 0.0000000000000000000, 0.0000000000000000000 ) ) ;
#204 = DIRECTION ( 'NONE',  ( -0.0000000000000000000, -0.0000000000000000000, 1.000000000000000000 ) ) ;
#205 = FACE_OUTER_BOUND ( 'NONE', #96, .T. ) ;
#206 = CARTESIAN_POINT ( 'NONE',  ( -15.14549999999998600, 0.0000000000000000000, -59.99999999999999300 ) ) ;
#207 = DIRECTION ( 'NONE',  ( -0.7882747985675415700, 0.0000000000000000000, -0.6153233637229305100 ) ) ;
#208 = VECTOR ( 'NONE', #207, 1000.000000000000000 ) ;
#209 = CARTESIAN_POINT ( 'NONE',  ( -16.62450000000000100, 0.0000000000000000000, -61.15449999999998500 ) ) ;
#210 = LINE ( 'NONE', #209, #208 ) ;
#211 = CARTESIAN_POINT ( 'NONE',  ( -16.62450000000000100, 2.035846832912011300E-015, -61.15449999999998500 ) ) ;
#212 = DIRECTION ( 'NONE',  ( 1.000000000000000000, 0.0000000000000000000, 0.0000000000000000000 ) ) ;
#213 = DIRECTION ( 'NONE',  ( -0.0000000000000000000, -0.0000000000000000000, 1.000000000000000000 ) ) ;
#214 = CYLINDRICAL_SURFACE ( 'NONE', #166, 19.89999999999999900 ) ;
#215 = DIRECTION ( 'NONE',  ( -1.000000000000000000, 0.0000000000000000000, -0.0000000000000000000 ) ) ;
#216 = DIRECTION ( 'NONE',  ( 0.0000000000000000000, 0.0000000000000000000, -1.000000000000000000 ) ) ;
#217 = CARTESIAN_POINT ( 'NONE',  ( 0.0000000000000000000, 19.89999999999999900, -2.168404344971008900E-016 ) ) ;
#218 = FACE_OUTER_BOUND ( 'NONE', #74, .T. ) ;
#219 = AXIS2_PLACEMENT_3D ( 'NONE', #217, #216, #215 ) ;
#220 = LINE ( 'NONE', #326, #325 ) ;
#221 = CARTESIAN_POINT ( 'NONE',  ( 16.62450000000000100, 0.0000000000000000000, -79.41945966758454700 ) ) ;
#222 = CARTESIAN_POINT ( 'NONE',  ( -16.62450000000000100, 2.035846832912011300E-015, -79.41945966758454700 ) ) ;
#223 = DIRECTION ( 'NONE',  ( 1.000000000000000000, 0.0000000000000000000, 0.0000000000000000000 ) ) ;
#224 = DIRECTION ( 'NONE',  ( -0.0000000000000000000, -0.0000000000000000000, 1.000000000000000000 ) ) ;
#225 = CARTESIAN_POINT ( 'NONE',  ( 0.0000000000000000000, 0.0000000000000000000, -79.41945966758454700 ) ) ;
#226 = AXIS2_PLACEMENT_3D ( 'NONE', #225, #224, #223 ) ;
#227 = CIRCLE ( 'NONE', #226, 16.62450000000000100 ) ;
#228 = DIRECTION ( 'NONE',  ( 1.000000000000000000, 0.0000000000000000000, 0.0000000000000000000 ) ) ;
#229 = DIRECTION ( 'NONE',  ( -0.0000000000000000000, -0.0000000000000000000, 1.000000000000000000 ) ) ;
#230 = CARTESIAN_POINT ( 'NONE',  ( 0.0000000000000000000, 0.0000000000000000000, -80.00000000000000000 ) ) ;
#231 = AXIS2_PLACEMENT_3D ( 'NONE', #230, #229, #228 ) ;
#232 = CIRCLE ( 'NONE', #231, 19.89999999999999900 ) ;
#233 = DIRECTION ( 'NONE',  ( -1.000000000000000000, 0.0000000000000000000, 0.0000000000000000000 ) ) ;
#234 = DIRECTION ( 'NONE',  ( 0.0000000000000000000, 0.0000000000000000000, -1.000000000000000000 ) ) ;
#235 = CARTESIAN_POINT ( 'NONE',  ( 0.0000000000000000000, 0.0000000000000000000, -80.00000000000001400 ) ) ;
#236 = AXIS2_PLACEMENT_3D ( 'NONE', #235, #234, #233 ) ;
#237 = CONICAL_SURFACE ( 'NONE', #236, 17.20504033241546800, 0.7853981633974422800 ) ;
#238 = FACE_OUTER_BOUND ( 'NONE', #104, .T. ) ;
#239 = DIRECTION ( 'NONE',  ( -0.0000000000000000000, -0.0000000000000000000, 1.000000000000000000 ) ) ;
#240 = VECTOR ( 'NONE', #239, 1000.000000000000000 ) ;
#241 = CARTESIAN_POINT ( 'NONE',  ( -19.89999999999999900, 2.436966644106530700E-015, -4.336808689942017700E-016 ) ) ;
#242 = LINE ( 'NONE', #241, #240 ) ;
#243 = CARTESIAN_POINT ( 'NONE',  ( -19.89999999999999900, 2.436966644106530700E-015, -80.00000000000000000 ) ) ;
#244 = CARTESIAN_POINT ( 'NONE',  ( 19.89999999999999900, 0.0000000000000000000, -80.00000000000000000 ) ) ;
#245 = DIRECTION ( 'NONE',  ( 1.000000000000000000, 0.0000000000000000000, 0.0000000000000000000 ) ) ;
#246 = DIRECTION ( 'NONE',  ( -0.0000000000000000000, -0.0000000000000000000, 1.000000000000000000 ) ) ;
#247 = CARTESIAN_POINT ( 'NONE',  ( 0.0000000000000000000, 0.0000000000000000000, -80.00000000000000000 ) ) ;
#248 = AXIS2_PLACEMENT_3D ( 'NONE', #247, #246, #245 ) ;
#249 = CIRCLE ( 'NONE', #248, 19.89999999999999900 ) ;
#250 = DIRECTION ( 'NONE',  ( 1.000000000000000000, 0.0000000000000000000, 0.0000000000000000000 ) ) ;
#251 = CARTESIAN_POINT ( 'NONE',  ( 0.0000000000000000000, 0.0000000000000000000, -80.00000000000001400 ) ) ;
#252 = AXIS2_PLACEMENT_3D ( 'NONE', #251, #204, #203 ) ;
#253 = CIRCLE ( 'NONE', #252, 17.20504033241546800 ) ;
#254 = DIRECTION ( 'NONE',  ( 1.000000000000000000, 0.0000000000000000000, 0.0000000000000000000 ) ) ;
#255 = DIRECTION ( 'NONE',  ( -0.0000000000000000000, -0.0000000000000000000, 1.000000000000000000 ) ) ;
#256 = AXIS2_PLACEMENT_3D ( 'NONE', #294, #255, #254 ) ;
#257 = CARTESIAN_POINT ( 'NONE',  ( 0.0000000000000000000, 0.0000000000000000000, -61.15449999999998500 ) ) ;
#258 = AXIS2_PLACEMENT_3D ( 'NONE', #257, #213, #212 ) ;
#259 = CIRCLE ( 'NONE', #258, 16.62450000000000100 ) ;
#260 = DIRECTION ( 'NONE',  ( -0.0000000000000000000, -0.0000000000000000000, 1.000000000000000000 ) ) ;
#261 = VECTOR ( 'NONE', #260, 1000.000000000000000 ) ;
#262 = CARTESIAN_POINT ( 'NONE',  ( -16.62450000000000100, 2.035846832912011300E-015, -4.336808689942017700E-016 ) ) ;
#263 = LINE ( 'NONE', #262, #261 ) ;
#264 = DIRECTION ( 'NONE',  ( 1.000000000000000000, 0.0000000000000000000, 0.0000000000000000000 ) ) ;
#265 = DIRECTION ( 'NONE',  ( -0.0000000000000000000, -0.0000000000000000000, 1.000000000000000000 ) ) ;
#266 = CARTESIAN_POINT ( 'NONE',  ( 0.0000000000000000000, 0.0000000000000000000, -4.336808689942017700E-016 ) ) ;
#267 = AXIS2_PLACEMENT_3D ( 'NONE', #266, #265, #264 ) ;
#268 = CYLINDRICAL_SURFACE ( 'NONE', #267, 16.62450000000000100 ) ;
#269 = FACE_OUTER_BOUND ( 'NONE', #83, .T. ) ;
#270 = DIRECTION ( 'NONE',  ( -0.0000000000000000000, -2.556168068605762400E-018, -1.000000000000000000 ) ) ;
#271 = VECTOR ( 'NONE', #270, 1000.000000000000000 ) ;
#272 = CARTESIAN_POINT ( 'NONE',  ( 0.0000000000000000000, 15.14549999999999800, -80.00000000000007100 ) ) ;
#273 = LINE ( 'NONE', #272, #271 ) ;
#274 = CARTESIAN_POINT ( 'NONE',  ( 0.0000000000000000000, 15.14549999999998600, -59.99999999999999300 ) ) ;
#275 = DIRECTION ( 'NONE',  ( 1.000000000000000000, 0.0000000000000000000, 0.0000000000000000000 ) ) ;
#276 = DIRECTION ( 'NONE',  ( -0.0000000000000000000, -0.0000000000000000000, 1.000000000000000000 ) ) ;
#277 = CARTESIAN_POINT ( 'NONE',  ( 0.0000000000000000000, 0.0000000000000000000, -4.336808689942017700E-016 ) ) ;
#278 = AXIS2_PLACEMENT_3D ( 'NONE', #277, #276, #250 ) ;
#279 = CYLINDRICAL_SURFACE ( 'NONE', #278, 19.89999999999999900 ) ;
#280 = DIRECTION ( 'NONE',  ( 1.000000000000000000, 0.0000000000000000000, 0.0000000000000000000 ) ) ;
#281 = DIRECTION ( 'NONE',  ( -0.0000000000000000000, -0.0000000000000000000, 1.000000000000000000 ) ) ;
#282 = CARTESIAN_POINT ( 'NONE',  ( 0.0000000000000000000, 0.0000000000000000000, -59.99999999999999300 ) ) ;
#283 = AXIS2_PLACEMENT_3D ( 'NONE', #282, #281, #280 ) ;
#284 = CIRCLE ( 'NONE', #283, 15.14549999999998600 ) ;
#285 = CIRCLE ( 'NONE', #158, 16.62450000000000100 ) ;
#286 = CYLINDRICAL_SURFACE ( 'NONE', #177, 15.14550000000000200 ) ;
#287 = CIRCLE ( 'NONE', #292, 15.14549999999999100 ) ;
#288 = DIRECTION ( 'NONE',  ( 0.0000000000000000000, 1.000000000000000000, -2.556168068605762000E-018 ) ) ;
#289 = DIRECTION ( 'NONE',  ( -0.0000000000000000000, -2.556168068605762400E-018, -1.000000000000000000 ) ) ;
#290 = CARTESIAN_POINT ( 'NONE',  ( 0.0000000000000000000, -3.469446951953615000E-015, 0.0000000000000000000 ) ) ;
#291 = FACE_OUTER_BOUND ( 'NONE', #34, .T. ) ;
#292 = AXIS2_PLACEMENT_3D ( 'NONE', #290, #289, #288 ) ;
#293 = CYLINDRICAL_SURFACE ( 'NONE', #256, 16.62450000000000100 ) ;
#294 = CARTESIAN_POINT ( 'NONE',  ( 0.0000000000000000000, 0.0000000000000000000, -4.336808689942017700E-016 ) ) ;
#295 = PLANE ( 'NONE',  #219 ) ;
#296 = FACE_OUTER_BOUND ( 'NONE', #64, .T. ) ;
#297 = FACE_BOUND ( 'NONE', #70, .T. ) ;
#298 = DIRECTION ( 'NONE',  ( 1.000000000000000000, 0.0000000000000000000, 0.0000000000000000000 ) ) ;
#299 = DIRECTION ( 'NONE',  ( -0.0000000000000000000, -0.0000000000000000000, 1.000000000000000000 ) ) ;
#300 = CARTESIAN_POINT ( 'NONE',  ( 0.0000000000000000000, 0.0000000000000000000, 0.0000000000000000000 ) ) ;
#301 = AXIS2_PLACEMENT_3D ( 'NONE', #300, #299, #298 ) ;
#302 = DIRECTION ( 'NONE',  ( -1.000000000000000000, 0.0000000000000000000, 0.0000000000000000000 ) ) ;
#303 = DIRECTION ( 'NONE',  ( 0.0000000000000000000, 0.0000000000000000000, -1.000000000000000000 ) ) ;
#304 = CARTESIAN_POINT ( 'NONE',  ( 0.0000000000000000000, 0.0000000000000000000, -59.99999999999999300 ) ) ;
#305 = AXIS2_PLACEMENT_3D ( 'NONE', #304, #192, #191 ) ;
#306 = DIRECTION ( 'NONE',  ( -1.000000000000000000, 0.0000000000000000000, 0.0000000000000000000 ) ) ;
#307 = DIRECTION ( 'NONE',  ( 0.0000000000000000000, 0.0000000000000000000, -1.000000000000000000 ) ) ;
#308 = CARTESIAN_POINT ( 'NONE',  ( 0.0000000000000000000, 0.0000000000000000000, -61.15449999999998500 ) ) ;
#309 = AXIS2_PLACEMENT_3D ( 'NONE', #308, #307, #306 ) ;
#310 = CONICAL_SURFACE ( 'NONE', #309, 16.62450000000000100, 0.9080002089392093000 ) ;
#311 = CIRCLE ( 'NONE', #305, 15.14549999999998600 ) ;
#312 = FACE_OUTER_BOUND ( 'NONE', #124, .T. ) ;
#313 = DIRECTION ( 'NONE',  ( -0.7071067811865432400, 0.0000000000000000000, -0.7071067811865517900 ) ) ;
#314 = VECTOR ( 'NONE', #313, 1000.000000000000000 ) ;
#315 = CARTESIAN_POINT ( 'NONE',  ( -17.20504033241546800, 0.0000000000000000000, -80.00000000000001400 ) ) ;
#316 = LINE ( 'NONE', #315, #314 ) ;
#317 = CARTESIAN_POINT ( 'NONE',  ( -17.20504033241546800, 0.0000000000000000000, -80.00000000000001400 ) ) ;
#318 = DIRECTION ( 'NONE',  ( 1.000000000000000000, 0.0000000000000000000, 0.0000000000000000000 ) ) ;
#319 = DIRECTION ( 'NONE',  ( -0.0000000000000000000, -0.0000000000000000000, 1.000000000000000000 ) ) ;
#320 = CARTESIAN_POINT ( 'NONE',  ( 0.0000000000000000000, 0.0000000000000000000, -80.00000000000001400 ) ) ;
#321 = AXIS2_PLACEMENT_3D ( 'NONE', #320, #319, #318 ) ;
#322 = CIRCLE ( 'NONE', #321, 17.20504033241546800 ) ;
#323 = CARTESIAN_POINT ( 'NONE',  ( 17.20504033241546800, 2.106940170884624900E-015, -80.00000000000001400 ) ) ;
#324 = DIRECTION ( 'NONE',  ( 0.7071067811865432400, 8.659274570719301200E-017, -0.7071067811865517900 ) ) ;
#325 = VECTOR ( 'NONE', #324, 1000.000000000000000 ) ;
#326 = CARTESIAN_POINT ( 'NONE',  ( 17.20504033241546800, 2.106940170884624900E-015, -80.00000000000001400 ) ) ;
#327 = CARTESIAN_POINT ( 'NONE',  ( 19.89999999999999900, 0.0000000000000000000, -4.336808689942017700E-016 ) ) ;
#328 = LINE ( 'NONE', #327, #3 ) ;
#329 = APPROVAL ( #398, 'UNSPECIFIED' ) ;
#330 = CARTESIAN_POINT ( 'NONE',  ( 19.89999999999999900, 0.0000000000000000000, 0.0000000000000000000 ) ) ;
#331 = PLANE ( 'NONE',  #342 ) ;
#332 = FACE_BOUND ( 'NONE', #110, .T. ) ;
#333 = DIRECTION ( 'NONE',  ( -0.0000000000000000000, -0.0000000000000000000, 1.000000000000000000 ) ) ;
#334 = VECTOR ( 'NONE', #333, 1000.000000000000000 ) ;
#335 = CARTESIAN_POINT ( 'NONE',  ( 16.62450000000000100, 0.0000000000000000000, -4.336808689942017700E-016 ) ) ;
#336 = FACE_OUTER_BOUND ( 'NONE', #142, .T. ) ;
#337 = LINE ( 'NONE', #335, #334 ) ;
#338 =( LENGTH_UNIT ( ) NAMED_UNIT ( * ) SI_UNIT ( .MILLI., .METRE. ) );
#339 = DIRECTION ( 'NONE',  ( 1.000000000000000000, 0.0000000000000000000, 0.0000000000000000000 ) ) ;
#340 = DIRECTION ( 'NONE',  ( 0.0000000000000000000, -0.0000000000000000000, 1.000000000000000000 ) ) ;
#341 = CARTESIAN_POINT ( 'NONE',  ( 0.0000000000000000000, 19.89999999999999900, -80.00000000000000000 ) ) ;
#342 = AXIS2_PLACEMENT_3D ( 'NONE', #341, #340, #339 ) ;
#343 =( NAMED_UNIT ( * ) PLANE_ANGLE_UNIT ( ) SI_UNIT ( $, .RADIAN. ) );
#344 =( NAMED_UNIT ( * ) SI_UNIT ( $, .STERADIAN. ) SOLID_ANGLE_UNIT ( ) );
#345 = PERSON ( 'UNSPECIFIED', 'UNSPECIFIED', 'UNSPECIFIED', ('UNSPECIFIED'), ('UNSPECIFIED'), ('UNSPECIFIED') ) ;
#346 = PRODUCT ( '19-0408-76_outokumpu', '19-0408-76_outokumpu', '', ( #349 ) ) ;
#347 = COORDINATED_UNIVERSAL_TIME_OFFSET ( 1, 0, .AHEAD. ) ;
#348 = APPROVAL_PERSON_ORGANIZATION ( #399, #329, #9 ) ;
#349 = MECHANICAL_CONTEXT ( 'NONE', #351, 'mechanical' ) ;
#350 = APPLICATION_PROTOCOL_DEFINITION ( 'international standard', 'config_control_design', 1994, #351 ) ;
#351 = APPLICATION_CONTEXT ( 'configuration controlled 3d designs of mechanical parts and assemblies' ) ;
#352 = ORGANIZATION ( 'UNSPECIFIED', 'UNSPECIFIED', '' ) ;
#353 = CC_DESIGN_PERSON_AND_ORGANIZATION_ASSIGNMENT ( #381, #378, ( #346 ) ) ;
#354 = PERSON_AND_ORGANIZATION_ROLE ( 'creator' ) ;
#355 = PERSON_AND_ORGANIZATION ( #345, #352 ) ;
#356 = CC_DESIGN_APPROVAL ( #368, ( #359 ) ) ;
#357 = APPROVAL_DATE_TIME ( #358, #368 ) ;
#358 = DATE_AND_TIME ( #363, #364 ) ;
#359 = PRODUCT_DEFINITION_FORMATION_WITH_SPECIFIED_SOURCE ( 'ANY', '', #346, .NOT_KNOWN. ) ;
#360 = CC_DESIGN_DATE_AND_TIME_ASSIGNMENT ( #387, #361, ( #382 ) ) ;
#361 = DATE_TIME_ROLE ( 'creation_date' ) ;
#362 = CALENDAR_DATE ( 2015, 11, 8 ) ;
#363 = CALENDAR_DATE ( 2015, 11, 8 ) ;
#364 = LOCAL_TIME ( 11, 41, 13.00000000000000000, #365 ) ;
#365 = COORDINATED_UNIVERSAL_TIME_OFFSET ( 1, 0, .AHEAD. ) ;
#366 = APPROVAL_PERSON_ORGANIZATION ( #370, #368, #367 ) ;
#367 = APPROVAL_ROLE ( '' ) ;
#368 = APPROVAL ( #369, 'UNSPECIFIED' ) ;
#369 = APPROVAL_STATUS ( 'not_yet_approved' ) ;
#370 = PERSON_AND_ORGANIZATION ( #345, #352 ) ;
#371 = PERSON_AND_ORGANIZATION_ROLE ( 'creator' ) ;
#372 = PERSON_AND_ORGANIZATION ( #345, #352 ) ;
#373 = CC_DESIGN_APPROVAL ( #384, ( #382 ) ) ;
#374 = APPROVAL_DATE_TIME ( #375, #384 ) ;
#375 = DATE_AND_TIME ( #392, #393 ) ;
#376 = APPROVAL_STATUS ( 'not_yet_approved' ) ;
#377 = PERSON_AND_ORGANIZATION ( #345, #352 ) ;
#378 = PERSON_AND_ORGANIZATION_ROLE ( 'design_owner' ) ;
#379 = PERSON_AND_ORGANIZATION ( #345, #352 ) ;
#380 = CC_DESIGN_PERSON_AND_ORGANIZATION_ASSIGNMENT ( #355, #354, ( #359 ) ) ;
#381 = PERSON_AND_ORGANIZATION ( #345, #352 ) ;
#382 = PRODUCT_DEFINITION ( 'UNKNOWN', '', #359, #404 ) ;
#383 = APPROVAL_ROLE ( '' ) ;
#384 = APPROVAL ( #376, 'UNSPECIFIED' ) ;
#385 = LOCAL_TIME ( 11, 41, 13.00000000000000000, #386 ) ;
#386 = COORDINATED_UNIVERSAL_TIME_OFFSET ( 1, 0, .AHEAD. ) ;
#387 = DATE_AND_TIME ( #362, #385 ) ;
#388 = CC_DESIGN_PERSON_AND_ORGANIZATION_ASSIGNMENT ( #372, #371, ( #382 ) ) ;
#389 = PERSON_AND_ORGANIZATION ( #345, #352 ) ;
#390 = SECURITY_CLASSIFICATION ( '', '', #391 ) ;
#391 = SECURITY_CLASSIFICATION_LEVEL ( 'unclassified' ) ;
#392 = CALENDAR_DATE ( 2015, 11, 8 ) ;
#393 = LOCAL_TIME ( 11, 41, 13.00000000000000000, #394 ) ;
#394 = COORDINATED_UNIVERSAL_TIME_OFFSET ( 1, 0, .AHEAD. ) ;
#395 = APPROVAL_PERSON_ORGANIZATION ( #377, #384, #383 ) ;
#396 = APPLICATION_PROTOCOL_DEFINITION ( 'international standard', 'config_control_design', 1994, #397 ) ;
#397 = APPLICATION_CONTEXT ( 'configuration controlled 3d designs of mechanical parts and assemblies' ) ;
#398 = APPROVAL_STATUS ( 'not_yet_approved' ) ;
#399 = PERSON_AND_ORGANIZATION ( #345, #352 ) ;
#400 = CC_DESIGN_DATE_AND_TIME_ASSIGNMENT ( #405, #401, ( #390 ) ) ;
#401 = DATE_TIME_ROLE ( 'classification_date' ) ;
#402 = CALENDAR_DATE ( 2015, 11, 8 ) ;
#403 = LOCAL_TIME ( 11, 41, 13.00000000000000000, #406 ) ;
#404 = DESIGN_CONTEXT ( 'detailed design', #397, 'design' ) ;
#405 = DATE_AND_TIME ( #402, #403 ) ;
#406 = COORDINATED_UNIVERSAL_TIME_OFFSET ( 1, 0, .AHEAD. ) ;
#407 = CC_DESIGN_PERSON_AND_ORGANIZATION_ASSIGNMENT ( #389, #408, ( #390 ) ) ;
#408 = PERSON_AND_ORGANIZATION_ROLE ( 'classification_officer' ) ;
#409 = CC_DESIGN_PERSON_AND_ORGANIZATION_ASSIGNMENT ( #379, #410, ( #359 ) ) ;
#410 = PERSON_AND_ORGANIZATION_ROLE ( 'design_supplier' ) ;
#411 = APPROVAL_DATE_TIME ( #416, #329 ) ;
#412 = LOCAL_TIME ( 11, 41, 13.00000000000000000, #347 ) ;
#413 = CALENDAR_DATE ( 2015, 11, 8 ) ;
#414 = SHAPE_DEFINITION_REPRESENTATION ( #418, #11 ) ;
#415 = CC_DESIGN_SECURITY_CLASSIFICATION ( #390, ( #359 ) ) ;
#416 = DATE_AND_TIME ( #413, #412 ) ;
#417 = CC_DESIGN_APPROVAL ( #329, ( #390 ) ) ;
#418 = PRODUCT_DEFINITION_SHAPE ( 'NONE', 'NONE',  #382 ) ;
#419 = PRODUCT_RELATED_PRODUCT_CATEGORY ( 'detail', '', ( #346 ) ) ;
ENDSEC;
END-ISO-10303-21;
