ISO-10303-21;
HEADER;
FILE_DESCRIPTION (( 'STEP AP203' ),
    '1' );
FILE_NAME ('3D_R152_DN60.3_17305215.STEP',
    '2024-08-13T07:43:35',
    ( '' ),
    ( '' ),
    'SwSTEP 2.0',
    'SolidWorks 2024',
    '' );
FILE_SCHEMA (( 'CONFIG_CONTROL_DESIGN' ));
ENDSEC;

DATA;
#1 = LOCAL_TIME ( 9, 43, 35.00000000000000000, #205 ) ;
#2 = EDGE_LOOP ( 'NONE', ( #37, #117 ) ) ;
#3 = CC_DESIGN_PERSON_AND_ORGANIZATION_ASSIGNMENT ( #91, #242, ( #77 ) ) ;
#4 = VECTOR ( 'NONE', #9, 1000.000000000000000 ) ;
#5 = DIRECTION ( 'NONE',  ( 0.000000000000000000, 0.000000000000000000, -1.000000000000000000 ) ) ;
#6 = APPROVAL_PERSON_ORGANIZATION ( #244, #94, #193 ) ;
#7 = CARTESIAN_POINT ( 'NONE',  ( 0.000000000000000000, 0.000000000000000000, -111.7999999999999972 ) ) ;
#8 = CARTESIAN_POINT ( 'NONE',  ( 0.000000000000000000, 0.000000000000000000, 0.000000000000000000 ) ) ;
#9 = DIRECTION ( 'NONE',  ( -0.000000000000000000, -1.000000000000000000, -0.000000000000000000 ) ) ;
#10 = PLANE ( 'NONE',  #130 ) ;
#11 = EDGE_CURVE ( 'NONE', #134, #92, #249, .T. ) ;
#12 = APPROVAL_STATUS ( 'not_yet_approved' ) ;
#13 = ORIENTED_EDGE ( 'NONE', *, *, #239, .F. ) ;
#14 = PRODUCT_RELATED_PRODUCT_CATEGORY ( 'detail', '', ( #218 ) ) ;
#15 = EDGE_LOOP ( 'NONE', ( #138, #36, #175, #93 ) ) ;
#16 = ORIENTED_EDGE ( 'NONE', *, *, #51, .T. ) ;
#17 = DIRECTION ( 'NONE',  ( -0.000000000000000000, -1.000000000000000000, -0.000000000000000000 ) ) ;
#18 = CYLINDRICAL_SURFACE ( 'NONE', #204, 111.7999999999999972 ) ;
#19 = LOCAL_TIME ( 9, 43, 35.00000000000000000, #195 ) ;
#20 = CC_DESIGN_DATE_AND_TIME_ASSIGNMENT ( #222, #150, ( #189 ) ) ;
#21 = DIRECTION ( 'NONE',  ( 0.000000000000000000, 0.000000000000000000, 1.000000000000000000 ) ) ;
#22 = CARTESIAN_POINT ( 'NONE',  ( 0.000000000000000000, 8.000000000000000000, -51.00000000000000000 ) ) ;
#23 = DIRECTION ( 'NONE',  ( -0.000000000000000000, -1.000000000000000000, -0.000000000000000000 ) ) ;
#24 = UNCERTAINTY_MEASURE_WITH_UNIT (LENGTH_MEASURE( 1.000000000000000082E-05 ), #85, 'distance_accuracy_value', 'NONE');
#25 = EDGE_CURVE ( 'NONE', #208, #154, #157, .T. ) ;
#26 =( NAMED_UNIT ( * ) PLANE_ANGLE_UNIT ( ) SI_UNIT ( $, .RADIAN. ) );
#27 = CARTESIAN_POINT ( 'NONE',  ( 0.000000000000000000, 0.000000000000000000, 0.000000000000000000 ) ) ;
#28 = PERSON_AND_ORGANIZATION_ROLE ( 'creator' ) ;
#29 = PERSON_AND_ORGANIZATION_ROLE ( 'creator' ) ;
#30 = ADVANCED_FACE ( 'NONE', ( #211 ), #80, .F. ) ;
#31 = MECHANICAL_CONTEXT ( 'NONE', #55, 'mechanical' ) ;
#32 = CIRCLE ( 'NONE', #125, 51.00000000000000000 ) ;
#33 = EDGE_CURVE ( 'NONE', #136, #229, #59, .T. ) ;
#34 = ORIENTED_EDGE ( 'NONE', *, *, #226, .T. ) ;
#35 = EDGE_LOOP ( 'NONE', ( #133, #53, #114, #13 ) ) ;
#36 = ORIENTED_EDGE ( 'NONE', *, *, #11, .T. ) ;
#37 = ORIENTED_EDGE ( 'NONE', *, *, #226, .F. ) ;
#38 = DIRECTION ( 'NONE',  ( 0.000000000000000000, 0.000000000000000000, 1.000000000000000000 ) ) ;
#39 = CARTESIAN_POINT ( 'NONE',  ( 1.369155121446740881E-14, 8.000000000000000000, 111.7999999999999972 ) ) ;
#40 = CIRCLE ( 'NONE', #187, 111.7999999999999972 ) ;
#41 = CARTESIAN_POINT ( 'NONE',  ( 0.000000000000000000, 8.000000000000000000, 0.000000000000000000 ) ) ;
#42 = DIRECTION ( 'NONE',  ( 0.000000000000000000, 1.000000000000000000, 0.000000000000000000 ) ) ;
#43 = DIRECTION ( 'NONE',  ( 0.000000000000000000, 0.000000000000000000, 1.000000000000000000 ) ) ;
#44 = APPROVAL ( #12, 'UNSPECIFIED' ) ;
#45 = DATE_TIME_ROLE ( 'classification_date' ) ;
#46 = DIRECTION ( 'NONE',  ( 0.000000000000000000, 0.000000000000000000, 1.000000000000000000 ) ) ;
#47 = EDGE_CURVE ( 'NONE', #92, #154, #79, .T. ) ;
#48 = PERSON_AND_ORGANIZATION ( #176, #100 ) ;
#49 = AXIS2_PLACEMENT_3D ( 'NONE', #8, #235, #151 ) ;
#50 = PERSON_AND_ORGANIZATION ( #176, #100 ) ;
#51 = EDGE_CURVE ( 'NONE', #115, #229, #32, .T. ) ;
#52 = ORIENTED_EDGE ( 'NONE', *, *, #97, .T. ) ;
#53 = ORIENTED_EDGE ( 'NONE', *, *, #88, .T. ) ;
#54 = LOCAL_TIME ( 9, 43, 35.00000000000000000, #86 ) ;
#55 = APPLICATION_CONTEXT ( 'configuration controlled 3d designs of mechanical parts and assemblies' ) ;
#56 = CARTESIAN_POINT ( 'NONE',  ( 1.369155121446740881E-14, 8.000000000000000000, 111.7999999999999972 ) ) ;
#57 = EDGE_LOOP ( 'NONE', ( #156, #228, #96, #52 ) ) ;
#58 = CARTESIAN_POINT ( 'NONE',  ( 6.245698675651500444E-15, 0.000000000000000000, 51.00000000000000000 ) ) ;
#59 = LINE ( 'NONE', #164, #243 ) ;
#60 = ADVANCED_FACE ( 'NONE', ( #237 ), #62, .F. ) ;
#61 = DIRECTION ( 'NONE',  ( -0.000000000000000000, -1.000000000000000000, -0.000000000000000000 ) ) ;
#62 = CYLINDRICAL_SURFACE ( 'NONE', #65, 51.00000000000000000 ) ;
#63 = CARTESIAN_POINT ( 'NONE',  ( 0.000000000000000000, 8.000000000000000000, 0.000000000000000000 ) ) ;
#64 = DATE_AND_TIME ( #131, #122 ) ;
#65 = AXIS2_PLACEMENT_3D ( 'NONE', #41, #98, #214 ) ;
#66 = DATE_AND_TIME ( #168, #54 ) ;
#67 = CC_DESIGN_SECURITY_CLASSIFICATION ( #77, ( #241 ) ) ;
#68 = EDGE_CURVE ( 'NONE', #75, #115, #118, .T. ) ;
#69 = COORDINATED_UNIVERSAL_TIME_OFFSET ( 1, 0, .AHEAD. ) ;
#70 = APPROVAL_DATE_TIME ( #105, #155 ) ;
#71 = AXIS2_PLACEMENT_3D ( 'NONE', #84, #61, #102 ) ;
#72 = EDGE_CURVE ( 'NONE', #134, #208, #230, .T. ) ;
#73 = APPROVAL_STATUS ( 'not_yet_approved' ) ;
#74 = ORIENTED_EDGE ( 'NONE', *, *, #72, .T. ) ;
#75 = VERTEX_POINT ( 'NONE', #22 ) ;
#76 = DIRECTION ( 'NONE',  ( -0.000000000000000000, -1.000000000000000000, -0.000000000000000000 ) ) ;
#77 = SECURITY_CLASSIFICATION ( '', '', #188 ) ;
#78 = ORIENTED_EDGE ( 'NONE', *, *, #68, .F. ) ;
#79 = CIRCLE ( 'NONE', #149, 111.7999999999999972 ) ;
#80 = CYLINDRICAL_SURFACE ( 'NONE', #71, 51.00000000000000000 ) ;
#81 = CARTESIAN_POINT ( 'NONE',  ( 0.000000000000000000, 8.000000000000000000, 0.000000000000000000 ) ) ;
#82 = CARTESIAN_POINT ( 'NONE',  ( 0.000000000000000000, 8.000000000000000000, 0.000000000000000000 ) ) ;
#83 = DESIGN_CONTEXT ( 'detailed design', #225, 'design' ) ;
#84 = CARTESIAN_POINT ( 'NONE',  ( 0.000000000000000000, 8.000000000000000000, 0.000000000000000000 ) ) ;
#85 =( LENGTH_UNIT ( ) NAMED_UNIT ( * ) SI_UNIT ( .MILLI., .METRE. ) );
#86 = COORDINATED_UNIVERSAL_TIME_OFFSET ( 1, 0, .AHEAD. ) ;
#87 = DIRECTION ( 'NONE',  ( 1.000000000000000000, 0.000000000000000000, 0.000000000000000000 ) ) ;
#88 = EDGE_CURVE ( 'NONE', #136, #75, #139, .T. ) ;
#89 = APPROVAL_PERSON_ORGANIZATION ( #48, #155, #126 ) ;
#90 = PRODUCT_DEFINITION_SHAPE ( 'NONE', 'NONE',  #189 ) ;
#91 = PERSON_AND_ORGANIZATION ( #176, #100 ) ;
#92 = VERTEX_POINT ( 'NONE', #104 ) ;
#93 = ORIENTED_EDGE ( 'NONE', *, *, #25, .F. ) ;
#94 = APPROVAL ( #73, 'UNSPECIFIED' ) ;
#95 = ORIENTED_EDGE ( 'NONE', *, *, #239, .T. ) ;
#96 = ORIENTED_EDGE ( 'NONE', *, *, #25, .T. ) ;
#97 = EDGE_CURVE ( 'NONE', #154, #92, #236, .T. ) ;
#98 = DIRECTION ( 'NONE',  ( -0.000000000000000000, -1.000000000000000000, -0.000000000000000000 ) ) ;
#99 = DIRECTION ( 'NONE',  ( 0.000000000000000000, 1.000000000000000000, 0.000000000000000000 ) ) ;
#100 = ORGANIZATION ( 'UNSPECIFIED', 'UNSPECIFIED', '' ) ;
#101 = DIRECTION ( 'NONE',  ( 0.000000000000000000, 0.000000000000000000, 1.000000000000000000 ) ) ;
#102 = DIRECTION ( 'NONE',  ( 0.000000000000000000, 0.000000000000000000, -1.000000000000000000 ) ) ;
#103 = VECTOR ( 'NONE', #76, 1000.000000000000000 ) ;
#104 = CARTESIAN_POINT ( 'NONE',  ( 1.369155121446740881E-14, 0.000000000000000000, 111.7999999999999972 ) ) ;
#105 = DATE_AND_TIME ( #127, #215 ) ;
#106 = CC_DESIGN_PERSON_AND_ORGANIZATION_ASSIGNMENT ( #219, #238, ( #241 ) ) ;
#107 = AXIS2_PLACEMENT_3D ( 'NONE', #82, #17, #201 ) ;
#108 = CC_DESIGN_APPROVAL ( #155, ( #189 ) ) ;
#109 =( NAMED_UNIT ( * ) SI_UNIT ( $, .STERADIAN. ) SOLID_ANGLE_UNIT ( ) );
#110 = COORDINATED_UNIVERSAL_TIME_OFFSET ( 1, 0, .AHEAD. ) ;
#111 = CLOSED_SHELL ( 'NONE', ( #30, #163, #198, #247, #231, #60 ) ) ;
#112 = EDGE_LOOP ( 'NONE', ( #178, #207 ) ) ;
#113 = CC_DESIGN_PERSON_AND_ORGANIZATION_ASSIGNMENT ( #167, #28, ( #241 ) ) ;
#114 = ORIENTED_EDGE ( 'NONE', *, *, #68, .T. ) ;
#115 = VERTEX_POINT ( 'NONE', #202 ) ;
#116 = DATE_AND_TIME ( #174, #19 ) ;
#117 = ORIENTED_EDGE ( 'NONE', *, *, #88, .F. ) ;
#118 = LINE ( 'NONE', #183, #173 ) ;
#119 = DIRECTION ( 'NONE',  ( -0.000000000000000000, -1.000000000000000000, -0.000000000000000000 ) ) ;
#120 = AXIS2_PLACEMENT_3D ( 'NONE', #147, #42, #43 ) ;
#121 = DIRECTION ( 'NONE',  ( 0.000000000000000000, -0.000000000000000000, 1.000000000000000000 ) ) ;
#122 = LOCAL_TIME ( 9, 43, 35.00000000000000000, #110 ) ;
#123 = FACE_OUTER_BOUND ( 'NONE', #15, .T. ) ;
#124 = DIRECTION ( 'NONE',  ( 0.000000000000000000, 1.000000000000000000, 0.000000000000000000 ) ) ;
#125 = AXIS2_PLACEMENT_3D ( 'NONE', #179, #146, #101 ) ;
#126 = APPROVAL_ROLE ( '' ) ;
#127 = CALENDAR_DATE ( 2024, 13, 8 ) ;
#128 = ADVANCED_BREP_SHAPE_REPRESENTATION ( '3D_R152_DN60.3_17305215', ( #159, #223 ), #141 ) ;
#129 = APPLICATION_PROTOCOL_DEFINITION ( 'international standard', 'config_control_design', 1994, #225 ) ;
#130 = AXIS2_PLACEMENT_3D ( 'NONE', #161, #233, #121 ) ;
#131 = CALENDAR_DATE ( 2024, 13, 8 ) ;
#132 = APPROVAL_DATE_TIME ( #64, #44 ) ;
#133 = ORIENTED_EDGE ( 'NONE', *, *, #33, .F. ) ;
#134 = VERTEX_POINT ( 'NONE', #39 ) ;
#135 = APPROVAL_PERSON_ORGANIZATION ( #50, #44, #203 ) ;
#136 = VERTEX_POINT ( 'NONE', #212 ) ;
#137 = CARTESIAN_POINT ( 'NONE',  ( 0.000000000000000000, 8.000000000000000000, -111.7999999999999972 ) ) ;
#138 = ORIENTED_EDGE ( 'NONE', *, *, #72, .F. ) ;
#139 = CIRCLE ( 'NONE', #120, 51.00000000000000000 ) ;
#140 = DIRECTION ( 'NONE',  ( 0.000000000000000000, 0.000000000000000000, 1.000000000000000000 ) ) ;
#141 =( GEOMETRIC_REPRESENTATION_CONTEXT ( 3 ) GLOBAL_UNCERTAINTY_ASSIGNED_CONTEXT ( ( #24 ) ) GLOBAL_UNIT_ASSIGNED_CONTEXT ( ( #85, #26, #109 ) ) REPRESENTATION_CONTEXT ( 'NONE', 'WORKASPACE' ) );
#142 = DIRECTION ( 'NONE',  ( 0.000000000000000000, 1.000000000000000000, 0.000000000000000000 ) ) ;
#143 = DIRECTION ( 'NONE',  ( 0.000000000000000000, 0.000000000000000000, 1.000000000000000000 ) ) ;
#144 = CIRCLE ( 'NONE', #177, 51.00000000000000000 ) ;
#145 = CC_DESIGN_DATE_AND_TIME_ASSIGNMENT ( #66, #45, ( #77 ) ) ;
#146 = DIRECTION ( 'NONE',  ( 0.000000000000000000, 1.000000000000000000, 0.000000000000000000 ) ) ;
#147 = CARTESIAN_POINT ( 'NONE',  ( 0.000000000000000000, 8.000000000000000000, 0.000000000000000000 ) ) ;
#148 = FACE_OUTER_BOUND ( 'NONE', #112, .T. ) ;
#149 = AXIS2_PLACEMENT_3D ( 'NONE', #216, #99, #140 ) ;
#150 = DATE_TIME_ROLE ( 'creation_date' ) ;
#151 = DIRECTION ( 'NONE',  ( 0.000000000000000000, 0.000000000000000000, 1.000000000000000000 ) ) ;
#152 = PERSON_AND_ORGANIZATION ( #176, #100 ) ;
#153 = FACE_BOUND ( 'NONE', #194, .T. ) ;
#154 = VERTEX_POINT ( 'NONE', #7 ) ;
#155 = APPROVAL ( #171, 'UNSPECIFIED' ) ;
#156 = ORIENTED_EDGE ( 'NONE', *, *, #11, .F. ) ;
#157 = LINE ( 'NONE', #137, #4 ) ;
#158 = ORIENTED_EDGE ( 'NONE', *, *, #51, .F. ) ;
#159 = MANIFOLD_SOLID_BREP ( 'Aufsatz-Linear austragen1', #111 ) ;
#160 = DIRECTION ( 'NONE',  ( 0.000000000000000000, 1.000000000000000000, 0.000000000000000000 ) ) ;
#161 = CARTESIAN_POINT ( 'NONE',  ( 0.000000000000000000, 8.000000000000000000, 0.000000000000000000 ) ) ;
#162 = CARTESIAN_POINT ( 'NONE',  ( 0.000000000000000000, 8.000000000000000000, 0.000000000000000000 ) ) ;
#163 = ADVANCED_FACE ( 'NONE', ( #123 ), #18, .T. ) ;
#164 = CARTESIAN_POINT ( 'NONE',  ( 6.245698675651500444E-15, 8.000000000000000000, 51.00000000000000000 ) ) ;
#165 = CIRCLE ( 'NONE', #49, 51.00000000000000000 ) ;
#166 = DIRECTION ( 'NONE',  ( -0.000000000000000000, -1.000000000000000000, -0.000000000000000000 ) ) ;
#167 = PERSON_AND_ORGANIZATION ( #176, #100 ) ;
#168 = CALENDAR_DATE ( 2024, 13, 8 ) ;
#169 = DIRECTION ( 'NONE',  ( 0.000000000000000000, -0.000000000000000000, 1.000000000000000000 ) ) ;
#170 = CC_DESIGN_APPROVAL ( #94, ( #77 ) ) ;
#171 = APPROVAL_STATUS ( 'not_yet_approved' ) ;
#172 = CALENDAR_DATE ( 2024, 13, 8 ) ;
#173 = VECTOR ( 'NONE', #119, 1000.000000000000000 ) ;
#174 = CALENDAR_DATE ( 2024, 13, 8 ) ;
#175 = ORIENTED_EDGE ( 'NONE', *, *, #47, .T. ) ;
#176 = PERSON ( 'UNSPECIFIED', 'UNSPECIFIED', 'UNSPECIFIED', ('UNSPECIFIED'), ('UNSPECIFIED'), ('UNSPECIFIED') ) ;
#177 = AXIS2_PLACEMENT_3D ( 'NONE', #197, #160, #21 ) ;
#178 = ORIENTED_EDGE ( 'NONE', *, *, #97, .F. ) ;
#179 = CARTESIAN_POINT ( 'NONE',  ( 0.000000000000000000, 0.000000000000000000, 0.000000000000000000 ) ) ;
#180 = EDGE_CURVE ( 'NONE', #208, #134, #40, .T. ) ;
#181 = DIRECTION ( 'NONE',  ( 0.000000000000000000, 0.000000000000000000, 1.000000000000000000 ) ) ;
#182 = CYLINDRICAL_SURFACE ( 'NONE', #107, 111.7999999999999972 ) ;
#183 = CARTESIAN_POINT ( 'NONE',  ( 0.000000000000000000, 8.000000000000000000, -51.00000000000000000 ) ) ;
#184 = AXIS2_PLACEMENT_3D ( 'NONE', #63, #142, #38 ) ;
#185 = FACE_OUTER_BOUND ( 'NONE', #245, .T. ) ;
#186 = PERSON_AND_ORGANIZATION ( #176, #100 ) ;
#187 = AXIS2_PLACEMENT_3D ( 'NONE', #162, #234, #143 ) ;
#188 = SECURITY_CLASSIFICATION_LEVEL ( 'unclassified' ) ;
#189 = PRODUCT_DEFINITION ( 'UNKNOWN', '', #241, #83 ) ;
#190 = CC_DESIGN_APPROVAL ( #44, ( #241 ) ) ;
#191 = DIRECTION ( 'NONE',  ( 0.000000000000000000, 1.000000000000000000, 0.000000000000000000 ) ) ;
#192 = CC_DESIGN_PERSON_AND_ORGANIZATION_ASSIGNMENT ( #186, #29, ( #189 ) ) ;
#193 = APPROVAL_ROLE ( '' ) ;
#194 = EDGE_LOOP ( 'NONE', ( #16, #95 ) ) ;
#195 = COORDINATED_UNIVERSAL_TIME_OFFSET ( 1, 0, .AHEAD. ) ;
#196 = AXIS2_PLACEMENT_3D ( 'NONE', #240, #191, #169 ) ;
#197 = CARTESIAN_POINT ( 'NONE',  ( 0.000000000000000000, 8.000000000000000000, 0.000000000000000000 ) ) ;
#198 = ADVANCED_FACE ( 'NONE', ( #185, #213 ), #10, .T. ) ;
#199 = CARTESIAN_POINT ( 'NONE',  ( 0.000000000000000000, 0.000000000000000000, 0.000000000000000000 ) ) ;
#200 = FACE_OUTER_BOUND ( 'NONE', #57, .T. ) ;
#201 = DIRECTION ( 'NONE',  ( 0.000000000000000000, 0.000000000000000000, -1.000000000000000000 ) ) ;
#202 = CARTESIAN_POINT ( 'NONE',  ( 0.000000000000000000, 0.000000000000000000, -51.00000000000000000 ) ) ;
#203 = APPROVAL_ROLE ( '' ) ;
#204 = AXIS2_PLACEMENT_3D ( 'NONE', #81, #23, #5 ) ;
#205 = COORDINATED_UNIVERSAL_TIME_OFFSET ( 1, 0, .AHEAD. ) ;
#206 = EDGE_LOOP ( 'NONE', ( #34, #224, #158, #78 ) ) ;
#207 = ORIENTED_EDGE ( 'NONE', *, *, #47, .F. ) ;
#208 = VERTEX_POINT ( 'NONE', #232 ) ;
#209 = CC_DESIGN_PERSON_AND_ORGANIZATION_ASSIGNMENT ( #152, #221, ( #218 ) ) ;
#210 = APPROVAL_DATE_TIME ( #116, #94 ) ;
#211 = FACE_OUTER_BOUND ( 'NONE', #206, .T. ) ;
#212 = CARTESIAN_POINT ( 'NONE',  ( 6.245698675651500444E-15, 8.000000000000000000, 51.00000000000000000 ) ) ;
#213 = FACE_BOUND ( 'NONE', #2, .T. ) ;
#214 = DIRECTION ( 'NONE',  ( 0.000000000000000000, 0.000000000000000000, -1.000000000000000000 ) ) ;
#215 = LOCAL_TIME ( 9, 43, 35.00000000000000000, #69 ) ;
#216 = CARTESIAN_POINT ( 'NONE',  ( 0.000000000000000000, 0.000000000000000000, 0.000000000000000000 ) ) ;
#217 = PLANE ( 'NONE',  #196 ) ;
#218 = PRODUCT ( '3D_R152_DN60.3_17305215', '3D_R152_DN60.3_17305215', '', ( #31 ) ) ;
#219 = PERSON_AND_ORGANIZATION ( #176, #100 ) ;
#220 = APPLICATION_PROTOCOL_DEFINITION ( 'international standard', 'config_control_design', 1994, #55 ) ;
#221 = PERSON_AND_ORGANIZATION_ROLE ( 'design_owner' ) ;
#222 = DATE_AND_TIME ( #172, #1 ) ;
#223 = AXIS2_PLACEMENT_3D ( 'NONE', #27, #46, #87 ) ;
#224 = ORIENTED_EDGE ( 'NONE', *, *, #33, .T. ) ;
#225 = APPLICATION_CONTEXT ( 'configuration controlled 3d designs of mechanical parts and assemblies' ) ;
#226 = EDGE_CURVE ( 'NONE', #75, #136, #144, .T. ) ;
#227 = SHAPE_DEFINITION_REPRESENTATION ( #90, #128 ) ;
#228 = ORIENTED_EDGE ( 'NONE', *, *, #180, .F. ) ;
#229 = VERTEX_POINT ( 'NONE', #58 ) ;
#230 = CIRCLE ( 'NONE', #184, 111.7999999999999972 ) ;
#231 = ADVANCED_FACE ( 'NONE', ( #200 ), #182, .T. ) ;
#232 = CARTESIAN_POINT ( 'NONE',  ( 0.000000000000000000, 8.000000000000000000, -111.7999999999999972 ) ) ;
#233 = DIRECTION ( 'NONE',  ( 0.000000000000000000, 1.000000000000000000, 0.000000000000000000 ) ) ;
#234 = DIRECTION ( 'NONE',  ( 0.000000000000000000, 1.000000000000000000, 0.000000000000000000 ) ) ;
#235 = DIRECTION ( 'NONE',  ( 0.000000000000000000, 1.000000000000000000, 0.000000000000000000 ) ) ;
#236 = CIRCLE ( 'NONE', #248, 111.7999999999999972 ) ;
#237 = FACE_OUTER_BOUND ( 'NONE', #35, .T. ) ;
#238 = PERSON_AND_ORGANIZATION_ROLE ( 'design_supplier' ) ;
#239 = EDGE_CURVE ( 'NONE', #229, #115, #165, .T. ) ;
#240 = CARTESIAN_POINT ( 'NONE',  ( 0.000000000000000000, 0.000000000000000000, 0.000000000000000000 ) ) ;
#241 = PRODUCT_DEFINITION_FORMATION_WITH_SPECIFIED_SOURCE ( 'ANY', '', #218, .NOT_KNOWN. ) ;
#242 = PERSON_AND_ORGANIZATION_ROLE ( 'classification_officer' ) ;
#243 = VECTOR ( 'NONE', #166, 1000.000000000000000 ) ;
#244 = PERSON_AND_ORGANIZATION ( #176, #100 ) ;
#245 = EDGE_LOOP ( 'NONE', ( #246, #74 ) ) ;
#246 = ORIENTED_EDGE ( 'NONE', *, *, #180, .T. ) ;
#247 = ADVANCED_FACE ( 'NONE', ( #148, #153 ), #217, .F. ) ;
#248 = AXIS2_PLACEMENT_3D ( 'NONE', #199, #124, #181 ) ;
#249 = LINE ( 'NONE', #56, #103 ) ;
ENDSEC;
END-ISO-10303-21;
