ISO-10303-21;
HEADER;
FILE_DESCRIPTION (( 'STEP AP203' ),
    '1' );
FILE_NAME ('3D_R175_DN40x2_17336205.STEP',
    '2024-07-18T10:06:44',
    ( '' ),
    ( '' ),
    'SwSTEP 2.0',
    'SolidWorks 2024',
    '' );
FILE_SCHEMA (( 'CONFIG_CONTROL_DESIGN' ));
ENDSEC;

DATA;
#1 = DATE_AND_TIME ( #195, #349 ) ;
#2 = CARTESIAN_POINT ( 'NONE',  ( 3.673940397442059178E-15, -16.00000000000000000, 0.000000000000000000 ) ) ;
#3 = DATE_AND_TIME ( #135, #64 ) ;
#4 = EDGE_LOOP ( 'NONE', ( #312, #219, #128, #191 ) ) ;
#5 = PERSON_AND_ORGANIZATION ( #76, #184 ) ;
#6 = CARTESIAN_POINT ( 'NONE',  ( -16.00000000000000000, 4.493901531919190617, 0.000000000000000000 ) ) ;
#7 = EDGE_CURVE ( 'NONE', #88, #154, #393, .T. ) ;
#8 = ADVANCED_FACE ( 'NONE', ( #138 ), #36, .F. ) ;
#9 = CALENDAR_DATE ( 2024, 18, 7 ) ;
#10 = CARTESIAN_POINT ( 'NONE',  ( 18.00000000000000000, 4.493901531919083148, 2.204364238465235428E-15 ) ) ;
#11 = APPROVAL_DATE_TIME ( #351, #331 ) ;
#12 = ORIENTED_EDGE ( 'NONE', *, *, #115, .F. ) ;
#13 = LOCAL_TIME ( 12, 6, 44.00000000000000000, #290 ) ;
#14 = CARTESIAN_POINT ( 'NONE',  ( 9.236488298952508525E-16, 0.000000000000000000, 0.000000000000000000 ) ) ;
#15 = DIRECTION ( 'NONE',  ( 4.596983092540343816E-18, 1.000000000000000000, -0.000000000000000000 ) ) ;
#16 = DIRECTION ( 'NONE',  ( 1.000000000000000000, 0.000000000000000000, 1.224646799147353454E-16 ) ) ;
#17 = CIRCLE ( 'NONE', #182, 1.999999999999998224 ) ;
#18 = CARTESIAN_POINT ( 'NONE',  ( 1.387778780781445676E-14, 2817.965330118411202, 0.000000000000000000 ) ) ;
#19 = EDGE_CURVE ( 'NONE', #320, #405, #210, .T. ) ;
#20 = ADVANCED_BREP_SHAPE_REPRESENTATION ( '3D_R175_DN40x2_17336205', ( #328, #119 ), #367 ) ;
#21 = CYLINDRICAL_SURFACE ( 'NONE', #171, 19.99999999999999645 ) ;
#22 = DIRECTION ( 'NONE',  ( 1.000000000000000000, 0.000000000000000000, 1.224646799147352961E-16 ) ) ;
#23 = AXIS2_PLACEMENT_3D ( 'NONE', #113, #366, #368 ) ;
#24 = AXIS2_PLACEMENT_3D ( 'NONE', #277, #57, #185 ) ;
#25 = PERSON_AND_ORGANIZATION ( #76, #184 ) ;
#26 = ORIENTED_EDGE ( 'NONE', *, *, #127, .T. ) ;
#27 = CARTESIAN_POINT ( 'NONE',  ( 3.775397448503126413E-15, 6.070355495913032584, 0.000000000000000000 ) ) ;
#28 = EDGE_LOOP ( 'NONE', ( #369, #346, #314, #282 ) ) ;
#29 = FACE_OUTER_BOUND ( 'NONE', #90, .T. ) ;
#30 = VERTEX_POINT ( 'NONE', #104 ) ;
#31 = AXIS2_PLACEMENT_3D ( 'NONE', #302, #46, #49 ) ;
#32 = CIRCLE ( 'NONE', #79, 27.99999999999999645 ) ;
#33 = LINE ( 'NONE', #217, #110 ) ;
#34 = ORIENTED_EDGE ( 'NONE', *, *, #273, .F. ) ;
#35 = ORIENTED_EDGE ( 'NONE', *, *, #7, .T. ) ;
#36 = CYLINDRICAL_SURFACE ( 'NONE', #245, 17.99999999999999645 ) ;
#37 = PERSON_AND_ORGANIZATION_ROLE ( 'creator' ) ;
#38 = SPHERICAL_SURFACE ( 'NONE', #198, 27.99999999999999645 ) ;
#39 = EDGE_CURVE ( 'NONE', #30, #224, #132, .T. ) ;
#40 = ADVANCED_FACE ( 'NONE', ( #228 ), #270, .T. ) ;
#41 = CARTESIAN_POINT ( 'NONE',  ( 3.673940397442059178E-15, -16.00000000000000000, 0.000000000000000000 ) ) ;
#42 = ORIENTED_EDGE ( 'NONE', *, *, #345, .T. ) ;
#43 = PLANE ( 'NONE',  #44 ) ;
#44 = AXIS2_PLACEMENT_3D ( 'NONE', #211, #209, #392 ) ;
#45 = SECURITY_CLASSIFICATION ( '', '', #103 ) ;
#46 = DIRECTION ( 'NONE',  ( 4.596983092540343816E-18, 1.000000000000000000, -0.000000000000000000 ) ) ;
#47 = APPLICATION_CONTEXT ( 'configuration controlled 3d designs of mechanical parts and assemblies' ) ;
#48 = CARTESIAN_POINT ( 'NONE',  ( 0.000000000000000000, 4.493901531919190617, 0.000000000000000000 ) ) ;
#49 = DIRECTION ( 'NONE',  ( -1.000000000000000000, 0.000000000000000000, 0.000000000000000000 ) ) ;
#50 = CIRCLE ( 'NONE', #157, 19.99999999999999645 ) ;
#51 = EDGE_CURVE ( 'NONE', #320, #222, #150, .T. ) ;
#52 = LOCAL_TIME ( 12, 6, 44.00000000000000000, #235 ) ;
#53 = DIRECTION ( 'NONE',  ( 4.596983092540343816E-18, 1.000000000000000000, -0.000000000000000000 ) ) ;
#54 = DIRECTION ( 'NONE',  ( 4.596983092540343816E-18, 1.000000000000000000, -0.000000000000000000 ) ) ;
#55 = ORIENTED_EDGE ( 'NONE', *, *, #260, .T. ) ;
#56 = AXIS2_PLACEMENT_3D ( 'NONE', #207, #15, #334 ) ;
#57 = DIRECTION ( 'NONE',  ( 4.596983092540343816E-18, 1.000000000000000000, -0.000000000000000000 ) ) ;
#58 = ORIENTED_EDGE ( 'NONE', *, *, #272, .T. ) ;
#59 = DIRECTION ( 'NONE',  ( 4.596983092540343816E-18, 1.000000000000000000, -0.000000000000000000 ) ) ;
#60 = ORIENTED_EDGE ( 'NONE', *, *, #19, .T. ) ;
#61 =( NAMED_UNIT ( * ) SI_UNIT ( $, .STERADIAN. ) SOLID_ANGLE_UNIT ( ) );
#62 = VERTEX_POINT ( 'NONE', #105 ) ;
#63 = AXIS2_PLACEMENT_3D ( 'NONE', #197, #384, #111 ) ;
#64 = LOCAL_TIME ( 12, 6, 44.00000000000000000, #65 ) ;
#65 = COORDINATED_UNIVERSAL_TIME_OFFSET ( 1, 0, .AHEAD. ) ;
#66 = ORIENTED_EDGE ( 'NONE', *, *, #186, .F. ) ;
#67 = PERSON_AND_ORGANIZATION ( #76, #184 ) ;
#68 = FACE_OUTER_BOUND ( 'NONE', #4, .T. ) ;
#69 = APPROVAL_DATE_TIME ( #353, #168 ) ;
#70 = EDGE_CURVE ( 'NONE', #258, #156, #354, .T. ) ;
#71 = FACE_OUTER_BOUND ( 'NONE', #236, .T. ) ;
#72 = DIRECTION ( 'NONE',  ( -1.000000000000000000, 0.000000000000000000, 0.000000000000000000 ) ) ;
#73 = APPROVAL_ROLE ( '' ) ;
#74 = ORIENTED_EDGE ( 'NONE', *, *, #345, .F. ) ;
#75 = APPLICATION_CONTEXT ( 'configuration controlled 3d designs of mechanical parts and assemblies' ) ;
#76 = PERSON ( 'UNSPECIFIED', 'UNSPECIFIED', 'UNSPECIFIED', ('UNSPECIFIED'), ('UNSPECIFIED'), ('UNSPECIFIED') ) ;
#77 = DIRECTION ( 'NONE',  ( -1.000000000000000000, 0.000000000000000000, 0.000000000000000000 ) ) ;
#78 = CARTESIAN_POINT ( 'NONE',  ( 2.088150405226894684E-15, 11.99999999999999645, 0.000000000000000000 ) ) ;
#79 = AXIS2_PLACEMENT_3D ( 'NONE', #307, #374, #181 ) ;
#80 = DIRECTION ( 'NONE',  ( -1.000000000000000000, 0.000000000000000000, 0.000000000000000000 ) ) ;
#81 = ADVANCED_FACE ( 'NONE', ( #71 ), #38, .F. ) ;
#82 = CARTESIAN_POINT ( 'NONE',  ( 3.673940397442059178E-15, -16.00000000000000000, 0.000000000000000000 ) ) ;
#83 = CARTESIAN_POINT ( 'NONE',  ( -18.00000000000000000, 4.493901531919083148, 0.000000000000000000 ) ) ;
#84 = VECTOR ( 'NONE', #329, 1000.000000000000000 ) ;
#85 = AXIS2_PLACEMENT_3D ( 'NONE', #341, #92, #22 ) ;
#86 = DIRECTION ( 'NONE',  ( 4.596983092540343816E-18, 1.000000000000000000, -0.000000000000000000 ) ) ;
#87 = CARTESIAN_POINT ( 'NONE',  ( -18.46153846153845990, 7.646809459906922513, 0.000000000000000000 ) ) ;
#88 = VERTEX_POINT ( 'NONE', #325 ) ;
#89 = CARTESIAN_POINT ( 'NONE',  ( 18.00000000000001066, 2817.965330118411202, 2.204364238465235033E-15 ) ) ;
#90 = EDGE_LOOP ( 'NONE', ( #377, #411, #121, #190 ) ) ;
#91 = CIRCLE ( 'NONE', #407, 18.00000000000000000 ) ;
#92 = DIRECTION ( 'NONE',  ( -1.224646799147353207E-16, 5.629680630014033300E-34, 1.000000000000000000 ) ) ;
#93 = ORIENTED_EDGE ( 'NONE', *, *, #230, .T. ) ;
#94 =( NAMED_UNIT ( * ) PLANE_ANGLE_UNIT ( ) SI_UNIT ( $, .RADIAN. ) );
#95 = CC_DESIGN_PERSON_AND_ORGANIZATION_ASSIGNMENT ( #379, #229, ( #140 ) ) ;
#96 = ORIENTED_EDGE ( 'NONE', *, *, #70, .T. ) ;
#97 = EDGE_CURVE ( 'NONE', #224, #405, #398, .T. ) ;
#98 = CARTESIAN_POINT ( 'NONE',  ( 0.000000000000000000, 0.000000000000000000, 0.000000000000000000 ) ) ;
#99 = ORIENTED_EDGE ( 'NONE', *, *, #359, .T. ) ;
#100 = PRODUCT ( '3D_R175_DN40x2_17336205', '3D_R175_DN40x2_17336205', '', ( #410 ) ) ;
#101 = AXIS2_PLACEMENT_3D ( 'NONE', #6, #356, #72 ) ;
#102 = CIRCLE ( 'NONE', #333, 18.00000000000000000 ) ;
#103 = SECURITY_CLASSIFICATION_LEVEL ( 'unclassified' ) ;
#104 = CARTESIAN_POINT ( 'NONE',  ( -20.00000000000000000, 4.493901531918975678, 0.000000000000000000 ) ) ;
#105 = CARTESIAN_POINT ( 'NONE',  ( 17.99999999999999645, -8.274569566572616404E-17, 2.204364238465235033E-15 ) ) ;
#106 = COORDINATED_UNIVERSAL_TIME_OFFSET ( 1, 0, .AHEAD. ) ;
#107 = DIRECTION ( 'NONE',  ( -0.000000000000000000, 0.000000000000000000, -1.000000000000000000 ) ) ;
#108 = AXIS2_PLACEMENT_3D ( 'NONE', #18, #86, #80 ) ;
#109 = PERSON_AND_ORGANIZATION ( #76, #184 ) ;
#110 = VECTOR ( 'NONE', #180, 1000.000000000000000 ) ;
#111 = DIRECTION ( 'NONE',  ( -1.000000000000000000, 0.000000000000000000, 0.000000000000000000 ) ) ;
#112 = FACE_OUTER_BOUND ( 'NONE', #28, .T. ) ;
#113 = CARTESIAN_POINT ( 'NONE',  ( 3.775397448503126413E-15, 6.070355495913032584, 0.000000000000000000 ) ) ;
#114 = ADVANCED_FACE ( 'NONE', ( #68 ), #298, .T. ) ;
#115 = EDGE_CURVE ( 'NONE', #30, #320, #283, .T. ) ;
#116 = CARTESIAN_POINT ( 'NONE',  ( 0.000000000000000000, 4.493901531919190617, 0.000000000000000000 ) ) ;
#117 = CARTESIAN_POINT ( 'NONE',  ( -17.99999999999999645, 8.274569566572616404E-17, 0.000000000000000000 ) ) ;
#118 = TOROIDAL_SURFACE ( 'NONE', #362, 16.00000000000000000, 1.999999999999998224 ) ;
#119 = AXIS2_PLACEMENT_3D ( 'NONE', #98, #310, #120 ) ;
#120 = DIRECTION ( 'NONE',  ( 1.000000000000000000, 0.000000000000000000, 0.000000000000000000 ) ) ;
#121 = ORIENTED_EDGE ( 'NONE', *, *, #39, .F. ) ;
#122 = DIRECTION ( 'NONE',  ( 0.000000000000000000, 0.000000000000000000, 1.000000000000000000 ) ) ;
#123 = EDGE_LOOP ( 'NONE', ( #344, #378, #382, #12 ) ) ;
#124 = DIRECTION ( 'NONE',  ( -1.000000000000000000, 0.000000000000000000, 0.000000000000000000 ) ) ;
#125 = ORIENTED_EDGE ( 'NONE', *, *, #272, .F. ) ;
#126 = CC_DESIGN_DATE_AND_TIME_ASSIGNMENT ( #3, #262, ( #45 ) ) ;
#127 = EDGE_CURVE ( 'NONE', #131, #156, #91, .T. ) ;
#128 = ORIENTED_EDGE ( 'NONE', *, *, #115, .T. ) ;
#129 = DIRECTION ( 'NONE',  ( -1.000000000000000000, 0.000000000000000000, 0.000000000000000000 ) ) ;
#130 = ORIENTED_EDGE ( 'NONE', *, *, #403, .T. ) ;
#131 = VERTEX_POINT ( 'NONE', #10 ) ;
#132 = CIRCLE ( 'NONE', #205, 20.00000000000000000 ) ;
#133 = DIRECTION ( 'NONE',  ( 4.596983092540343816E-18, 1.000000000000000000, -0.000000000000000000 ) ) ;
#134 = PRODUCT_DEFINITION_SHAPE ( 'NONE', 'NONE',  #372 ) ;
#135 = CALENDAR_DATE ( 2024, 18, 7 ) ;
#136 = DIRECTION ( 'NONE',  ( -1.000000000000000000, 4.596983092540343816E-18, 0.000000000000000000 ) ) ;
#137 = APPROVAL_STATUS ( 'not_yet_approved' ) ;
#138 = FACE_OUTER_BOUND ( 'NONE', #342, .T. ) ;
#139 = CC_DESIGN_PERSON_AND_ORGANIZATION_ASSIGNMENT ( #165, #161, ( #372 ) ) ;
#140 = PRODUCT_DEFINITION_FORMATION_WITH_SPECIFIED_SOURCE ( 'ANY', '', #100, .NOT_KNOWN. ) ;
#141 = CARTESIAN_POINT ( 'NONE',  ( 9.443072192570246316E-16, 4.493901531918975678, 0.000000000000000000 ) ) ;
#142 = EDGE_CURVE ( 'NONE', #156, #160, #326, .T. ) ;
#143 = DIRECTION ( 'NONE',  ( -1.224646799147353207E-16, 5.629680630014033300E-34, 1.000000000000000000 ) ) ;
#144 = FACE_OUTER_BOUND ( 'NONE', #340, .T. ) ;
#145 = EDGE_CURVE ( 'NONE', #405, #320, #380, .T. ) ;
#146 = DIRECTION ( 'NONE',  ( 4.596983092540343816E-18, 1.000000000000000000, -0.000000000000000000 ) ) ;
#147 = AXIS2_PLACEMENT_3D ( 'NONE', #14, #271, #301 ) ;
#148 = CYLINDRICAL_SURFACE ( 'NONE', #108, 17.99999999999999645 ) ;
#149 = CARTESIAN_POINT ( 'NONE',  ( 20.00000000000000000, 4.493901531918975678, 2.449293598294706513E-15 ) ) ;
#150 = CIRCLE ( 'NONE', #177, 30.00000000000000000 ) ;
#151 = AXIS2_PLACEMENT_3D ( 'NONE', #27, #54, #129 ) ;
#152 = ORIENTED_EDGE ( 'NONE', *, *, #396, .T. ) ;
#153 = SPHERICAL_SURFACE ( 'NONE', #311, 27.99999999999999645 ) ;
#154 = VERTEX_POINT ( 'NONE', #78 ) ;
#155 = ADVANCED_FACE ( 'NONE', ( #112 ), #118, .F. ) ;
#156 = VERTEX_POINT ( 'NONE', #83 ) ;
#157 = AXIS2_PLACEMENT_3D ( 'NONE', #175, #178, #269 ) ;
#158 = CC_DESIGN_APPROVAL ( #168, ( #372 ) ) ;
#159 = SPHERICAL_SURFACE ( 'NONE', #381, 30.00000000000000000 ) ;
#160 = VERTEX_POINT ( 'NONE', #176 ) ;
#161 = PERSON_AND_ORGANIZATION_ROLE ( 'creator' ) ;
#162 = DIRECTION ( 'NONE',  ( 1.000000000000000000, 0.000000000000000000, 1.224646799147353207E-16 ) ) ;
#163 = DIRECTION ( 'NONE',  ( 4.596983092540343816E-18, 1.000000000000000000, -0.000000000000000000 ) ) ;
#164 = CLOSED_SHELL ( 'NONE', ( #303, #292, #201, #304, #40, #335, #232, #202, #114, #216, #8, #155, #81 ) ) ;
#165 = PERSON_AND_ORGANIZATION ( #76, #184 ) ;
#166 = DIRECTION ( 'NONE',  ( -1.000000000000000000, 4.596983092540343816E-18, 0.000000000000000000 ) ) ;
#167 = CARTESIAN_POINT ( 'NONE',  ( 3.673940397442059178E-15, -16.00000000000000000, 0.000000000000000000 ) ) ;
#168 = APPROVAL ( #321, 'UNSPECIFIED' ) ;
#169 = CC_DESIGN_DATE_AND_TIME_ASSIGNMENT ( #196, #257, ( #372 ) ) ;
#170 = DIRECTION ( 'NONE',  ( -1.000000000000000000, 0.000000000000000000, 0.000000000000000000 ) ) ;
#171 = AXIS2_PLACEMENT_3D ( 'NONE', #365, #214, #391 ) ;
#172 = CC_DESIGN_APPROVAL ( #360, ( #45 ) ) ;
#173 = DIRECTION ( 'NONE',  ( 0.000000000000000000, 0.000000000000000000, 1.000000000000000000 ) ) ;
#174 = CARTESIAN_POINT ( 'NONE',  ( 20.00000000000001066, 2817.965330118411202, 2.449293598294706119E-15 ) ) ;
#175 = CARTESIAN_POINT ( 'NONE',  ( 9.236488298952508525E-16, 0.000000000000000000, 0.000000000000000000 ) ) ;
#176 = CARTESIAN_POINT ( 'NONE',  ( -17.23076923076915534, 6.070355495913032584, 0.000000000000000000 ) ) ;
#177 = AXIS2_PLACEMENT_3D ( 'NONE', #2, #107, #231 ) ;
#178 = DIRECTION ( 'NONE',  ( 4.596983092540343816E-18, 1.000000000000000000, -0.000000000000000000 ) ) ;
#179 = DESIGN_CONTEXT ( 'detailed design', #47, 'design' ) ;
#180 = DIRECTION ( 'NONE',  ( 4.596983092540343816E-18, 1.000000000000000000, -0.000000000000000000 ) ) ;
#181 = DIRECTION ( 'NONE',  ( -1.000000000000000000, 0.000000000000000000, 0.000000000000000000 ) ) ;
#182 = AXIS2_PLACEMENT_3D ( 'NONE', #338, #143, #16 ) ;
#183 = ORIENTED_EDGE ( 'NONE', *, *, #359, .F. ) ;
#184 = ORGANIZATION ( 'UNSPECIFIED', 'UNSPECIFIED', '' ) ;
#185 = DIRECTION ( 'NONE',  ( 1.000000000000000000, -4.596983092540343046E-18, 0.000000000000000000 ) ) ;
#186 = EDGE_CURVE ( 'NONE', #248, #390, #348, .T. ) ;
#187 = ORIENTED_EDGE ( 'NONE', *, *, #51, .T. ) ;
#188 = EDGE_CURVE ( 'NONE', #390, #224, #364, .T. ) ;
#189 = DIRECTION ( 'NONE',  ( 4.596983092540343816E-18, 1.000000000000000000, -0.000000000000000000 ) ) ;
#190 = ORIENTED_EDGE ( 'NONE', *, *, #396, .F. ) ;
#191 = ORIENTED_EDGE ( 'NONE', *, *, #145, .F. ) ;
#192 = APPROVAL_PERSON_ORGANIZATION ( #347, #331, #355 ) ;
#193 = CALENDAR_DATE ( 2024, 18, 7 ) ;
#194 = ORIENTED_EDGE ( 'NONE', *, *, #261, .T. ) ;
#195 = CALENDAR_DATE ( 2024, 18, 7 ) ;
#196 = DATE_AND_TIME ( #385, #212 ) ;
#197 = CARTESIAN_POINT ( 'NONE',  ( 9.588010836943203455E-16, 7.646809459906922513, 0.000000000000000000 ) ) ;
#198 = AXIS2_PLACEMENT_3D ( 'NONE', #41, #204, #294 ) ;
#199 = APPROVAL_DATE_TIME ( #1, #360 ) ;
#200 = DIRECTION ( 'NONE',  ( 4.596983092540343816E-18, 1.000000000000000000, -0.000000000000000000 ) ) ;
#201 = ADVANCED_FACE ( 'NONE', ( #394 ), #148, .F. ) ;
#202 = ADVANCED_FACE ( 'NONE', ( #208 ), #21, .T. ) ;
#203 = CARTESIAN_POINT ( 'NONE',  ( 0.000000000000000000, 4.493901531919190617, 0.000000000000000000 ) ) ;
#204 = DIRECTION ( 'NONE',  ( 0.000000000000000000, 0.000000000000000000, 1.000000000000000000 ) ) ;
#205 = AXIS2_PLACEMENT_3D ( 'NONE', #141, #133, #289 ) ;
#206 = CIRCLE ( 'NONE', #24, 17.99999999999999645 ) ;
#207 = CARTESIAN_POINT ( 'NONE',  ( 9.443072192570246316E-16, 4.493901531918975678, 0.000000000000000000 ) ) ;
#208 = FACE_OUTER_BOUND ( 'NONE', #324, .T. ) ;
#209 = DIRECTION ( 'NONE',  ( -4.596983092540343816E-18, -1.000000000000000000, 0.000000000000000000 ) ) ;
#210 = CIRCLE ( 'NONE', #63, 18.46153846153845990 ) ;
#211 = CARTESIAN_POINT ( 'NONE',  ( -2.113225355310178102E-34, -4.596983092540343200E-17, 0.000000000000000000 ) ) ;
#212 = LOCAL_TIME ( 12, 6, 44.00000000000000000, #293 ) ;
#213 = CC_DESIGN_PERSON_AND_ORGANIZATION_ASSIGNMENT ( #5, #37, ( #140 ) ) ;
#214 = DIRECTION ( 'NONE',  ( 4.596983092540343816E-18, 1.000000000000000000, -0.000000000000000000 ) ) ;
#215 = ORIENTED_EDGE ( 'NONE', *, *, #7, .F. ) ;
#216 = ADVANCED_FACE ( 'NONE', ( #306 ), #241, .T. ) ;
#217 = CARTESIAN_POINT ( 'NONE',  ( -19.99999999999998224, 2817.965330118411202, 0.000000000000000000 ) ) ;
#218 = AXIS2_PLACEMENT_3D ( 'NONE', #263, #237, #386 ) ;
#219 = ORIENTED_EDGE ( 'NONE', *, *, #273, .T. ) ;
#220 = CARTESIAN_POINT ( 'NONE',  ( -4.942073358009567186E-31, 4.493901531919083148, 0.000000000000000000 ) ) ;
#221 = ORIENTED_EDGE ( 'NONE', *, *, #389, .F. ) ;
#222 = VERTEX_POINT ( 'NONE', #246 ) ;
#223 = PERSON_AND_ORGANIZATION_ROLE ( 'design_owner' ) ;
#224 = VERTEX_POINT ( 'NONE', #149 ) ;
#225 = AXIS2_PLACEMENT_3D ( 'NONE', #82, #173, #305 ) ;
#226 = SHAPE_DEFINITION_REPRESENTATION ( #134, #20 ) ;
#227 = CARTESIAN_POINT ( 'NONE',  ( 1.387778780781445676E-14, 2817.965330118411202, 0.000000000000000000 ) ) ;
#228 = FACE_OUTER_BOUND ( 'NONE', #123, .T. ) ;
#229 = PERSON_AND_ORGANIZATION_ROLE ( 'design_supplier' ) ;
#230 = EDGE_CURVE ( 'NONE', #88, #160, #239, .T. ) ;
#231 = DIRECTION ( 'NONE',  ( -1.000000000000000000, 0.000000000000000000, 0.000000000000000000 ) ) ;
#232 = ADVANCED_FACE ( 'NONE', ( #274, #275 ), #43, .T. ) ;
#233 = VECTOR ( 'NONE', #243, 1000.000000000000000 ) ;
#234 = AXIS2_PLACEMENT_3D ( 'NONE', #264, #332, #166 ) ;
#235 = COORDINATED_UNIVERSAL_TIME_OFFSET ( 1, 0, .AHEAD. ) ;
#236 = EDGE_LOOP ( 'NONE', ( #215, #402, #256 ) ) ;
#237 = DIRECTION ( 'NONE',  ( -1.224646799147353207E-16, 5.629680630014033300E-34, 1.000000000000000000 ) ) ;
#238 = DIRECTION ( 'NONE',  ( -1.000000000000000000, 4.596983092540343816E-18, 0.000000000000000000 ) ) ;
#239 = CIRCLE ( 'NONE', #23, 17.23076923076915890 ) ;
#240 = DIRECTION ( 'NONE',  ( 4.596983092540343816E-18, 1.000000000000000000, -0.000000000000000000 ) ) ;
#241 = SPHERICAL_SURFACE ( 'NONE', #225, 30.00000000000000000 ) ;
#242 = PRODUCT_RELATED_PRODUCT_CATEGORY ( 'detail', '', ( #100 ) ) ;
#243 = DIRECTION ( 'NONE',  ( 4.596983092540343816E-18, 1.000000000000000000, -0.000000000000000000 ) ) ;
#244 = CC_DESIGN_PERSON_AND_ORGANIZATION_ASSIGNMENT ( #25, #223, ( #100 ) ) ;
#245 = AXIS2_PLACEMENT_3D ( 'NONE', #227, #163, #352 ) ;
#246 = CARTESIAN_POINT ( 'NONE',  ( 1.974879691497239768E-15, 13.99999999999999822, 0.000000000000000000 ) ) ;
#247 = CC_DESIGN_APPROVAL ( #331, ( #140 ) ) ;
#248 = VERTEX_POINT ( 'NONE', #397 ) ;
#249 = DIRECTION ( 'NONE',  ( -1.000000000000000000, 0.000000000000000000, 0.000000000000000000 ) ) ;
#250 = ORIENTED_EDGE ( 'NONE', *, *, #51, .F. ) ;
#251 = CARTESIAN_POINT ( 'NONE',  ( 3.673940397442059178E-15, -16.00000000000000000, 0.000000000000000000 ) ) ;
#252 = AXIS2_PLACEMENT_3D ( 'NONE', #48, #146, #337 ) ;
#253 = ORIENTED_EDGE ( 'NONE', *, *, #70, .F. ) ;
#254 = CARTESIAN_POINT ( 'NONE',  ( 1.387778780781445676E-14, 2817.965330118411202, 0.000000000000000000 ) ) ;
#255 = ORIENTED_EDGE ( 'NONE', *, *, #188, .F. ) ;
#256 = ORIENTED_EDGE ( 'NONE', *, *, #389, .T. ) ;
#257 = DATE_TIME_ROLE ( 'creation_date' ) ;
#258 = VERTEX_POINT ( 'NONE', #117 ) ;
#259 = CIRCLE ( 'NONE', #151, 17.23076923076915890 ) ;
#260 = EDGE_CURVE ( 'NONE', #131, #88, #17, .T. ) ;
#261 = EDGE_CURVE ( 'NONE', #62, #258, #309, .T. ) ;
#262 = DATE_TIME_ROLE ( 'classification_date' ) ;
#263 = CARTESIAN_POINT ( 'NONE',  ( 16.00000000000000000, 4.493901531919190617, 1.959434878635765131E-15 ) ) ;
#264 = CARTESIAN_POINT ( 'NONE',  ( 0.000000000000000000, 4.493901531919190617, 0.000000000000000000 ) ) ;
#265 = AXIS2_PLACEMENT_3D ( 'NONE', #167, #327, #162 ) ;
#266 = VECTOR ( 'NONE', #189, 1000.000000000000000 ) ;
#267 = PERSON_AND_ORGANIZATION ( #76, #184 ) ;
#268 = DIRECTION ( 'NONE',  ( 4.596983092540343816E-18, 1.000000000000000000, -0.000000000000000000 ) ) ;
#269 = DIRECTION ( 'NONE',  ( -1.000000000000000000, 4.596983092540343816E-18, 0.000000000000000000 ) ) ;
#270 = TOROIDAL_SURFACE ( 'NONE', #357, 16.00000000000000000, 3.999999999999998224 ) ;
#271 = DIRECTION ( 'NONE',  ( 4.596983092540343816E-18, 1.000000000000000000, -0.000000000000000000 ) ) ;
#272 = EDGE_CURVE ( 'NONE', #390, #248, #50, .T. ) ;
#273 = EDGE_CURVE ( 'NONE', #224, #30, #373, .T. ) ;
#274 = FACE_BOUND ( 'NONE', #287, .T. ) ;
#275 = FACE_OUTER_BOUND ( 'NONE', #279, .T. ) ;
#276 = AXIS2_PLACEMENT_3D ( 'NONE', #395, #240, #300 ) ;
#277 = CARTESIAN_POINT ( 'NONE',  ( 9.236488298952508525E-16, 0.000000000000000000, 0.000000000000000000 ) ) ;
#278 = CC_DESIGN_SECURITY_CLASSIFICATION ( #45, ( #140 ) ) ;
#279 = EDGE_LOOP ( 'NONE', ( #66, #125 ) ) ;
#280 =( LENGTH_UNIT ( ) NAMED_UNIT ( * ) SI_UNIT ( .MILLI., .METRE. ) );
#281 = ORIENTED_EDGE ( 'NONE', *, *, #403, .F. ) ;
#282 = ORIENTED_EDGE ( 'NONE', *, *, #330, .T. ) ;
#283 = CIRCLE ( 'NONE', #101, 3.999999999999996447 ) ;
#284 = AXIS2_PLACEMENT_3D ( 'NONE', #254, #59, #370 ) ;
#285 = ORIENTED_EDGE ( 'NONE', *, *, #145, .T. ) ;
#286 = APPLICATION_PROTOCOL_DEFINITION ( 'international standard', 'config_control_design', 1994, #75 ) ;
#287 = EDGE_LOOP ( 'NONE', ( #42, #194 ) ) ;
#288 = APPLICATION_PROTOCOL_DEFINITION ( 'international standard', 'config_control_design', 1994, #47 ) ;
#289 = DIRECTION ( 'NONE',  ( -1.000000000000000000, 0.000000000000000000, 0.000000000000000000 ) ) ;
#290 = COORDINATED_UNIVERSAL_TIME_OFFSET ( 1, 0, .AHEAD. ) ;
#291 = ORIENTED_EDGE ( 'NONE', *, *, #127, .F. ) ;
#292 = ADVANCED_FACE ( 'NONE', ( #144 ), #319, .F. ) ;
#293 = COORDINATED_UNIVERSAL_TIME_OFFSET ( 1, 0, .AHEAD. ) ;
#294 = DIRECTION ( 'NONE',  ( -1.000000000000000000, 0.000000000000000000, 0.000000000000000000 ) ) ;
#295 = CARTESIAN_POINT ( 'NONE',  ( -17.99999999999998224, 2817.965330118411202, 0.000000000000000000 ) ) ;
#296 = APPROVAL_STATUS ( 'not_yet_approved' ) ;
#297 = CARTESIAN_POINT ( 'NONE',  ( -16.00000000000000000, 4.493901531919190617, 0.000000000000000000 ) ) ;
#298 = TOROIDAL_SURFACE ( 'NONE', #234, 16.00000000000000000, 3.999999999999998224 ) ;
#299 = APPROVAL_PERSON_ORGANIZATION ( #67, #360, #383 ) ;
#300 = DIRECTION ( 'NONE',  ( 1.000000000000000000, -4.596983092540343046E-18, 0.000000000000000000 ) ) ;
#301 = DIRECTION ( 'NONE',  ( -1.000000000000000000, 4.596983092540343816E-18, 0.000000000000000000 ) ) ;
#302 = CARTESIAN_POINT ( 'NONE',  ( 9.588010836943203455E-16, 7.646809459906922513, 0.000000000000000000 ) ) ;
#303 = ADVANCED_FACE ( 'NONE', ( #336 ), #153, .F. ) ;
#304 = ADVANCED_FACE ( 'NONE', ( #401 ), #159, .T. ) ;
#305 = DIRECTION ( 'NONE',  ( -1.000000000000000000, 0.000000000000000000, 0.000000000000000000 ) ) ;
#306 = FACE_OUTER_BOUND ( 'NONE', #409, .T. ) ;
#307 = CARTESIAN_POINT ( 'NONE',  ( 3.673940397442059178E-15, -16.00000000000000000, 0.000000000000000000 ) ) ;
#308 = UNCERTAINTY_MEASURE_WITH_UNIT (LENGTH_MEASURE( 1.000000000000000082E-05 ), #280, 'distance_accuracy_value', 'NONE');
#309 = CIRCLE ( 'NONE', #276, 17.99999999999999645 ) ;
#310 = DIRECTION ( 'NONE',  ( 0.000000000000000000, 0.000000000000000000, 1.000000000000000000 ) ) ;
#311 = AXIS2_PLACEMENT_3D ( 'NONE', #251, #408, #343 ) ;
#312 = ORIENTED_EDGE ( 'NONE', *, *, #97, .F. ) ;
#313 = CARTESIAN_POINT ( 'NONE',  ( 3.673940397442059178E-15, -16.00000000000000000, 0.000000000000000000 ) ) ;
#314 = ORIENTED_EDGE ( 'NONE', *, *, #142, .T. ) ;
#315 = CYLINDRICAL_SURFACE ( 'NONE', #284, 19.99999999999999645 ) ;
#316 = EDGE_LOOP ( 'NONE', ( #350, #35, #221 ) ) ;
#317 = EDGE_CURVE ( 'NONE', #156, #131, #102, .T. ) ;
#318 = CARTESIAN_POINT ( 'NONE',  ( 18.46153846153845990, 7.646809459906922513, 2.355089998360294800E-15 ) ) ;
#319 = TOROIDAL_SURFACE ( 'NONE', #252, 16.00000000000000000, 1.999999999999998224 ) ;
#320 = VERTEX_POINT ( 'NONE', #87 ) ;
#321 = APPROVAL_STATUS ( 'not_yet_approved' ) ;
#322 = EDGE_LOOP ( 'NONE', ( #375, #99, #26, #253 ) ) ;
#323 = PERSON_AND_ORGANIZATION_ROLE ( 'classification_officer' ) ;
#324 = EDGE_LOOP ( 'NONE', ( #255, #58, #152, #34 ) ) ;
#325 = CARTESIAN_POINT ( 'NONE',  ( 17.23076923076916245, 6.070355495913032584, 2.157262438498025232E-15 ) ) ;
#326 = CIRCLE ( 'NONE', #406, 1.999999999999998224 ) ;
#327 = DIRECTION ( 'NONE',  ( -1.224646799147353207E-16, 5.629680630014033300E-34, 1.000000000000000000 ) ) ;
#328 = MANIFOLD_SOLID_BREP ( 'Wandung1', #164 ) ;
#329 = DIRECTION ( 'NONE',  ( 4.596983092540343816E-18, 1.000000000000000000, -0.000000000000000000 ) ) ;
#330 = EDGE_CURVE ( 'NONE', #160, #88, #259, .T. ) ;
#331 = APPROVAL ( #137, 'UNSPECIFIED' ) ;
#332 = DIRECTION ( 'NONE',  ( 4.596983092540343816E-18, 1.000000000000000000, -0.000000000000000000 ) ) ;
#333 = AXIS2_PLACEMENT_3D ( 'NONE', #220, #404, #249 ) ;
#334 = DIRECTION ( 'NONE',  ( -1.000000000000000000, 0.000000000000000000, 0.000000000000000000 ) ) ;
#335 = ADVANCED_FACE ( 'NONE', ( #29 ), #315, .T. ) ;
#336 = FACE_OUTER_BOUND ( 'NONE', #316, .T. ) ;
#337 = DIRECTION ( 'NONE',  ( -1.000000000000000000, 4.596983092540343816E-18, 0.000000000000000000 ) ) ;
#338 = CARTESIAN_POINT ( 'NONE',  ( 16.00000000000000000, 4.493901531919190617, 1.959434878635765131E-15 ) ) ;
#339 = CARTESIAN_POINT ( 'NONE',  ( 19.99999999999999645, -9.193966185080686399E-17, 2.449293598294706119E-15 ) ) ;
#340 = EDGE_LOOP ( 'NONE', ( #291, #55, #93, #400 ) ) ;
#341 = CARTESIAN_POINT ( 'NONE',  ( 3.673940397442059178E-15, -16.00000000000000000, 0.000000000000000000 ) ) ;
#342 = EDGE_LOOP ( 'NONE', ( #183, #74, #96, #388 ) ) ;
#343 = DIRECTION ( 'NONE',  ( -1.000000000000000000, 0.000000000000000000, 0.000000000000000000 ) ) ;
#344 = ORIENTED_EDGE ( 'NONE', *, *, #39, .T. ) ;
#345 = EDGE_CURVE ( 'NONE', #258, #62, #206, .T. ) ;
#346 = ORIENTED_EDGE ( 'NONE', *, *, #317, .F. ) ;
#347 = PERSON_AND_ORGANIZATION ( #76, #184 ) ;
#348 = CIRCLE ( 'NONE', #147, 19.99999999999999645 ) ;
#349 = LOCAL_TIME ( 12, 6, 44.00000000000000000, #106 ) ;
#350 = ORIENTED_EDGE ( 'NONE', *, *, #230, .F. ) ;
#351 = DATE_AND_TIME ( #9, #13 ) ;
#352 = DIRECTION ( 'NONE',  ( -1.000000000000000000, 0.000000000000000000, 0.000000000000000000 ) ) ;
#353 = DATE_AND_TIME ( #193, #52 ) ;
#354 = LINE ( 'NONE', #295, #84 ) ;
#355 = APPROVAL_ROLE ( '' ) ;
#356 = DIRECTION ( 'NONE',  ( -0.000000000000000000, 0.000000000000000000, -1.000000000000000000 ) ) ;
#357 = AXIS2_PLACEMENT_3D ( 'NONE', #203, #268, #136 ) ;
#358 = CARTESIAN_POINT ( 'NONE',  ( -4.942073358009567186E-31, 4.493901531919083148, 0.000000000000000000 ) ) ;
#359 = EDGE_CURVE ( 'NONE', #62, #131, #376, .T. ) ;
#360 = APPROVAL ( #296, 'UNSPECIFIED' ) ;
#361 = DIRECTION ( 'NONE',  ( -0.000000000000000000, 0.000000000000000000, -1.000000000000000000 ) ) ;
#362 = AXIS2_PLACEMENT_3D ( 'NONE', #116, #53, #238 ) ;
#363 = CIRCLE ( 'NONE', #85, 30.00000000000000000 ) ;
#364 = LINE ( 'NONE', #174, #233 ) ;
#365 = CARTESIAN_POINT ( 'NONE',  ( 1.387778780781445676E-14, 2817.965330118411202, 0.000000000000000000 ) ) ;
#366 = DIRECTION ( 'NONE',  ( 4.596983092540343816E-18, 1.000000000000000000, -0.000000000000000000 ) ) ;
#367 =( GEOMETRIC_REPRESENTATION_CONTEXT ( 3 ) GLOBAL_UNCERTAINTY_ASSIGNED_CONTEXT ( ( #308 ) ) GLOBAL_UNIT_ASSIGNED_CONTEXT ( ( #280, #94, #61 ) ) REPRESENTATION_CONTEXT ( 'NONE', 'WORKASPACE' ) );
#368 = DIRECTION ( 'NONE',  ( -1.000000000000000000, 0.000000000000000000, 0.000000000000000000 ) ) ;
#369 = ORIENTED_EDGE ( 'NONE', *, *, #260, .F. ) ;
#370 = DIRECTION ( 'NONE',  ( -1.000000000000000000, 0.000000000000000000, 0.000000000000000000 ) ) ;
#371 = EDGE_LOOP ( 'NONE', ( #60, #130, #250 ) ) ;
#372 = PRODUCT_DEFINITION ( 'UNKNOWN', '', #140, #179 ) ;
#373 = CIRCLE ( 'NONE', #56, 20.00000000000000000 ) ;
#374 = DIRECTION ( 'NONE',  ( -0.000000000000000000, 0.000000000000000000, -1.000000000000000000 ) ) ;
#375 = ORIENTED_EDGE ( 'NONE', *, *, #261, .F. ) ;
#376 = LINE ( 'NONE', #89, #266 ) ;
#377 = ORIENTED_EDGE ( 'NONE', *, *, #186, .T. ) ;
#378 = ORIENTED_EDGE ( 'NONE', *, *, #97, .T. ) ;
#379 = PERSON_AND_ORGANIZATION ( #76, #184 ) ;
#380 = CIRCLE ( 'NONE', #31, 18.46153846153845990 ) ;
#381 = AXIS2_PLACEMENT_3D ( 'NONE', #313, #122, #124 ) ;
#382 = ORIENTED_EDGE ( 'NONE', *, *, #19, .F. ) ;
#383 = APPROVAL_ROLE ( '' ) ;
#384 = DIRECTION ( 'NONE',  ( 4.596983092540343816E-18, 1.000000000000000000, -0.000000000000000000 ) ) ;
#385 = CALENDAR_DATE ( 2024, 18, 7 ) ;
#386 = DIRECTION ( 'NONE',  ( 1.000000000000000000, 0.000000000000000000, 1.224646799147353454E-16 ) ) ;
#387 = CC_DESIGN_PERSON_AND_ORGANIZATION_ASSIGNMENT ( #267, #323, ( #45 ) ) ;
#388 = ORIENTED_EDGE ( 'NONE', *, *, #317, .T. ) ;
#389 = EDGE_CURVE ( 'NONE', #160, #154, #32, .T. ) ;
#390 = VERTEX_POINT ( 'NONE', #339 ) ;
#391 = DIRECTION ( 'NONE',  ( -1.000000000000000000, 0.000000000000000000, 0.000000000000000000 ) ) ;
#392 = DIRECTION ( 'NONE',  ( 1.000000000000000000, -4.596983092540343816E-18, 0.000000000000000000 ) ) ;
#393 = CIRCLE ( 'NONE', #265, 27.99999999999999645 ) ;
#394 = FACE_OUTER_BOUND ( 'NONE', #322, .T. ) ;
#395 = CARTESIAN_POINT ( 'NONE',  ( 9.236488298952508525E-16, 0.000000000000000000, 0.000000000000000000 ) ) ;
#396 = EDGE_CURVE ( 'NONE', #248, #30, #33, .T. ) ;
#397 = CARTESIAN_POINT ( 'NONE',  ( -19.99999999999999645, 9.193966185080686399E-17, 0.000000000000000000 ) ) ;
#398 = CIRCLE ( 'NONE', #218, 3.999999999999996447 ) ;
#399 = APPROVAL_PERSON_ORGANIZATION ( #109, #168, #73 ) ;
#400 = ORIENTED_EDGE ( 'NONE', *, *, #142, .F. ) ;
#401 = FACE_OUTER_BOUND ( 'NONE', #371, .T. ) ;
#402 = ORIENTED_EDGE ( 'NONE', *, *, #330, .F. ) ;
#403 = EDGE_CURVE ( 'NONE', #405, #222, #363, .T. ) ;
#404 = DIRECTION ( 'NONE',  ( 4.596983092540343816E-18, 1.000000000000000000, -0.000000000000000000 ) ) ;
#405 = VERTEX_POINT ( 'NONE', #318 ) ;
#406 = AXIS2_PLACEMENT_3D ( 'NONE', #297, #361, #77 ) ;
#407 = AXIS2_PLACEMENT_3D ( 'NONE', #358, #200, #170 ) ;
#408 = DIRECTION ( 'NONE',  ( 0.000000000000000000, 0.000000000000000000, 1.000000000000000000 ) ) ;
#409 = EDGE_LOOP ( 'NONE', ( #281, #285, #187 ) ) ;
#410 = MECHANICAL_CONTEXT ( 'NONE', #75, 'mechanical' ) ;
#411 = ORIENTED_EDGE ( 'NONE', *, *, #188, .T. ) ;
ENDSEC;
END-ISO-10303-21;
