ISO-10303-21;
HEADER;
FILE_DESCRIPTION (( 'STEP AP203' ),
    '1' );
FILE_NAME ('3D_GG4062_6 x16_188769900.STEP',
    '2024-11-05T11:51:24',
    ( '' ),
    ( '' ),
    'SwSTEP 2.0',
    'SolidWorks 2023',
    '' );
FILE_SCHEMA (( 'CONFIG_CONTROL_DESIGN' ));
ENDSEC;

DATA;
#1 = AXIS2_PLACEMENT_3D ( 'NONE', #280, #225, #117 ) ;
#2 = DIRECTION ( 'NONE',  ( -1.000000000000000000, -0.000000000000000000, -0.000000000000000000 ) ) ;
#3 = CARTESIAN_POINT ( 'NONE',  ( -3.750000000000000000, 0.000000000000000000, 0.000000000000000000 ) ) ;
#4 = EDGE_CURVE ( 'NONE', #151, #207, #133, .T. ) ;
#5 = CARTESIAN_POINT ( 'NONE',  ( -8.000000000000000000, 0.000000000000000000, 0.000000000000000000 ) ) ;
#6 = DIRECTION ( 'NONE',  ( 1.000000000000000000, 0.000000000000000000, 0.000000000000000000 ) ) ;
#7 = VECTOR ( 'NONE', #163, 1000.000000000000114 ) ;
#8 = CC_DESIGN_PERSON_AND_ORGANIZATION_ASSIGNMENT ( #48, #78, ( #30 ) ) ;
#9 = COORDINATED_UNIVERSAL_TIME_OFFSET ( 1, 0, .AHEAD. ) ;
#10 =( NAMED_UNIT ( * ) PLANE_ANGLE_UNIT ( ) SI_UNIT ( $, .RADIAN. ) );
#11 = ORIENTED_EDGE ( 'NONE', *, *, #255, .T. ) ;
#12 = PERSON_AND_ORGANIZATION_ROLE ( 'creator' ) ;
#13 = VERTEX_POINT ( 'NONE', #21 ) ;
#14 = AXIS2_PLACEMENT_3D ( 'NONE', #270, #136, #238 ) ;
#15 = LOCAL_TIME ( 12, 51, 24.00000000000000000, #91 ) ;
#16 = LINE ( 'NONE', #229, #138 ) ;
#17 = EDGE_LOOP ( 'NONE', ( #187, #271 ) ) ;
#18 = ORIENTED_EDGE ( 'NONE', *, *, #301, .F. ) ;
#19 = APPROVAL_ROLE ( '' ) ;
#20 = FACE_OUTER_BOUND ( 'NONE', #347, .T. ) ;
#21 = CARTESIAN_POINT ( 'NONE',  ( -3.750000000000000000, 3.980102097228897738E-16, -3.250000000000000000 ) ) ;
#22 = FACE_BOUND ( 'NONE', #39, .T. ) ;
#23 = ADVANCED_FACE ( 'NONE', ( #131, #22 ), #324, .F. ) ;
#24 = CIRCLE ( 'NONE', #235, 3.250000000000000000 ) ;
#25 = CARTESIAN_POINT ( 'NONE',  ( 3.750000000000000000, 0.000000000000000000, 0.000000000000000000 ) ) ;
#26 = CYLINDRICAL_SURFACE ( 'NONE', #14, 3.250000000000000000 ) ;
#27 = PRODUCT_DEFINITION_SHAPE ( 'NONE', 'NONE',  #98 ) ;
#28 = CYLINDRICAL_SURFACE ( 'NONE', #1, 2.750000000000000444 ) ;
#29 = CIRCLE ( 'NONE', #333, 2.750000000000000000 ) ;
#30 = SECURITY_CLASSIFICATION ( '', '', #265 ) ;
#31 = CARTESIAN_POINT ( 'NONE',  ( -8.000000000000000000, 3.367778697655221505E-16, -2.750000000000000000 ) ) ;
#32 = FACE_OUTER_BOUND ( 'NONE', #67, .T. ) ;
#33 = DIRECTION ( 'NONE',  ( -1.000000000000000000, -0.000000000000000000, -0.000000000000000000 ) ) ;
#34 = CC_DESIGN_PERSON_AND_ORGANIZATION_ASSIGNMENT ( #61, #12, ( #98 ) ) ;
#35 = CARTESIAN_POINT ( 'NONE',  ( -8.000000000000000000, 0.000000000000000000, 2.750000000000000444 ) ) ;
#36 = AXIS2_PLACEMENT_3D ( 'NONE', #3, #336, #145 ) ;
#37 = DIRECTION ( 'NONE',  ( -1.000000000000000000, -0.000000000000000000, -0.000000000000000000 ) ) ;
#38 = VERTEX_POINT ( 'NONE', #210 ) ;
#39 = EDGE_LOOP ( 'NONE', ( #41, #260 ) ) ;
#40 = DIRECTION ( 'NONE',  ( 0.000000000000000000, 0.000000000000000000, 1.000000000000000000 ) ) ;
#41 = ORIENTED_EDGE ( 'NONE', *, *, #54, .T. ) ;
#42 = ORIENTED_EDGE ( 'NONE', *, *, #249, .T. ) ;
#43 = ORIENTED_EDGE ( 'NONE', *, *, #249, .F. ) ;
#44 = DIRECTION ( 'NONE',  ( 0.000000000000000000, 0.000000000000000000, 1.000000000000000000 ) ) ;
#45 = CIRCLE ( 'NONE', #313, 2.750000000000000000 ) ;
#46 = CARTESIAN_POINT ( 'NONE',  ( -3.750000000000000000, 0.000000000000000000, 3.250000000000000000 ) ) ;
#47 = CARTESIAN_POINT ( 'NONE',  ( 8.000000000000000000, 0.000000000000000000, 0.000000000000000000 ) ) ;
#48 = PERSON_AND_ORGANIZATION ( #72, #350 ) ;
#49 = CARTESIAN_POINT ( 'NONE',  ( 3.750000000000000444, 3.250000000000000000, 0.000000000000000000 ) ) ;
#50 = CIRCLE ( 'NONE', #160, 2.750000000000000000 ) ;
#51 = CC_DESIGN_APPROVAL ( #272, ( #30 ) ) ;
#52 = ORIENTED_EDGE ( 'NONE', *, *, #318, .F. ) ;
#53 = CARTESIAN_POINT ( 'NONE',  ( -3.750000000000000000, 0.000000000000000000, 2.750000000000000888 ) ) ;
#54 = EDGE_CURVE ( 'NONE', #207, #151, #45, .T. ) ;
#55 = DIRECTION ( 'NONE',  ( -1.000000000000000000, -0.000000000000000000, -0.000000000000000000 ) ) ;
#56 = CONICAL_SURFACE ( 'NONE', #257, 73156.29644798811933, 1.557127814695450585 ) ;
#57 = DIRECTION ( 'NONE',  ( -1.000000000000000000, -0.000000000000000000, -0.000000000000000000 ) ) ;
#58 = ADVANCED_FACE ( 'NONE', ( #303 ), #304, .T. ) ;
#59 = DIRECTION ( 'NONE',  ( -1.000000000000000000, -0.000000000000000000, -0.000000000000000000 ) ) ;
#60 = DIRECTION ( 'NONE',  ( 0.000000000000000000, 0.000000000000000000, 1.000000000000000000 ) ) ;
#61 = PERSON_AND_ORGANIZATION ( #72, #350 ) ;
#62 = LOCAL_TIME ( 12, 51, 24.00000000000000000, #110 ) ;
#63 = DATE_TIME_ROLE ( 'creation_date' ) ;
#64 = VERTEX_POINT ( 'NONE', #216 ) ;
#65 = EDGE_CURVE ( 'NONE', #121, #189, #164, .T. ) ;
#66 = DIRECTION ( 'NONE',  ( -1.000000000000000000, -0.000000000000000000, -0.000000000000000000 ) ) ;
#67 = EDGE_LOOP ( 'NONE', ( #71, #147, #343, #43 ) ) ;
#68 = UNCERTAINTY_MEASURE_WITH_UNIT (LENGTH_MEASURE( 1.000000000000000082E-05 ), #321, 'distance_accuracy_value', 'NONE');
#69 = FACE_OUTER_BOUND ( 'NONE', #96, .T. ) ;
#70 = CC_DESIGN_PERSON_AND_ORGANIZATION_ASSIGNMENT ( #267, #183, ( #213 ) ) ;
#71 = ORIENTED_EDGE ( 'NONE', *, *, #262, .T. ) ;
#72 = PERSON ( 'UNSPECIFIED', 'UNSPECIFIED', 'UNSPECIFIED', ('UNSPECIFIED'), ('UNSPECIFIED'), ('UNSPECIFIED') ) ;
#73 = DIRECTION ( 'NONE',  ( 0.01366808649278402482, 0.000000000000000000, -0.9999065873428505391 ) ) ;
#74 = APPROVAL_DATE_TIME ( #126, #272 ) ;
#75 = PLANE ( 'NONE',  #246 ) ;
#76 = VECTOR ( 'NONE', #287, 1000.000000000000000 ) ;
#77 = ORIENTED_EDGE ( 'NONE', *, *, #277, .T. ) ;
#78 = PERSON_AND_ORGANIZATION_ROLE ( 'classification_officer' ) ;
#79 = CARTESIAN_POINT ( 'NONE',  ( -8.000000000000000000, 0.000000000000000000, 2.750000000000000000 ) ) ;
#80 = CARTESIAN_POINT ( 'NONE',  ( -8.000000000000000000, 0.000000000000000000, 0.000000000000000000 ) ) ;
#81 = CIRCLE ( 'NONE', #327, 2.750000000000000888 ) ;
#82 = DIRECTION ( 'NONE',  ( 0.000000000000000000, 0.000000000000000000, -1.000000000000000000 ) ) ;
#83 = ADVANCED_FACE ( 'NONE', ( #134 ), #26, .T. ) ;
#84 = CARTESIAN_POINT ( 'NONE',  ( -8.000000000000000000, 0.000000000000000000, 0.000000000000000000 ) ) ;
#85 = DIRECTION ( 'NONE',  ( 0.000000000000000000, 0.000000000000000000, -1.000000000000000000 ) ) ;
#86 = ADVANCED_FACE ( 'NONE', ( #325 ), #330, .T. ) ;
#87 = CARTESIAN_POINT ( 'NONE',  ( -8.000000000000000000, 0.000000000000000000, 3.250000000000000000 ) ) ;
#88 = CARTESIAN_POINT ( 'NONE',  ( -3.750000000000000000, 0.000000000000000000, 0.000000000000000000 ) ) ;
#89 = DATE_AND_TIME ( #120, #206 ) ;
#90 = MANIFOLD_SOLID_BREP ( 'Rotation1', #240 ) ;
#91 = COORDINATED_UNIVERSAL_TIME_OFFSET ( 1, 0, .AHEAD. ) ;
#92 = AXIS2_PLACEMENT_3D ( 'NONE', #195, #2, #308 ) ;
#93 = CC_DESIGN_DATE_AND_TIME_ASSIGNMENT ( #209, #105, ( #30 ) ) ;
#94 = ORIENTED_EDGE ( 'NONE', *, *, #284, .F. ) ;
#95 = COORDINATED_UNIVERSAL_TIME_OFFSET ( 1, 0, .AHEAD. ) ;
#96 = EDGE_LOOP ( 'NONE', ( #175, #256, #129 ) ) ;
#97 = ORIENTED_EDGE ( 'NONE', *, *, #292, .F. ) ;
#98 = PRODUCT_DEFINITION ( 'UNKNOWN', '', #213, #102 ) ;
#99 = PERSON_AND_ORGANIZATION ( #72, #350 ) ;
#100 = CIRCLE ( 'NONE', #127, 3.250000000000000000 ) ;
#101 = ORIENTED_EDGE ( 'NONE', *, *, #125, .T. ) ;
#102 = DESIGN_CONTEXT ( 'detailed design', #165, 'design' ) ;
#103 = DIRECTION ( 'NONE',  ( -1.000000000000000000, -0.000000000000000000, -0.000000000000000000 ) ) ;
#104 = CARTESIAN_POINT ( 'NONE',  ( 3.750000000000000000, 0.000000000000000000, 0.000000000000000000 ) ) ;
#105 = DATE_TIME_ROLE ( 'classification_date' ) ;
#106 = ORIENTED_EDGE ( 'NONE', *, *, #224, .T. ) ;
#107 = APPROVAL ( #252, 'UNSPECIFIED' ) ;
#108 = AXIS2_PLACEMENT_3D ( 'NONE', #356, #59, #311 ) ;
#109 = CC_DESIGN_SECURITY_CLASSIFICATION ( #30, ( #213 ) ) ;
#110 = COORDINATED_UNIVERSAL_TIME_OFFSET ( 1, 0, .AHEAD. ) ;
#111 = VERTEX_POINT ( 'NONE', #161 ) ;
#112 = CARTESIAN_POINT ( 'NONE',  ( -8.000000000000000000, 0.000000000000000000, 0.000000000000000000 ) ) ;
#113 = CYLINDRICAL_SURFACE ( 'NONE', #177, 2.750000000000000444 ) ;
#114 = AXIS2_PLACEMENT_3D ( 'NONE', #226, #40, #341 ) ;
#115 = DIRECTION ( 'NONE',  ( -1.000000000000000000, -0.000000000000000000, -0.000000000000000000 ) ) ;
#116 = DIRECTION ( 'NONE',  ( 1.000000000000000000, 0.000000000000000000, 0.000000000000000000 ) ) ;
#117 = DIRECTION ( 'NONE',  ( 0.000000000000000000, 0.000000000000000000, 1.000000000000000000 ) ) ;
#118 = CIRCLE ( 'NONE', #92, 2.750000000000000000 ) ;
#119 = CARTESIAN_POINT ( 'NONE',  ( 3.750000000000000000, 0.000000000000000000, 2.750000000000000000 ) ) ;
#120 = CALENDAR_DATE ( 2024, 5, 11 ) ;
#121 = VERTEX_POINT ( 'NONE', #79 ) ;
#122 = APPROVAL_STATUS ( 'not_yet_approved' ) ;
#123 = LOCAL_TIME ( 12, 51, 24.00000000000000000, #181 ) ;
#124 = ORIENTED_EDGE ( 'NONE', *, *, #337, .F. ) ;
#125 = EDGE_CURVE ( 'NONE', #111, #239, #153, .T. ) ;
#126 = DATE_AND_TIME ( #323, #62 ) ;
#127 = AXIS2_PLACEMENT_3D ( 'NONE', #88, #220, #199 ) ;
#128 = ORIENTED_EDGE ( 'NONE', *, *, #230, .F. ) ;
#129 = ORIENTED_EDGE ( 'NONE', *, *, #244, .F. ) ;
#130 = ADVANCED_FACE ( 'NONE', ( #266, #20 ), #75, .F. ) ;
#131 = FACE_OUTER_BOUND ( 'NONE', #17, .T. ) ;
#132 = ORIENTED_EDGE ( 'NONE', *, *, #262, .F. ) ;
#133 = CIRCLE ( 'NONE', #339, 2.750000000000000000 ) ;
#134 = FACE_OUTER_BOUND ( 'NONE', #242, .T. ) ;
#135 = CC_DESIGN_PERSON_AND_ORGANIZATION_ASSIGNMENT ( #176, #299, ( #213 ) ) ;
#136 = DIRECTION ( 'NONE',  ( -1.000000000000000000, -0.000000000000000000, -0.000000000000000000 ) ) ;
#137 = CARTESIAN_POINT ( 'NONE',  ( -8.000000000000000000, 0.000000000000000000, 0.000000000000000000 ) ) ;
#138 = VECTOR ( 'NONE', #37, 1000.000000000000000 ) ;
#139 = CARTESIAN_POINT ( 'NONE',  ( 3.750000000000000000, 0.000000000000000000, 3.250000000000000000 ) ) ;
#140 = LINE ( 'NONE', #35, #349 ) ;
#141 = FACE_OUTER_BOUND ( 'NONE', #228, .T. ) ;
#142 = AXIS2_PLACEMENT_3D ( 'NONE', #158, #190, #302 ) ;
#143 = CC_DESIGN_APPROVAL ( #198, ( #213 ) ) ;
#144 =( NAMED_UNIT ( * ) SI_UNIT ( $, .STERADIAN. ) SOLID_ANGLE_UNIT ( ) );
#145 = DIRECTION ( 'NONE',  ( 0.000000000000000000, 0.000000000000000000, 1.000000000000000000 ) ) ;
#146 = VERTEX_POINT ( 'NONE', #46 ) ;
#147 = ORIENTED_EDGE ( 'NONE', *, *, #352, .T. ) ;
#148 = CALENDAR_DATE ( 2024, 5, 11 ) ;
#149 = AXIS2_PLACEMENT_3D ( 'NONE', #84, #33, #60 ) ;
#150 = DIRECTION ( 'NONE',  ( 1.000000000000000000, 0.000000000000000000, 0.000000000000000000 ) ) ;
#151 = VERTEX_POINT ( 'NONE', #241 ) ;
#152 = ORIENTED_EDGE ( 'NONE', *, *, #326, .F. ) ;
#153 = LINE ( 'NONE', #47, #196 ) ;
#154 = EDGE_CURVE ( 'NONE', #234, #293, #289, .T. ) ;
#155 = ORIENTED_EDGE ( 'NONE', *, *, #352, .F. ) ;
#156 = DIRECTION ( 'NONE',  ( 1.000000000000000000, 0.000000000000000000, 0.000000000000000000 ) ) ;
#157 = PERSON_AND_ORGANIZATION ( #72, #350 ) ;
#158 = CARTESIAN_POINT ( 'NONE',  ( -8.000000000000000000, 0.000000000000000000, 0.000000000000000000 ) ) ;
#159 = ADVANCED_FACE ( 'NONE', ( #359 ), #113, .T. ) ;
#160 = AXIS2_PLACEMENT_3D ( 'NONE', #218, #115, #192 ) ;
#161 = CARTESIAN_POINT ( 'NONE',  ( 8.000000000000000000, 0.000000000000000000, 0.000000000000000000 ) ) ;
#162 = CARTESIAN_POINT ( 'NONE',  ( -8.000000000000000000, 0.000000000000000000, 2.750000000000000000 ) ) ;
#163 = DIRECTION ( 'NONE',  ( 0.01366808649278402482, 1.224532401635775132E-16, 0.9999065873428505391 ) ) ;
#164 = CIRCLE ( 'NONE', #251, 2.750000000000000000 ) ;
#165 = APPLICATION_CONTEXT ( 'configuration controlled 3d designs of mechanical parts and assemblies' ) ;
#166 = ADVANCED_FACE ( 'NONE', ( #141 ), #344, .F. ) ;
#167 = PLANE ( 'NONE',  #275 ) ;
#168 = DIRECTION ( 'NONE',  ( 0.000000000000000000, 0.000000000000000000, 1.000000000000000000 ) ) ;
#169 = DIRECTION ( 'NONE',  ( -1.000000000000000000, -0.000000000000000000, -0.000000000000000000 ) ) ;
#170 = CC_DESIGN_DATE_AND_TIME_ASSIGNMENT ( #314, #63, ( #98 ) ) ;
#171 = AXIS2_PLACEMENT_3D ( 'NONE', #307, #55, #334 ) ;
#172 = LINE ( 'NONE', #291, #76 ) ;
#173 = ORIENTED_EDGE ( 'NONE', *, *, #284, .T. ) ;
#174 = PERSON_AND_ORGANIZATION ( #72, #350 ) ;
#175 = ORIENTED_EDGE ( 'NONE', *, *, #125, .F. ) ;
#176 = PERSON_AND_ORGANIZATION ( #72, #350 ) ;
#177 = AXIS2_PLACEMENT_3D ( 'NONE', #137, #247, #279 ) ;
#178 = EDGE_LOOP ( 'NONE', ( #132, #18 ) ) ;
#179 = APPLICATION_PROTOCOL_DEFINITION ( 'international standard', 'config_control_design', 1994, #295 ) ;
#180 = ORIENTED_EDGE ( 'NONE', *, *, #154, .T. ) ;
#181 = COORDINATED_UNIVERSAL_TIME_OFFSET ( 1, 0, .AHEAD. ) ;
#182 = DIRECTION ( 'NONE',  ( -1.000000000000000000, -0.000000000000000000, -0.000000000000000000 ) ) ;
#183 = PERSON_AND_ORGANIZATION_ROLE ( 'design_supplier' ) ;
#184 = CIRCLE ( 'NONE', #171, 3.250000000000000000 ) ;
#185 = CARTESIAN_POINT ( 'NONE',  ( -3.750000000000000000, 2.750000000000000888, 0.000000000000000000 ) ) ;
#186 = APPROVAL_PERSON_ORGANIZATION ( #174, #198, #346 ) ;
#187 = ORIENTED_EDGE ( 'NONE', *, *, #188, .F. ) ;
#188 = EDGE_CURVE ( 'NONE', #293, #234, #24, .T. ) ;
#189 = VERTEX_POINT ( 'NONE', #31 ) ;
#190 = DIRECTION ( 'NONE',  ( -1.000000000000000000, -0.000000000000000000, -0.000000000000000000 ) ) ;
#191 = CIRCLE ( 'NONE', #36, 2.750000000000000888 ) ;
#192 = DIRECTION ( 'NONE',  ( 0.000000000000000000, 0.000000000000000000, 1.000000000000000000 ) ) ;
#193 = CARTESIAN_POINT ( 'NONE',  ( 8.000000000000000000, 0.000000000000000000, 0.000000000000000000 ) ) ;
#194 = ADVANCED_FACE ( 'NONE', ( #250 ), #167, .F. ) ;
#195 = CARTESIAN_POINT ( 'NONE',  ( 8.037590749306932736, 0.000000000000000000, 0.000000000000000000 ) ) ;
#196 = VECTOR ( 'NONE', #73, 1000.000000000000114 ) ;
#197 = DIRECTION ( 'NONE',  ( 0.000000000000000000, 0.000000000000000000, 1.000000000000000000 ) ) ;
#198 = APPROVAL ( #122, 'UNSPECIFIED' ) ;
#199 = DIRECTION ( 'NONE',  ( 0.000000000000000000, 0.000000000000000000, 1.000000000000000000 ) ) ;
#200 = APPROVAL_ROLE ( '' ) ;
#201 = CALENDAR_DATE ( 2024, 5, 11 ) ;
#202 = ORIENTED_EDGE ( 'NONE', *, *, #255, .F. ) ;
#203 = DATE_AND_TIME ( #148, #236 ) ;
#204 = EDGE_LOOP ( 'NONE', ( #11, #261, #317, #94 ) ) ;
#205 = CARTESIAN_POINT ( 'NONE',  ( -8.000000000000000000, 0.000000000000000000, 0.000000000000000000 ) ) ;
#206 = LOCAL_TIME ( 12, 51, 24.00000000000000000, #9 ) ;
#207 = VERTEX_POINT ( 'NONE', #119 ) ;
#208 = ORIENTED_EDGE ( 'NONE', *, *, #188, .T. ) ;
#209 = DATE_AND_TIME ( #296, #123 ) ;
#210 = CARTESIAN_POINT ( 'NONE',  ( -3.750000000000000000, 3.367778697655222491E-16, -2.750000000000000888 ) ) ;
#211 = AXIS2_PLACEMENT_3D ( 'NONE', #49, #264, #354 ) ;
#212 = DIRECTION ( 'NONE',  ( 0.000000000000000000, 0.000000000000000000, 1.000000000000000000 ) ) ;
#213 = PRODUCT_DEFINITION_FORMATION_WITH_SPECIFIED_SOURCE ( 'ANY', '', #276, .NOT_KNOWN. ) ;
#214 = ADVANCED_FACE ( 'NONE', ( #32 ), #28, .T. ) ;
#215 = ORIENTED_EDGE ( 'NONE', *, *, #244, .T. ) ;
#216 = CARTESIAN_POINT ( 'NONE',  ( 8.037590749306932736, 0.000000000000000000, 2.750000000000000000 ) ) ;
#217 = ADVANCED_BREP_SHAPE_REPRESENTATION ( '3D_GG4062_6 x16_188769900', ( #90, #114 ), #355 ) ;
#218 = CARTESIAN_POINT ( 'NONE',  ( 8.037590749306932736, 0.000000000000000000, 0.000000000000000000 ) ) ;
#219 = VECTOR ( 'NONE', #169, 1000.000000000000000 ) ;
#220 = DIRECTION ( 'NONE',  ( -1.000000000000000000, -0.000000000000000000, -0.000000000000000000 ) ) ;
#221 = ADVANCED_FACE ( 'NONE', ( #223 ), #340, .T. ) ;
#222 = CARTESIAN_POINT ( 'NONE',  ( -3.750000000000000000, 0.000000000000000000, 0.000000000000000000 ) ) ;
#223 = FACE_OUTER_BOUND ( 'NONE', #204, .T. ) ;
#224 = EDGE_CURVE ( 'NONE', #146, #13, #100, .T. ) ;
#225 = DIRECTION ( 'NONE',  ( -1.000000000000000000, -0.000000000000000000, -0.000000000000000000 ) ) ;
#226 = CARTESIAN_POINT ( 'NONE',  ( 0.000000000000000000, 0.000000000000000000, 0.000000000000000000 ) ) ;
#227 = APPLICATION_PROTOCOL_DEFINITION ( 'international standard', 'config_control_design', 1994, #165 ) ;
#228 = EDGE_LOOP ( 'NONE', ( #97, #101, #202 ) ) ;
#229 = CARTESIAN_POINT ( 'NONE',  ( -8.000000000000000000, 3.367778697655221012E-16, -2.750000000000000000 ) ) ;
#230 = EDGE_CURVE ( 'NONE', #293, #146, #338, .T. ) ;
#231 = ORIENTED_EDGE ( 'NONE', *, *, #301, .T. ) ;
#232 = DIRECTION ( 'NONE',  ( -1.000000000000000000, -0.000000000000000000, -0.000000000000000000 ) ) ;
#233 = MECHANICAL_CONTEXT ( 'NONE', #295, 'mechanical' ) ;
#234 = VERTEX_POINT ( 'NONE', #273 ) ;
#235 = AXIS2_PLACEMENT_3D ( 'NONE', #306, #274, #168 ) ;
#236 = LOCAL_TIME ( 12, 51, 24.00000000000000000, #95 ) ;
#237 = ORIENTED_EDGE ( 'NONE', *, *, #337, .T. ) ;
#238 = DIRECTION ( 'NONE',  ( 0.000000000000000000, 0.000000000000000000, 1.000000000000000000 ) ) ;
#239 = VERTEX_POINT ( 'NONE', #278 ) ;
#240 = CLOSED_SHELL ( 'NONE', ( #331, #221, #86, #214, #194, #159, #130, #83, #23, #58, #166 ) ) ;
#241 = CARTESIAN_POINT ( 'NONE',  ( 3.750000000000000000, 3.367778697655221012E-16, -2.750000000000000000 ) ) ;
#242 = EDGE_LOOP ( 'NONE', ( #52, #180, #353, #315 ) ) ;
#243 = DIRECTION ( 'NONE',  ( -1.000000000000000000, -0.000000000000000000, -0.000000000000000000 ) ) ;
#244 = EDGE_CURVE ( 'NONE', #239, #64, #118, .T. ) ;
#245 = CARTESIAN_POINT ( 'NONE',  ( 1008.000000000000000, 0.000000000000000000, 0.000000000000000000 ) ) ;
#246 = AXIS2_PLACEMENT_3D ( 'NONE', #185, #156, #300 ) ;
#247 = DIRECTION ( 'NONE',  ( -1.000000000000000000, -0.000000000000000000, -0.000000000000000000 ) ) ;
#248 = LINE ( 'NONE', #193, #7 ) ;
#249 = EDGE_CURVE ( 'NONE', #283, #121, #140, .T. ) ;
#250 = FACE_OUTER_BOUND ( 'NONE', #328, .T. ) ;
#251 = AXIS2_PLACEMENT_3D ( 'NONE', #112, #297, #332 ) ;
#252 = APPROVAL_STATUS ( 'not_yet_approved' ) ;
#253 = CARTESIAN_POINT ( 'NONE',  ( 1008.000000000000000, 0.000000000000000000, 0.000000000000000000 ) ) ;
#254 = ORIENTED_EDGE ( 'NONE', *, *, #65, .T. ) ;
#255 = EDGE_CURVE ( 'NONE', #64, #239, #50, .T. ) ;
#256 = ORIENTED_EDGE ( 'NONE', *, *, #292, .T. ) ;
#257 = AXIS2_PLACEMENT_3D ( 'NONE', #253, #150, #319 ) ;
#258 = APPROVAL_PERSON_ORGANIZATION ( #157, #272, #19 ) ;
#259 = CARTESIAN_POINT ( 'NONE',  ( -8.000000000000000000, 3.980102097228897738E-16, -3.250000000000000000 ) ) ;
#260 = ORIENTED_EDGE ( 'NONE', *, *, #4, .T. ) ;
#261 = ORIENTED_EDGE ( 'NONE', *, *, #326, .T. ) ;
#262 = EDGE_CURVE ( 'NONE', #283, #38, #81, .T. ) ;
#263 = EDGE_LOOP ( 'NONE', ( #208, #348, #268, #128 ) ) ;
#264 = DIRECTION ( 'NONE',  ( -1.000000000000000000, 0.000000000000000000, -0.000000000000000000 ) ) ;
#265 = SECURITY_CLASSIFICATION_LEVEL ( 'unclassified' ) ;
#266 = FACE_BOUND ( 'NONE', #178, .T. ) ;
#267 = PERSON_AND_ORGANIZATION ( #72, #350 ) ;
#268 = ORIENTED_EDGE ( 'NONE', *, *, #224, .F. ) ;
#269 = SHAPE_DEFINITION_REPRESENTATION ( #27, #217 ) ;
#270 = CARTESIAN_POINT ( 'NONE',  ( -8.000000000000000000, 0.000000000000000000, 0.000000000000000000 ) ) ;
#271 = ORIENTED_EDGE ( 'NONE', *, *, #154, .F. ) ;
#272 = APPROVAL ( #329, 'UNSPECIFIED' ) ;
#273 = CARTESIAN_POINT ( 'NONE',  ( 3.750000000000000000, 3.980102097228897738E-16, -3.250000000000000000 ) ) ;
#274 = DIRECTION ( 'NONE',  ( -1.000000000000000000, -0.000000000000000000, -0.000000000000000000 ) ) ;
#275 = AXIS2_PLACEMENT_3D ( 'NONE', #5, #6, #82 ) ;
#276 = PRODUCT ( '3D_GG4062_6 x16_188769900', '3D_GG4062_6 x16_188769900', '', ( #233 ) ) ;
#277 = EDGE_CURVE ( 'NONE', #13, #146, #184, .T. ) ;
#278 = CARTESIAN_POINT ( 'NONE',  ( 8.037590749306932736, 3.367778697655221012E-16, -2.750000000000000000 ) ) ;
#279 = DIRECTION ( 'NONE',  ( 0.000000000000000000, 0.000000000000000000, 1.000000000000000000 ) ) ;
#280 = CARTESIAN_POINT ( 'NONE',  ( -8.000000000000000000, 0.000000000000000000, 0.000000000000000000 ) ) ;
#281 = VECTOR ( 'NONE', #335, 1000.000000000000000 ) ;
#282 = LINE ( 'NONE', #259, #298 ) ;
#283 = VERTEX_POINT ( 'NONE', #53 ) ;
#284 = EDGE_CURVE ( 'NONE', #64, #207, #310, .T. ) ;
#285 = DIRECTION ( 'NONE',  ( 0.000000000000000000, 0.000000000000000000, 1.000000000000000000 ) ) ;
#286 = ORIENTED_EDGE ( 'NONE', *, *, #4, .F. ) ;
#287 = DIRECTION ( 'NONE',  ( -1.000000000000000000, -0.000000000000000000, -0.000000000000000000 ) ) ;
#288 = EDGE_LOOP ( 'NONE', ( #155, #231, #42, #124 ) ) ;
#289 = CIRCLE ( 'NONE', #108, 3.250000000000000000 ) ;
#290 = APPROVAL_PERSON_ORGANIZATION ( #342, #107, #200 ) ;
#291 = CARTESIAN_POINT ( 'NONE',  ( -8.000000000000000000, 3.367778697655221505E-16, -2.750000000000000444 ) ) ;
#292 = EDGE_CURVE ( 'NONE', #111, #64, #248, .T. ) ;
#293 = VERTEX_POINT ( 'NONE', #139 ) ;
#294 = PERSON_AND_ORGANIZATION_ROLE ( 'design_owner' ) ;
#295 = APPLICATION_CONTEXT ( 'configuration controlled 3d designs of mechanical parts and assemblies' ) ;
#296 = CALENDAR_DATE ( 2024, 5, 11 ) ;
#297 = DIRECTION ( 'NONE',  ( -1.000000000000000000, -0.000000000000000000, -0.000000000000000000 ) ) ;
#298 = VECTOR ( 'NONE', #232, 1000.000000000000000 ) ;
#299 = PERSON_AND_ORGANIZATION_ROLE ( 'creator' ) ;
#300 = DIRECTION ( 'NONE',  ( 0.000000000000000000, 0.000000000000000000, -1.000000000000000000 ) ) ;
#301 = EDGE_CURVE ( 'NONE', #38, #283, #191, .T. ) ;
#302 = DIRECTION ( 'NONE',  ( 0.000000000000000000, 0.000000000000000000, 1.000000000000000000 ) ) ;
#303 = FACE_OUTER_BOUND ( 'NONE', #322, .T. ) ;
#304 = CYLINDRICAL_SURFACE ( 'NONE', #142, 2.750000000000000000 ) ;
#305 = PRODUCT_RELATED_PRODUCT_CATEGORY ( 'detail', '', ( #276 ) ) ;
#306 = CARTESIAN_POINT ( 'NONE',  ( 3.750000000000000000, 0.000000000000000000, 0.000000000000000000 ) ) ;
#307 = CARTESIAN_POINT ( 'NONE',  ( -3.750000000000000000, 0.000000000000000000, 0.000000000000000000 ) ) ;
#308 = DIRECTION ( 'NONE',  ( 0.000000000000000000, 0.000000000000000000, 1.000000000000000000 ) ) ;
#309 = AXIS2_PLACEMENT_3D ( 'NONE', #245, #116, #85 ) ;
#310 = LINE ( 'NONE', #162, #281 ) ;
#311 = DIRECTION ( 'NONE',  ( 0.000000000000000000, 0.000000000000000000, 1.000000000000000000 ) ) ;
#312 = APPROVAL_DATE_TIME ( #89, #107 ) ;
#313 = AXIS2_PLACEMENT_3D ( 'NONE', #25, #351, #44 ) ;
#314 = DATE_AND_TIME ( #201, #15 ) ;
#315 = ORIENTED_EDGE ( 'NONE', *, *, #277, .F. ) ;
#316 = APPROVAL_DATE_TIME ( #203, #198 ) ;
#317 = ORIENTED_EDGE ( 'NONE', *, *, #54, .F. ) ;
#318 = EDGE_CURVE ( 'NONE', #234, #13, #282, .T. ) ;
#319 = DIRECTION ( 'NONE',  ( 0.000000000000000000, 0.000000000000000000, -1.000000000000000000 ) ) ;
#320 = AXIS2_PLACEMENT_3D ( 'NONE', #80, #103, #212 ) ;
#321 =( LENGTH_UNIT ( ) NAMED_UNIT ( * ) SI_UNIT ( .MILLI., .METRE. ) );
#322 = EDGE_LOOP ( 'NONE', ( #152, #215, #173, #286 ) ) ;
#323 = CALENDAR_DATE ( 2024, 5, 11 ) ;
#324 = PLANE ( 'NONE',  #211 ) ;
#325 = FACE_OUTER_BOUND ( 'NONE', #263, .T. ) ;
#326 = EDGE_CURVE ( 'NONE', #239, #151, #16, .T. ) ;
#327 = AXIS2_PLACEMENT_3D ( 'NONE', #222, #57, #197 ) ;
#328 = EDGE_LOOP ( 'NONE', ( #254, #237 ) ) ;
#329 = APPROVAL_STATUS ( 'not_yet_approved' ) ;
#330 = CYLINDRICAL_SURFACE ( 'NONE', #320, 3.250000000000000000 ) ;
#331 = ADVANCED_FACE ( 'NONE', ( #69 ), #56, .F. ) ;
#332 = DIRECTION ( 'NONE',  ( 0.000000000000000000, 0.000000000000000000, 1.000000000000000000 ) ) ;
#333 = AXIS2_PLACEMENT_3D ( 'NONE', #205, #66, #285 ) ;
#334 = DIRECTION ( 'NONE',  ( 0.000000000000000000, 0.000000000000000000, 1.000000000000000000 ) ) ;
#335 = DIRECTION ( 'NONE',  ( -1.000000000000000000, -0.000000000000000000, -0.000000000000000000 ) ) ;
#336 = DIRECTION ( 'NONE',  ( -1.000000000000000000, -0.000000000000000000, -0.000000000000000000 ) ) ;
#337 = EDGE_CURVE ( 'NONE', #189, #121, #29, .T. ) ;
#338 = LINE ( 'NONE', #87, #219 ) ;
#339 = AXIS2_PLACEMENT_3D ( 'NONE', #104, #182, #358 ) ;
#340 = CYLINDRICAL_SURFACE ( 'NONE', #149, 2.750000000000000000 ) ;
#341 = DIRECTION ( 'NONE',  ( 1.000000000000000000, 0.000000000000000000, 0.000000000000000000 ) ) ;
#342 = PERSON_AND_ORGANIZATION ( #72, #350 ) ;
#343 = ORIENTED_EDGE ( 'NONE', *, *, #65, .F. ) ;
#344 = CONICAL_SURFACE ( 'NONE', #309, 73156.29644798811933, 1.557127814695450585 ) ;
#345 = CC_DESIGN_APPROVAL ( #107, ( #98 ) ) ;
#346 = APPROVAL_ROLE ( '' ) ;
#347 = EDGE_LOOP ( 'NONE', ( #106, #77 ) ) ;
#348 = ORIENTED_EDGE ( 'NONE', *, *, #318, .T. ) ;
#349 = VECTOR ( 'NONE', #243, 1000.000000000000000 ) ;
#350 = ORGANIZATION ( 'UNSPECIFIED', 'UNSPECIFIED', '' ) ;
#351 = DIRECTION ( 'NONE',  ( -1.000000000000000000, -0.000000000000000000, -0.000000000000000000 ) ) ;
#352 = EDGE_CURVE ( 'NONE', #38, #189, #172, .T. ) ;
#353 = ORIENTED_EDGE ( 'NONE', *, *, #230, .T. ) ;
#354 = DIRECTION ( 'NONE',  ( -0.000000000000000000, 0.000000000000000000, 1.000000000000000000 ) ) ;
#355 =( GEOMETRIC_REPRESENTATION_CONTEXT ( 3 ) GLOBAL_UNCERTAINTY_ASSIGNED_CONTEXT ( ( #68 ) ) GLOBAL_UNIT_ASSIGNED_CONTEXT ( ( #321, #10, #144 ) ) REPRESENTATION_CONTEXT ( 'NONE', 'WORKASPACE' ) );
#356 = CARTESIAN_POINT ( 'NONE',  ( 3.750000000000000000, 0.000000000000000000, 0.000000000000000000 ) ) ;
#357 = CC_DESIGN_PERSON_AND_ORGANIZATION_ASSIGNMENT ( #99, #294, ( #276 ) ) ;
#358 = DIRECTION ( 'NONE',  ( 0.000000000000000000, 0.000000000000000000, 1.000000000000000000 ) ) ;
#359 = FACE_OUTER_BOUND ( 'NONE', #288, .T. ) ;
ENDSEC;
END-ISO-10303-21;
