ISO-10303-21;
HEADER;
FILE_DESCRIPTION (( 'STEP AP203' ),
    '1' );
FILE_NAME ('3D_R365_42.4x2_173371114.STEP',
    '2024-07-16T06:17:16',
    ( '' ),
    ( '' ),
    'SwSTEP 2.0',
    'SolidWorks 2024',
    '' );
FILE_SCHEMA (( 'CONFIG_CONTROL_DESIGN' ));
ENDSEC;

DATA;
#1 = DATE_TIME_ROLE ( 'classification_date' ) ;
#2 = AXIS2_PLACEMENT_3D ( 'NONE', #409, #190, #33 ) ;
#3 = MECHANICAL_CONTEXT ( 'NONE', #67, 'mechanical' ) ;
#4 = AXIS2_PLACEMENT_3D ( 'NONE', #52, #405, #401 ) ;
#5 = ORIENTED_EDGE ( 'NONE', *, *, #65, .F. ) ;
#6 = CALENDAR_DATE ( 2024, 16, 7 ) ;
#7 = ORIENTED_EDGE ( 'NONE', *, *, #386, .T. ) ;
#8 = APPROVAL_DATE_TIME ( #37, #211 ) ;
#9 = ORIENTED_EDGE ( 'NONE', *, *, #233, .F. ) ;
#10 = DIRECTION ( 'NONE',  ( -1.224646799147353207E-16, 5.629680630014033300E-34, 1.000000000000000000 ) ) ;
#11 = AXIS2_PLACEMENT_3D ( 'NONE', #393, #58, #113 ) ;
#12 = APPROVAL_ROLE ( '' ) ;
#13 = LOCAL_TIME ( 8, 17, 16.00000000000000000, #370 ) ;
#14 = EDGE_LOOP ( 'NONE', ( #119, #242, #102, #261 ) ) ;
#15 = ADVANCED_FACE ( 'NONE', ( #183 ), #187, .F. ) ;
#16 = PRODUCT_DEFINITION_FORMATION_WITH_SPECIFIED_SOURCE ( 'ANY', '', #38, .NOT_KNOWN. ) ;
#17 = ORGANIZATION ( 'UNSPECIFIED', 'UNSPECIFIED', '' ) ;
#18 = ORIENTED_EDGE ( 'NONE', *, *, #263, .T. ) ;
#19 = DIRECTION ( 'NONE',  ( 1.000000000000000000, 0.000000000000000000, 1.224646799147354193E-16 ) ) ;
#20 = FACE_BOUND ( 'NONE', #49, .T. ) ;
#21 = DIRECTION ( 'NONE',  ( 1.000000000000000000, -4.596983092540343046E-18, 0.000000000000000000 ) ) ;
#22 = ADVANCED_FACE ( 'NONE', ( #241 ), #36, .F. ) ;
#23 = CARTESIAN_POINT ( 'NONE',  ( 9.277709026093936312E-16, 0.8966908581480304008, 0.000000000000000000 ) ) ;
#24 = EDGE_LOOP ( 'NONE', ( #292, #7, #5, #170 ) ) ;
#25 = FACE_OUTER_BOUND ( 'NONE', #182, .T. ) ;
#26 = DIRECTION ( 'NONE',  ( -1.000000000000000000, 0.000000000000000000, 0.000000000000000000 ) ) ;
#27 = DIRECTION ( 'NONE',  ( -1.000000000000000000, 0.000000000000000000, 0.000000000000000000 ) ) ;
#28 = ADVANCED_FACE ( 'NONE', ( #178 ), #332, .T. ) ;
#29 = SECURITY_CLASSIFICATION ( '', '', #358 ) ;
#30 = DESIGN_CONTEXT ( 'detailed design', #296, 'design' ) ;
#31 = DIRECTION ( 'NONE',  ( 4.596983092540343816E-18, 1.000000000000000000, -0.000000000000000000 ) ) ;
#32 = AXIS2_PLACEMENT_3D ( 'NONE', #171, #262, #390 ) ;
#33 = DIRECTION ( 'NONE',  ( -1.000000000000000000, 4.596983092540343816E-18, 0.000000000000000000 ) ) ;
#34 = ADVANCED_FACE ( 'NONE', ( #20, #25 ), #376, .T. ) ;
#35 = DIRECTION ( 'NONE',  ( -1.000000000000000000, 0.000000000000000000, 0.000000000000000000 ) ) ;
#36 = TOROIDAL_SURFACE ( 'NONE', #238, 16.83999999999999275, 2.360000000000002540 ) ;
#37 = DATE_AND_TIME ( #6, #226 ) ;
#38 = PRODUCT ( '3D_R365_42.4x2_173371114', '3D_R365_42.4x2_173371114', '', ( #3 ) ) ;
#39 = AXIS2_PLACEMENT_3D ( 'NONE', #381, #194, #384 ) ;
#40 = DATE_AND_TIME ( #360, #70 ) ;
#41 = CC_DESIGN_PERSON_AND_ORGANIZATION_ASSIGNMENT ( #317, #43, ( #16 ) ) ;
#42 = AXIS2_PLACEMENT_3D ( 'NONE', #23, #85, #274 ) ;
#43 = PERSON_AND_ORGANIZATION_ROLE ( 'design_supplier' ) ;
#44 = VERTEX_POINT ( 'NONE', #114 ) ;
#45 = ADVANCED_FACE ( 'NONE', ( #371 ), #289, .T. ) ;
#46 = ORIENTED_EDGE ( 'NONE', *, *, #316, .F. ) ;
#47 = DIRECTION ( 'NONE',  ( -1.000000000000000000, 0.000000000000000000, 0.000000000000000000 ) ) ;
#48 = AXIS2_PLACEMENT_3D ( 'NONE', #179, #369, #21 ) ;
#49 = EDGE_LOOP ( 'NONE', ( #408, #343 ) ) ;
#50 = SPHERICAL_SURFACE ( 'NONE', #121, 31.92000000000000526 ) ;
#51 = CC_DESIGN_APPROVAL ( #211, ( #16 ) ) ;
#52 = CARTESIAN_POINT ( 'NONE',  ( 0.000000000000000000, 0.8966908581480372842, 0.000000000000000000 ) ) ;
#53 = DIRECTION ( 'NONE',  ( 0.000000000000000000, 0.000000000000000000, 1.000000000000000000 ) ) ;
#54 = SPHERICAL_SURFACE ( 'NONE', #69, 29.92000000000000171 ) ;
#55 = APPROVAL ( #354, 'UNSPECIFIED' ) ;
#56 = DIRECTION ( 'NONE',  ( 0.000000000000000000, 0.000000000000000000, 1.000000000000000000 ) ) ;
#57 = ORIENTED_EDGE ( 'NONE', *, *, #277, .T. ) ;
#58 = DIRECTION ( 'NONE',  ( -0.000000000000000000, 0.000000000000000000, -1.000000000000000000 ) ) ;
#59 = EDGE_LOOP ( 'NONE', ( #172, #373, #57, #235 ) ) ;
#60 = ADVANCED_FACE ( 'NONE', ( #90 ), #54, .F. ) ;
#61 = CIRCLE ( 'NONE', #287, 4.360000000000002984 ) ;
#62 = CARTESIAN_POINT ( 'NONE',  ( 2.101271991753063858E-15, 11.00000000000000000, 0.000000000000000000 ) ) ;
#63 = DIRECTION ( 'NONE',  ( -1.000000000000000000, 0.000000000000000000, 0.000000000000000000 ) ) ;
#64 = CARTESIAN_POINT ( 'NONE',  ( -16.83999999999999275, 0.8966908581480373952, 0.000000000000000000 ) ) ;
#65 = EDGE_CURVE ( 'NONE', #133, #204, #348, .T. ) ;
#66 = DIRECTION ( 'NONE',  ( -1.000000000000000000, 5.646886315028669954E-18, 0.000000000000000000 ) ) ;
#67 = APPLICATION_CONTEXT ( 'configuration controlled 3d designs of mechanical parts and assemblies' ) ;
#68 = CARTESIAN_POINT ( 'NONE',  ( 1.387778780781445676E-14, 2817.965330118411202, 0.000000000000000000 ) ) ;
#69 = AXIS2_PLACEMENT_3D ( 'NONE', #180, #309, #26 ) ;
#70 = LOCAL_TIME ( 8, 17, 16.00000000000000000, #166 ) ;
#71 = DATE_AND_TIME ( #201, #378 ) ;
#72 = CIRCLE ( 'NONE', #2, 21.19999999999999574 ) ;
#73 = CARTESIAN_POINT ( 'NONE',  ( 9.436369614368234047E-16, 4.348097684763629900, 0.000000000000000000 ) ) ;
#74 = ORIENTED_EDGE ( 'NONE', *, *, #288, .F. ) ;
#75 = DIRECTION ( 'NONE',  ( 1.000000000000000000, 0.000000000000000000, 1.224646799147352714E-16 ) ) ;
#76 = EDGE_LOOP ( 'NONE', ( #151, #9, #230, #322 ) ) ;
#77 = EDGE_CURVE ( 'NONE', #359, #213, #147, .T. ) ;
#78 = EDGE_LOOP ( 'NONE', ( #291, #361, #232, #74 ) ) ;
#79 = CARTESIAN_POINT ( 'NONE',  ( 3.909072582878352051E-15, -20.92000000000000526, 0.000000000000000000 ) ) ;
#80 = CC_DESIGN_DATE_AND_TIME_ASSIGNMENT ( #40, #1, ( #29 ) ) ;
#81 = ORIENTED_EDGE ( 'NONE', *, *, #120, .F. ) ;
#82 = AXIS2_PLACEMENT_3D ( 'NONE', #342, #155, #217 ) ;
#83 = VERTEX_POINT ( 'NONE', #62 ) ;
#84 = DIRECTION ( 'NONE',  ( -1.224646799147353207E-16, 5.629680630014033300E-34, 1.000000000000000000 ) ) ;
#85 = DIRECTION ( 'NONE',  ( 4.596983092540343816E-18, 1.000000000000000000, -0.000000000000000000 ) ) ;
#86 = CARTESIAN_POINT ( 'NONE',  ( 3.909072582878352051E-15, -20.92000000000000526, 0.000000000000000000 ) ) ;
#87 = EDGE_LOOP ( 'NONE', ( #329, #200, #275 ) ) ;
#88 = CARTESIAN_POINT ( 'NONE',  ( -21.19999999999999574, 0.8966908581480305118, 0.000000000000000000 ) ) ;
#89 = VERTEX_POINT ( 'NONE', #250 ) ;
#90 = FACE_OUTER_BOUND ( 'NONE', #137, .T. ) ;
#91 = CARTESIAN_POINT ( 'NONE',  ( 9.436369614368234047E-16, 4.348097684763629900, 0.000000000000000000 ) ) ;
#92 = DIRECTION ( 'NONE',  ( -1.000000000000000000, 5.646886315028669954E-18, 0.000000000000000000 ) ) ;
#93 = DIRECTION ( 'NONE',  ( -0.000000000000000000, 0.000000000000000000, -1.000000000000000000 ) ) ;
#94 = AXIS2_PLACEMENT_3D ( 'NONE', #280, #95, #66 ) ;
#95 = DIRECTION ( 'NONE',  ( 4.596983092540343816E-18, 1.000000000000000000, -0.000000000000000000 ) ) ;
#96 = CC_DESIGN_PERSON_AND_ORGANIZATION_ASSIGNMENT ( #227, #286, ( #181 ) ) ;
#97 = DIRECTION ( 'NONE',  ( 4.596983092540343816E-18, 1.000000000000000000, -0.000000000000000000 ) ) ;
#98 = PERSON_AND_ORGANIZATION_ROLE ( 'design_owner' ) ;
#99 = AXIS2_PLACEMENT_3D ( 'NONE', #305, #368, #122 ) ;
#100 = AXIS2_PLACEMENT_3D ( 'NONE', #123, #132, #75 ) ;
#101 = PERSON_AND_ORGANIZATION ( #139, #17 ) ;
#102 = ORIENTED_EDGE ( 'NONE', *, *, #134, .T. ) ;
#103 = PERSON_AND_ORGANIZATION ( #139, #17 ) ;
#104 = ORIENTED_EDGE ( 'NONE', *, *, #203, .F. ) ;
#105 = EDGE_CURVE ( 'NONE', #173, #325, #106, .T. ) ;
#106 = CIRCLE ( 'NONE', #312, 19.19999999999999574 ) ;
#107 = PERSON_AND_ORGANIZATION ( #139, #17 ) ;
#108 = ORIENTED_EDGE ( 'NONE', *, *, #308, .F. ) ;
#109 = EDGE_LOOP ( 'NONE', ( #246, #210, #307, #356 ) ) ;
#110 = CARTESIAN_POINT ( 'NONE',  ( -18.28203193033380813, 2.764883544114270286, 0.000000000000000000 ) ) ;
#111 = CIRCLE ( 'NONE', #318, 19.50409288824382514 ) ;
#112 = SHAPE_DEFINITION_REPRESENTATION ( #314, #404 ) ;
#113 = DIRECTION ( 'NONE',  ( -1.000000000000000000, 0.000000000000000000, 0.000000000000000000 ) ) ;
#114 = CARTESIAN_POINT ( 'NONE',  ( 2.214542705482719169E-15, 8.999999999999998224, 0.000000000000000000 ) ) ;
#115 = DIRECTION ( 'NONE',  ( -1.000000000000000000, 5.114161190969361424E-18, 0.000000000000000000 ) ) ;
#116 = CARTESIAN_POINT ( 'NONE',  ( 0.000000000000000000, 0.8966908581480372842, 0.000000000000000000 ) ) ;
#117 = CARTESIAN_POINT ( 'NONE',  ( 9.236488298952508525E-16, 0.000000000000000000, 0.000000000000000000 ) ) ;
#118 = APPROVAL_DATE_TIME ( #403, #55 ) ;
#119 = ORIENTED_EDGE ( 'NONE', *, *, #386, .F. ) ;
#120 = EDGE_CURVE ( 'NONE', #394, #44, #223, .T. ) ;
#121 = AXIS2_PLACEMENT_3D ( 'NONE', #399, #306, #234 ) ;
#122 = DIRECTION ( 'NONE',  ( -1.000000000000000000, 0.000000000000000000, 0.000000000000000000 ) ) ;
#123 = CARTESIAN_POINT ( 'NONE',  ( 16.83999999999999275, 0.8966908581480372842, 2.062305209764142277E-15 ) ) ;
#124 = AXIS2_PLACEMENT_3D ( 'NONE', #73, #164, #324 ) ;
#125 = DIRECTION ( 'NONE',  ( 4.596983092540343816E-18, 1.000000000000000000, -0.000000000000000000 ) ) ;
#126 = DIRECTION ( 'NONE',  ( 4.596983092540343816E-18, 1.000000000000000000, -0.000000000000000000 ) ) ;
#127 = AXIS2_PLACEMENT_3D ( 'NONE', #313, #347, #63 ) ;
#128 = DIRECTION ( 'NONE',  ( 4.596983092540343816E-18, 1.000000000000000000, -0.000000000000000000 ) ) ;
#129 = EDGE_CURVE ( 'NONE', #204, #133, #328, .T. ) ;
#130 = CIRCLE ( 'NONE', #127, 31.92000000000000526 ) ;
#131 = COORDINATED_UNIVERSAL_TIME_OFFSET ( 1, 0, .AHEAD. ) ;
#132 = DIRECTION ( 'NONE',  ( -1.224646799147353207E-16, 5.629680630014033300E-34, 1.000000000000000000 ) ) ;
#133 = VERTEX_POINT ( 'NONE', #88 ) ;
#134 = EDGE_CURVE ( 'NONE', #392, #133, #212, .T. ) ;
#135 = CALENDAR_DATE ( 2024, 16, 7 ) ;
#136 = PERSON_AND_ORGANIZATION_ROLE ( 'creator' ) ;
#137 = EDGE_LOOP ( 'NONE', ( #81, #148, #228 ) ) ;
#138 = VECTOR ( 'NONE', #337, 1000.000000000000000 ) ;
#139 = PERSON ( 'UNSPECIFIED', 'UNSPECIFIED', 'UNSPECIFIED', ('UNSPECIFIED'), ('UNSPECIFIED'), ('UNSPECIFIED') ) ;
#140 = CARTESIAN_POINT ( 'NONE',  ( -19.19999999999999574, 0.8966908581480336204, 0.000000000000000000 ) ) ;
#141 = ORIENTED_EDGE ( 'NONE', *, *, #168, .F. ) ;
#142 = VERTEX_POINT ( 'NONE', #110 ) ;
#143 = CARTESIAN_POINT ( 'NONE',  ( -19.19999999999999574, 8.826207537677457415E-17, 0.000000000000000000 ) ) ;
#144 = CIRCLE ( 'NONE', #303, 18.28203193033381169 ) ;
#145 = DIRECTION ( 'NONE',  ( 4.596983092540343816E-18, 1.000000000000000000, -0.000000000000000000 ) ) ;
#146 = FACE_OUTER_BOUND ( 'NONE', #87, .T. ) ;
#147 = CIRCLE ( 'NONE', #82, 19.19999999999999574 ) ;
#148 = ORIENTED_EDGE ( 'NONE', *, *, #366, .F. ) ;
#149 = CARTESIAN_POINT ( 'NONE',  ( 19.20000000000000995, 2817.965330118411202, 2.351321854362917684E-15 ) ) ;
#150 = ADVANCED_FACE ( 'NONE', ( #402 ), #50, .T. ) ;
#151 = ORIENTED_EDGE ( 'NONE', *, *, #248, .F. ) ;
#152 = CC_DESIGN_PERSON_AND_ORGANIZATION_ASSIGNMENT ( #107, #285, ( #29 ) ) ;
#153 = CARTESIAN_POINT ( 'NONE',  ( -21.19999999999999574, 9.745604156185527411E-17, 0.000000000000000000 ) ) ;
#154 = AXIS2_PLACEMENT_3D ( 'NONE', #279, #244, #379 ) ;
#155 = DIRECTION ( 'NONE',  ( 4.596983092540343816E-18, 1.000000000000000000, -0.000000000000000000 ) ) ;
#156 = CARTESIAN_POINT ( 'NONE',  ( 19.19999999999999574, 0.8966908581480333984, 2.351321854362917684E-15 ) ) ;
#157 = APPROVAL_PERSON_ORGANIZATION ( #225, #175, #229 ) ;
#158 = CARTESIAN_POINT ( 'NONE',  ( 18.28203193033381524, 2.764883544114270286, 2.295112521451109117E-15 ) ) ;
#159 = DIRECTION ( 'NONE',  ( -1.000000000000000000, 0.000000000000000000, 0.000000000000000000 ) ) ;
#160 = CIRCLE ( 'NONE', #11, 2.360000000000001208 ) ;
#161 = LINE ( 'NONE', #186, #184 ) ;
#162 = APPROVAL_ROLE ( '' ) ;
#163 = ADVANCED_FACE ( 'NONE', ( #304 ), #271, .T. ) ;
#164 = DIRECTION ( 'NONE',  ( 4.596983092540343816E-18, 1.000000000000000000, -0.000000000000000000 ) ) ;
#165 = AXIS2_PLACEMENT_3D ( 'NONE', #282, #383, #411 ) ;
#166 = COORDINATED_UNIVERSAL_TIME_OFFSET ( 1, 0, .AHEAD. ) ;
#167 = AXIS2_PLACEMENT_3D ( 'NONE', #264, #365, #202 ) ;
#168 = EDGE_CURVE ( 'NONE', #266, #83, #193, .T. ) ;
#169 = DATE_AND_TIME ( #135, #410 ) ;
#170 = ORIENTED_EDGE ( 'NONE', *, *, #134, .F. ) ;
#171 = CARTESIAN_POINT ( 'NONE',  ( 0.000000000000000000, 0.000000000000000000, 0.000000000000000000 ) ) ;
#172 = ORIENTED_EDGE ( 'NONE', *, *, #77, .F. ) ;
#173 = VERTEX_POINT ( 'NONE', #140 ) ;
#174 = SPHERICAL_SURFACE ( 'NONE', #278, 31.92000000000000526 ) ;
#175 = APPROVAL ( #259, 'UNSPECIFIED' ) ;
#176 = CC_DESIGN_APPROVAL ( #175, ( #181 ) ) ;
#177 = CARTESIAN_POINT ( 'NONE',  ( -19.50409288824382514, 4.348097684763629900, 0.000000000000000000 ) ) ;
#178 = FACE_OUTER_BOUND ( 'NONE', #24, .T. ) ;
#179 = CARTESIAN_POINT ( 'NONE',  ( 9.236488298952508525E-16, 0.000000000000000000, 0.000000000000000000 ) ) ;
#180 = CARTESIAN_POINT ( 'NONE',  ( 3.909072582878352051E-15, -20.92000000000000526, 0.000000000000000000 ) ) ;
#181 = PRODUCT_DEFINITION ( 'UNKNOWN', '', #16, #30 ) ;
#182 = EDGE_LOOP ( 'NONE', ( #46, #272 ) ) ;
#183 = FACE_OUTER_BOUND ( 'NONE', #269, .T. ) ;
#184 = VECTOR ( 'NONE', #128, 1000.000000000000000 ) ;
#185 = VERTEX_POINT ( 'NONE', #177 ) ;
#186 = CARTESIAN_POINT ( 'NONE',  ( -19.19999999999998153, 2817.965330118411202, 0.000000000000000000 ) ) ;
#187 = TOROIDAL_SURFACE ( 'NONE', #4, 16.83999999999999275, 2.360000000000002540 ) ;
#188 = CARTESIAN_POINT ( 'NONE',  ( 0.000000000000000000, 0.8966908581480372842, 0.000000000000000000 ) ) ;
#189 = PRODUCT_RELATED_PRODUCT_CATEGORY ( 'detail', '', ( #38 ) ) ;
#190 = DIRECTION ( 'NONE',  ( 4.596983092540343816E-18, 1.000000000000000000, -0.000000000000000000 ) ) ;
#191 = CARTESIAN_POINT ( 'NONE',  ( 19.50409288824382514, 4.348097684763629900, 2.492406853389216615E-15 ) ) ;
#192 = CC_DESIGN_PERSON_AND_ORGANIZATION_ASSIGNMENT ( #231, #98, ( #38 ) ) ;
#193 = CIRCLE ( 'NONE', #310, 31.92000000000000526 ) ;
#194 = DIRECTION ( 'NONE',  ( 4.596983092540343816E-18, 1.000000000000000000, -0.000000000000000000 ) ) ;
#195 = COORDINATED_UNIVERSAL_TIME_OFFSET ( 1, 0, .AHEAD. ) ;
#196 = AXIS2_PLACEMENT_3D ( 'NONE', #188, #284, #349 ) ;
#197 = APPROVAL_DATE_TIME ( #71, #175 ) ;
#198 = ORIENTED_EDGE ( 'NONE', *, *, #203, .T. ) ;
#199 =( LENGTH_UNIT ( ) NAMED_UNIT ( * ) SI_UNIT ( .MILLI., .METRE. ) );
#200 = ORIENTED_EDGE ( 'NONE', *, *, #168, .T. ) ;
#201 = CALENDAR_DATE ( 2024, 16, 7 ) ;
#202 = DIRECTION ( 'NONE',  ( -1.000000000000000000, 0.000000000000000000, 0.000000000000000000 ) ) ;
#203 = EDGE_CURVE ( 'NONE', #325, #394, #339, .T. ) ;
#204 = VERTEX_POINT ( 'NONE', #335 ) ;
#205 = CIRCLE ( 'NONE', #382, 21.19999999999999574 ) ;
#206 = DIRECTION ( 'NONE',  ( 1.000000000000000000, 0.000000000000000000, 1.224646799147353207E-16 ) ) ;
#207 = CARTESIAN_POINT ( 'NONE',  ( 0.000000000000000000, 0.8966908581480372842, 0.000000000000000000 ) ) ;
#208 = VECTOR ( 'NONE', #31, 1000.000000000000000 ) ;
#209 = SPHERICAL_SURFACE ( 'NONE', #245, 29.92000000000000171 ) ;
#210 = ORIENTED_EDGE ( 'NONE', *, *, #129, .T. ) ;
#211 = APPROVAL ( #389, 'UNSPECIFIED' ) ;
#212 = LINE ( 'NONE', #327, #138 ) ;
#213 = VERTEX_POINT ( 'NONE', #143 ) ;
#214 = ORIENTED_EDGE ( 'NONE', *, *, #215, .F. ) ;
#215 = EDGE_CURVE ( 'NONE', #173, #142, #160, .T. ) ;
#216 = AXIS2_PLACEMENT_3D ( 'NONE', #68, #126, #159 ) ;
#217 = DIRECTION ( 'NONE',  ( 1.000000000000000000, -4.596983092540343046E-18, 0.000000000000000000 ) ) ;
#218 = DIRECTION ( 'NONE',  ( -1.000000000000000000, 0.000000000000000000, 0.000000000000000000 ) ) ;
#219 = AXIS2_PLACEMENT_3D ( 'NONE', #362, #301, #19 ) ;
#220 = CARTESIAN_POINT ( 'NONE',  ( 19.19999999999999574, -8.826207537677457415E-17, 2.351321854362917684E-15 ) ) ;
#221 = ADVANCED_FACE ( 'NONE', ( #239 ), #209, .F. ) ;
#222 = CYLINDRICAL_SURFACE ( 'NONE', #39, 19.19999999999999574 ) ;
#223 = CIRCLE ( 'NONE', #257, 29.92000000000000171 ) ;
#224 = COORDINATED_UNIVERSAL_TIME_OFFSET ( 1, 0, .AHEAD. ) ;
#225 = PERSON_AND_ORGANIZATION ( #139, #17 ) ;
#226 = LOCAL_TIME ( 8, 17, 16.00000000000000000, #195 ) ;
#227 = PERSON_AND_ORGANIZATION ( #139, #17 ) ;
#228 = ORIENTED_EDGE ( 'NONE', *, *, #308, .T. ) ;
#229 = APPROVAL_ROLE ( '' ) ;
#230 = ORIENTED_EDGE ( 'NONE', *, *, #293, .T. ) ;
#231 = PERSON_AND_ORGANIZATION ( #139, #17 ) ;
#232 = ORIENTED_EDGE ( 'NONE', *, *, #400, .F. ) ;
#233 = EDGE_CURVE ( 'NONE', #213, #359, #351, .T. ) ;
#234 = DIRECTION ( 'NONE',  ( -1.000000000000000000, 0.000000000000000000, 0.000000000000000000 ) ) ;
#235 = ORIENTED_EDGE ( 'NONE', *, *, #293, .F. ) ;
#236 = CIRCLE ( 'NONE', #94, 19.19999999999999574 ) ;
#237 = ORIENTED_EDGE ( 'NONE', *, *, #263, .F. ) ;
#238 = AXIS2_PLACEMENT_3D ( 'NONE', #207, #145, #302 ) ;
#239 = FACE_OUTER_BOUND ( 'NONE', #319, .T. ) ;
#240 = ADVANCED_FACE ( 'NONE', ( #146 ), #174, .T. ) ;
#241 = FACE_OUTER_BOUND ( 'NONE', #265, .T. ) ;
#242 = ORIENTED_EDGE ( 'NONE', *, *, #255, .T. ) ;
#243 = DIRECTION ( 'NONE',  ( 4.596983092540343816E-18, 1.000000000000000000, -0.000000000000000000 ) ) ;
#244 = DIRECTION ( 'NONE',  ( -4.596983092540343816E-18, -1.000000000000000000, 0.000000000000000000 ) ) ;
#245 = AXIS2_PLACEMENT_3D ( 'NONE', #79, #53, #295 ) ;
#246 = ORIENTED_EDGE ( 'NONE', *, *, #395, .F. ) ;
#247 = CYLINDRICAL_SURFACE ( 'NONE', #216, 19.19999999999999574 ) ;
#248 = EDGE_CURVE ( 'NONE', #359, #325, #372, .T. ) ;
#249 = APPROVAL_PERSON_ORGANIZATION ( #258, #211, #162 ) ;
#250 = CARTESIAN_POINT ( 'NONE',  ( 21.19999999999999574, -9.745604156185527411E-17, 2.596251214192388375E-15 ) ) ;
#251 = FACE_OUTER_BOUND ( 'NONE', #59, .T. ) ;
#252 = AXIS2_PLACEMENT_3D ( 'NONE', #254, #256, #27 ) ;
#253 = DIRECTION ( 'NONE',  ( 4.596983092540343816E-18, 1.000000000000000000, -0.000000000000000000 ) ) ;
#254 = CARTESIAN_POINT ( 'NONE',  ( 3.909072582878352051E-15, -20.92000000000000526, 0.000000000000000000 ) ) ;
#255 = EDGE_CURVE ( 'NONE', #89, #392, #205, .T. ) ;
#256 = DIRECTION ( 'NONE',  ( -0.000000000000000000, 0.000000000000000000, -1.000000000000000000 ) ) ;
#257 = AXIS2_PLACEMENT_3D ( 'NONE', #268, #10, #206 ) ;
#258 = PERSON_AND_ORGANIZATION ( #139, #17 ) ;
#259 = APPROVAL_STATUS ( 'not_yet_approved' ) ;
#260 = CC_DESIGN_SECURITY_CLASSIFICATION ( #29, ( #16 ) ) ;
#261 = ORIENTED_EDGE ( 'NONE', *, *, #129, .F. ) ;
#262 = DIRECTION ( 'NONE',  ( 0.000000000000000000, 0.000000000000000000, 1.000000000000000000 ) ) ;
#263 = EDGE_CURVE ( 'NONE', #394, #142, #267, .T. ) ;
#264 = CARTESIAN_POINT ( 'NONE',  ( 1.387778780781445676E-14, 2817.965330118411202, 0.000000000000000000 ) ) ;
#265 = EDGE_LOOP ( 'NONE', ( #104, #298, #300, #363 ) ) ;
#266 = VERTEX_POINT ( 'NONE', #191 ) ;
#267 = CIRCLE ( 'NONE', #165, 18.28203193033381169 ) ;
#268 = CARTESIAN_POINT ( 'NONE',  ( 3.909072582878352051E-15, -20.92000000000000526, 0.000000000000000000 ) ) ;
#269 = EDGE_LOOP ( 'NONE', ( #338, #198, #18, #214 ) ) ;
#270 = AXIS2_PLACEMENT_3D ( 'NONE', #397, #330, #115 ) ;
#271 = CYLINDRICAL_SURFACE ( 'NONE', #167, 21.19999999999999574 ) ;
#272 = ORIENTED_EDGE ( 'NONE', *, *, #255, .F. ) ;
#273 = DIRECTION ( 'NONE',  ( 4.596983092540343816E-18, 1.000000000000000000, -0.000000000000000000 ) ) ;
#274 = DIRECTION ( 'NONE',  ( -1.000000000000000000, 5.114161190969361424E-18, 0.000000000000000000 ) ) ;
#275 = ORIENTED_EDGE ( 'NONE', *, *, #374, .F. ) ;
#276 = CARTESIAN_POINT ( 'NONE',  ( 21.20000000000000995, 2817.965330118411202, 2.596251214192388375E-15 ) ) ;
#277 = EDGE_CURVE ( 'NONE', #325, #173, #236, .T. ) ;
#278 = AXIS2_PLACEMENT_3D ( 'NONE', #86, #56, #47 ) ;
#279 = CARTESIAN_POINT ( 'NONE',  ( -2.240018876628788608E-34, -4.872802078092763705E-17, 0.000000000000000000 ) ) ;
#280 = CARTESIAN_POINT ( 'NONE',  ( -1.729315986384809977E-32, 0.8966908581480335094, 0.000000000000000000 ) ) ;
#281 = CIRCLE ( 'NONE', #100, 4.360000000000002984 ) ;
#282 = CARTESIAN_POINT ( 'NONE',  ( 4.017951592079432860E-15, 2.764883544114270286, 0.000000000000000000 ) ) ;
#283 = ADVANCED_FACE ( 'NONE', ( #407 ), #364, .T. ) ;
#284 = DIRECTION ( 'NONE',  ( 4.596983092540343816E-18, 1.000000000000000000, -0.000000000000000000 ) ) ;
#285 = PERSON_AND_ORGANIZATION_ROLE ( 'classification_officer' ) ;
#286 = PERSON_AND_ORGANIZATION_ROLE ( 'creator' ) ;
#287 = AXIS2_PLACEMENT_3D ( 'NONE', #64, #93, #35 ) ;
#288 = EDGE_CURVE ( 'NONE', #133, #185, #61, .T. ) ;
#289 = TOROIDAL_SURFACE ( 'NONE', #297, 16.83999999999999275, 4.360000000000002984 ) ;
#290 =( NAMED_UNIT ( * ) PLANE_ANGLE_UNIT ( ) SI_UNIT ( $, .RADIAN. ) );
#291 = ORIENTED_EDGE ( 'NONE', *, *, #65, .T. ) ;
#292 = ORIENTED_EDGE ( 'NONE', *, *, #316, .T. ) ;
#293 = EDGE_CURVE ( 'NONE', #213, #173, #161, .T. ) ;
#294 = APPLICATION_PROTOCOL_DEFINITION ( 'international standard', 'config_control_design', 1994, #67 ) ;
#295 = DIRECTION ( 'NONE',  ( -1.000000000000000000, 0.000000000000000000, 0.000000000000000000 ) ) ;
#296 = APPLICATION_CONTEXT ( 'configuration controlled 3d designs of mechanical parts and assemblies' ) ;
#297 = AXIS2_PLACEMENT_3D ( 'NONE', #116, #125, #336 ) ;
#298 = ORIENTED_EDGE ( 'NONE', *, *, #105, .F. ) ;
#299 = DIRECTION ( 'NONE',  ( 1.000000000000000000, 0.000000000000000000, 1.224646799147353207E-16 ) ) ;
#300 = ORIENTED_EDGE ( 'NONE', *, *, #215, .T. ) ;
#301 = DIRECTION ( 'NONE',  ( -1.224646799147353207E-16, 5.629680630014033300E-34, 1.000000000000000000 ) ) ;
#302 = DIRECTION ( 'NONE',  ( -1.000000000000000000, 4.596983092540343816E-18, 0.000000000000000000 ) ) ;
#303 = AXIS2_PLACEMENT_3D ( 'NONE', #350, #253, #218 ) ;
#304 = FACE_OUTER_BOUND ( 'NONE', #14, .T. ) ;
#305 = CARTESIAN_POINT ( 'NONE',  ( 1.387778780781445676E-14, 2817.965330118411202, 0.000000000000000000 ) ) ;
#306 = DIRECTION ( 'NONE',  ( 0.000000000000000000, 0.000000000000000000, 1.000000000000000000 ) ) ;
#307 = ORIENTED_EDGE ( 'NONE', *, *, #288, .T. ) ;
#308 = EDGE_CURVE ( 'NONE', #142, #44, #355, .T. ) ;
#309 = DIRECTION ( 'NONE',  ( 0.000000000000000000, 0.000000000000000000, 1.000000000000000000 ) ) ;
#310 = AXIS2_PLACEMENT_3D ( 'NONE', #340, #84, #299 ) ;
#311 = LINE ( 'NONE', #276, #208 ) ;
#312 = AXIS2_PLACEMENT_3D ( 'NONE', #346, #380, #92 ) ;
#313 = CARTESIAN_POINT ( 'NONE',  ( 3.909072582878352051E-15, -20.92000000000000526, 0.000000000000000000 ) ) ;
#314 = PRODUCT_DEFINITION_SHAPE ( 'NONE', 'NONE',  #181 ) ;
#315 = APPLICATION_PROTOCOL_DEFINITION ( 'international standard', 'config_control_design', 1994, #296 ) ;
#316 = EDGE_CURVE ( 'NONE', #392, #89, #72, .T. ) ;
#317 = PERSON_AND_ORGANIZATION ( #139, #17 ) ;
#318 = AXIS2_PLACEMENT_3D ( 'NONE', #91, #97, #344 ) ;
#319 = EDGE_LOOP ( 'NONE', ( #237, #406, #108 ) ) ;
#320 = CC_DESIGN_APPROVAL ( #55, ( #29 ) ) ;
#321 = DATE_TIME_ROLE ( 'creation_date' ) ;
#322 = ORIENTED_EDGE ( 'NONE', *, *, #105, .T. ) ;
#323 = ADVANCED_FACE ( 'NONE', ( #251 ), #247, .F. ) ;
#324 = DIRECTION ( 'NONE',  ( -1.000000000000000000, 0.000000000000000000, 0.000000000000000000 ) ) ;
#325 = VERTEX_POINT ( 'NONE', #156 ) ;
#326 = CALENDAR_DATE ( 2024, 16, 7 ) ;
#327 = CARTESIAN_POINT ( 'NONE',  ( -21.19999999999998153, 2817.965330118411202, 0.000000000000000000 ) ) ;
#328 = CIRCLE ( 'NONE', #270, 21.19999999999999574 ) ;
#329 = ORIENTED_EDGE ( 'NONE', *, *, #400, .T. ) ;
#330 = DIRECTION ( 'NONE',  ( 4.596983092540343816E-18, 1.000000000000000000, -0.000000000000000000 ) ) ;
#331 = MANIFOLD_SOLID_BREP ( 'Wandung1', #367 ) ;
#332 = CYLINDRICAL_SURFACE ( 'NONE', #99, 21.19999999999999574 ) ;
#333 = CC_DESIGN_PERSON_AND_ORGANIZATION_ASSIGNMENT ( #103, #136, ( #16 ) ) ;
#334 = CIRCLE ( 'NONE', #124, 19.50409288824382514 ) ;
#335 = CARTESIAN_POINT ( 'NONE',  ( 21.19999999999999574, 0.8966908581480302898, 2.596251214192388375E-15 ) ) ;
#336 = DIRECTION ( 'NONE',  ( -1.000000000000000000, 4.596983092540343816E-18, 0.000000000000000000 ) ) ;
#337 = DIRECTION ( 'NONE',  ( 4.596983092540343816E-18, 1.000000000000000000, -0.000000000000000000 ) ) ;
#338 = ORIENTED_EDGE ( 'NONE', *, *, #277, .F. ) ;
#339 = CIRCLE ( 'NONE', #219, 2.360000000000001208 ) ;
#340 = CARTESIAN_POINT ( 'NONE',  ( 3.909072582878352051E-15, -20.92000000000000526, 0.000000000000000000 ) ) ;
#341 = ADVANCED_FACE ( 'NONE', ( #385 ), #222, .F. ) ;
#342 = CARTESIAN_POINT ( 'NONE',  ( 9.236488298952508525E-16, 0.000000000000000000, 0.000000000000000000 ) ) ;
#343 = ORIENTED_EDGE ( 'NONE', *, *, #77, .T. ) ;
#344 = DIRECTION ( 'NONE',  ( -1.000000000000000000, 0.000000000000000000, 0.000000000000000000 ) ) ;
#345 = UNCERTAINTY_MEASURE_WITH_UNIT (LENGTH_MEASURE( 1.000000000000000082E-05 ), #199, 'distance_accuracy_value', 'NONE');
#346 = CARTESIAN_POINT ( 'NONE',  ( -1.729315986384809977E-32, 0.8966908581480335094, 0.000000000000000000 ) ) ;
#347 = DIRECTION ( 'NONE',  ( -0.000000000000000000, 0.000000000000000000, -1.000000000000000000 ) ) ;
#348 = CIRCLE ( 'NONE', #42, 21.19999999999999574 ) ;
#349 = DIRECTION ( 'NONE',  ( -1.000000000000000000, 4.596983092540343816E-18, 0.000000000000000000 ) ) ;
#350 = CARTESIAN_POINT ( 'NONE',  ( 4.017951592079432860E-15, 2.764883544114270286, 0.000000000000000000 ) ) ;
#351 = CIRCLE ( 'NONE', #48, 19.19999999999999574 ) ;
#352 = EDGE_CURVE ( 'NONE', #266, #185, #111, .T. ) ;
#353 =( GEOMETRIC_REPRESENTATION_CONTEXT ( 3 ) GLOBAL_UNCERTAINTY_ASSIGNED_CONTEXT ( ( #345 ) ) GLOBAL_UNIT_ASSIGNED_CONTEXT ( ( #199, #290, #388 ) ) REPRESENTATION_CONTEXT ( 'NONE', 'WORKASPACE' ) );
#354 = APPROVAL_STATUS ( 'not_yet_approved' ) ;
#355 = CIRCLE ( 'NONE', #252, 29.92000000000000171 ) ;
#356 = ORIENTED_EDGE ( 'NONE', *, *, #352, .F. ) ;
#357 = CC_DESIGN_DATE_AND_TIME_ASSIGNMENT ( #169, #321, ( #181 ) ) ;
#358 = SECURITY_CLASSIFICATION_LEVEL ( 'unclassified' ) ;
#359 = VERTEX_POINT ( 'NONE', #220 ) ;
#360 = CALENDAR_DATE ( 2024, 16, 7 ) ;
#361 = ORIENTED_EDGE ( 'NONE', *, *, #395, .T. ) ;
#362 = CARTESIAN_POINT ( 'NONE',  ( 16.83999999999999275, 0.8966908581480372842, 2.062305209764142277E-15 ) ) ;
#363 = ORIENTED_EDGE ( 'NONE', *, *, #366, .T. ) ;
#364 = TOROIDAL_SURFACE ( 'NONE', #196, 16.83999999999999275, 4.360000000000002984 ) ;
#365 = DIRECTION ( 'NONE',  ( 4.596983092540343816E-18, 1.000000000000000000, -0.000000000000000000 ) ) ;
#366 = EDGE_CURVE ( 'NONE', #142, #394, #144, .T. ) ;
#367 = CLOSED_SHELL ( 'NONE', ( #221, #15, #323, #240, #45, #28, #34, #163, #283, #150, #341, #22, #60 ) ) ;
#368 = DIRECTION ( 'NONE',  ( 4.596983092540343816E-18, 1.000000000000000000, -0.000000000000000000 ) ) ;
#369 = DIRECTION ( 'NONE',  ( 4.596983092540343816E-18, 1.000000000000000000, -0.000000000000000000 ) ) ;
#370 = COORDINATED_UNIVERSAL_TIME_OFFSET ( 1, 0, .AHEAD. ) ;
#371 = FACE_OUTER_BOUND ( 'NONE', #78, .T. ) ;
#372 = LINE ( 'NONE', #149, #387 ) ;
#373 = ORIENTED_EDGE ( 'NONE', *, *, #248, .T. ) ;
#374 = EDGE_CURVE ( 'NONE', #185, #83, #130, .T. ) ;
#375 = DIRECTION ( 'NONE',  ( -1.000000000000000000, 4.596983092540343816E-18, 0.000000000000000000 ) ) ;
#376 = PLANE ( 'NONE',  #154 ) ;
#377 = APPROVAL_PERSON_ORGANIZATION ( #101, #55, #12 ) ;
#378 = LOCAL_TIME ( 8, 17, 16.00000000000000000, #224 ) ;
#379 = DIRECTION ( 'NONE',  ( 1.000000000000000000, -4.596983092540343816E-18, 0.000000000000000000 ) ) ;
#380 = DIRECTION ( 'NONE',  ( 4.596983092540343816E-18, 1.000000000000000000, -0.000000000000000000 ) ) ;
#381 = CARTESIAN_POINT ( 'NONE',  ( 1.387778780781445676E-14, 2817.965330118411202, 0.000000000000000000 ) ) ;
#382 = AXIS2_PLACEMENT_3D ( 'NONE', #117, #243, #375 ) ;
#383 = DIRECTION ( 'NONE',  ( 4.596983092540343816E-18, 1.000000000000000000, -0.000000000000000000 ) ) ;
#384 = DIRECTION ( 'NONE',  ( -1.000000000000000000, 0.000000000000000000, 0.000000000000000000 ) ) ;
#385 = FACE_OUTER_BOUND ( 'NONE', #76, .T. ) ;
#386 = EDGE_CURVE ( 'NONE', #89, #204, #311, .T. ) ;
#387 = VECTOR ( 'NONE', #273, 1000.000000000000000 ) ;
#388 =( NAMED_UNIT ( * ) SI_UNIT ( $, .STERADIAN. ) SOLID_ANGLE_UNIT ( ) );
#389 = APPROVAL_STATUS ( 'not_yet_approved' ) ;
#390 = DIRECTION ( 'NONE',  ( 1.000000000000000000, 0.000000000000000000, 0.000000000000000000 ) ) ;
#391 = EDGE_LOOP ( 'NONE', ( #141, #398, #396 ) ) ;
#392 = VERTEX_POINT ( 'NONE', #153 ) ;
#393 = CARTESIAN_POINT ( 'NONE',  ( -16.83999999999999275, 0.8966908581480373952, 0.000000000000000000 ) ) ;
#394 = VERTEX_POINT ( 'NONE', #158 ) ;
#395 = EDGE_CURVE ( 'NONE', #204, #266, #281, .T. ) ;
#396 = ORIENTED_EDGE ( 'NONE', *, *, #374, .T. ) ;
#397 = CARTESIAN_POINT ( 'NONE',  ( 9.277709026093936312E-16, 0.8966908581480304008, 0.000000000000000000 ) ) ;
#398 = ORIENTED_EDGE ( 'NONE', *, *, #352, .T. ) ;
#399 = CARTESIAN_POINT ( 'NONE',  ( 3.909072582878352051E-15, -20.92000000000000526, 0.000000000000000000 ) ) ;
#400 = EDGE_CURVE ( 'NONE', #185, #266, #334, .T. ) ;
#401 = DIRECTION ( 'NONE',  ( -1.000000000000000000, 4.596983092540343816E-18, 0.000000000000000000 ) ) ;
#402 = FACE_OUTER_BOUND ( 'NONE', #391, .T. ) ;
#403 = DATE_AND_TIME ( #326, #13 ) ;
#404 = ADVANCED_BREP_SHAPE_REPRESENTATION ( '3D_R365_42.4x2_173371114', ( #331, #32 ), #353 ) ;
#405 = DIRECTION ( 'NONE',  ( 4.596983092540343816E-18, 1.000000000000000000, -0.000000000000000000 ) ) ;
#406 = ORIENTED_EDGE ( 'NONE', *, *, #120, .T. ) ;
#407 = FACE_OUTER_BOUND ( 'NONE', #109, .T. ) ;
#408 = ORIENTED_EDGE ( 'NONE', *, *, #233, .T. ) ;
#409 = CARTESIAN_POINT ( 'NONE',  ( 9.236488298952508525E-16, 0.000000000000000000, 0.000000000000000000 ) ) ;
#410 = LOCAL_TIME ( 8, 17, 16.00000000000000000, #131 ) ;
#411 = DIRECTION ( 'NONE',  ( -1.000000000000000000, 0.000000000000000000, 0.000000000000000000 ) ) ;
ENDSEC;
END-ISO-10303-21;
