ISO-10303-21;
HEADER;
FILE_DESCRIPTION (( 'STEP AP203' ),
    '1' );
FILE_NAME ('19-0402-23_outokumpu.step',
    '2015-08-11T09:24:11',
    ( '' ),
    ( '' ),
    'SwSTEP 2.0',
    'SolidWorks 2008',
    '' );
FILE_SCHEMA (( 'CONFIG_CONTROL_DESIGN' ));
ENDSEC;

DATA;
#1 = APPROVAL_STATUS ( 'not_yet_approved' ) ;
#2 = PERSON_AND_ORGANIZATION ( #30, #40 ) ;
#3 = PRODUCT_DEFINITION ( 'UNKNOWN', '', #23, #34 ) ;
#4 = DIRECTION ( 'NONE',  ( 1.000000000000000000, 0.0000000000000000000, 0.0000000000000000000 ) ) ;
#5 = DIRECTION ( 'NONE',  ( 0.0000000000000000000, 0.0000000000000000000, 1.000000000000000000 ) ) ;
#6 = CARTESIAN_POINT ( 'NONE',  ( 0.0000000000000000000, 0.0000000000000000000, 0.0000000000000000000 ) ) ;
#7 = AXIS2_PLACEMENT_3D ( 'NONE', #6, #5, #4 ) ;
#8 = PERSON_AND_ORGANIZATION_ROLE ( 'creator' ) ;
#9 = PERSON_AND_ORGANIZATION ( #30, #40 ) ;
#10 = APPROVAL_ROLE ( '' ) ;
#11 = LOCAL_TIME ( 11, 24, 11.00000000000000000, #27 ) ;
#12 = APPROVAL_PERSON_ORGANIZATION ( #2, #15, #10 ) ;
#13 = DATE_AND_TIME ( #14, #11 ) ;
#14 = CALENDAR_DATE ( 2015, 11, 8 ) ;
#15 = APPROVAL ( #1, 'UNSPECIFIED' ) ;
#16 = DATE_AND_TIME ( #17, #18 ) ;
#17 = CALENDAR_DATE ( 2015, 11, 8 ) ;
#18 = LOCAL_TIME ( 11, 24, 11.00000000000000000, #19 ) ;
#19 = COORDINATED_UNIVERSAL_TIME_OFFSET ( 1, 0, .AHEAD. ) ;
#20 = CC_DESIGN_PERSON_AND_ORGANIZATION_ASSIGNMENT ( #9, #8, ( #3 ) ) ;
#21 = APPROVAL_STATUS ( 'not_yet_approved' ) ;
#22 = PERSON_AND_ORGANIZATION ( #30, #40 ) ;
#23 = PRODUCT_DEFINITION_FORMATION_WITH_SPECIFIED_SOURCE ( 'ANY', '', #31, .NOT_KNOWN. ) ;
#24 = CC_DESIGN_DATE_AND_TIME_ASSIGNMENT ( #16, #25, ( #3 ) ) ;
#25 = DATE_TIME_ROLE ( 'creation_date' ) ;
#26 = APPROVAL_DATE_TIME ( #13, #15 ) ;
#27 = COORDINATED_UNIVERSAL_TIME_OFFSET ( 1, 0, .AHEAD. ) ;
#28 = CC_DESIGN_APPROVAL ( #15, ( #3 ) ) ;
#29 = APPLICATION_CONTEXT ( 'configuration controlled 3d designs of mechanical parts and assemblies' ) ;
#30 = PERSON ( 'UNSPECIFIED', 'UNSPECIFIED', 'UNSPECIFIED', ('UNSPECIFIED'), ('UNSPECIFIED'), ('UNSPECIFIED') ) ;
#31 = PRODUCT ( '19-0402-23_outokumpu', '19-0402-23_outokumpu', '', ( #32 ) ) ;
#32 = MECHANICAL_CONTEXT ( 'NONE', #29, 'mechanical' ) ;
#33 = APPLICATION_PROTOCOL_DEFINITION ( 'international standard', 'config_control_design', 1994, #29 ) ;
#34 = DESIGN_CONTEXT ( 'detailed design', #36, 'design' ) ;
#35 = APPLICATION_PROTOCOL_DEFINITION ( 'international standard', 'config_control_design', 1994, #36 ) ;
#36 = APPLICATION_CONTEXT ( 'configuration controlled 3d designs of mechanical parts and assemblies' ) ;
#37 = CC_DESIGN_PERSON_AND_ORGANIZATION_ASSIGNMENT ( #39, #38, ( #31 ) ) ;
#38 = PERSON_AND_ORGANIZATION_ROLE ( 'design_owner' ) ;
#39 = PERSON_AND_ORGANIZATION ( #30, #40 ) ;
#40 = ORGANIZATION ( 'UNSPECIFIED', 'UNSPECIFIED', '' ) ;
#41 = LOCAL_TIME ( 11, 24, 11.00000000000000000, #42 ) ;
#42 = COORDINATED_UNIVERSAL_TIME_OFFSET ( 1, 0, .AHEAD. ) ;
#43 = DATE_AND_TIME ( #45, #41 ) ;
#44 = APPROVAL ( #21, 'UNSPECIFIED' ) ;
#45 = CALENDAR_DATE ( 2015, 11, 8 ) ;
#46 = APPROVAL_DATE_TIME ( #43, #44 ) ;
#47 = APPROVAL_ROLE ( '' ) ;
#48 = CC_DESIGN_APPROVAL ( #44, ( #23 ) ) ;
#49 = CC_DESIGN_PERSON_AND_ORGANIZATION_ASSIGNMENT ( #51, #50, ( #23 ) ) ;
#50 = PERSON_AND_ORGANIZATION_ROLE ( 'design_supplier' ) ;
#51 = PERSON_AND_ORGANIZATION ( #30, #40 ) ;
#52 = CC_DESIGN_PERSON_AND_ORGANIZATION_ASSIGNMENT ( #54, #53, ( #55 ) ) ;
#53 = PERSON_AND_ORGANIZATION_ROLE ( 'classification_officer' ) ;
#54 = PERSON_AND_ORGANIZATION ( #30, #40 ) ;
#55 = SECURITY_CLASSIFICATION ( '', '', #56 ) ;
#56 = SECURITY_CLASSIFICATION_LEVEL ( 'unclassified' ) ;
#57 = PERSON_AND_ORGANIZATION ( #30, #40 ) ;
#58 = APPROVAL_PERSON_ORGANIZATION ( #22, #44, #47 ) ;
#59 = CC_DESIGN_PERSON_AND_ORGANIZATION_ASSIGNMENT ( #57, #60, ( #23 ) ) ;
#60 = PERSON_AND_ORGANIZATION_ROLE ( 'creator' ) ;
#61 = COORDINATED_UNIVERSAL_TIME_OFFSET ( 1, 0, .AHEAD. ) ;
#62 = APPROVAL_STATUS ( 'not_yet_approved' ) ;
#63 = PERSON_AND_ORGANIZATION ( #30, #40 ) ;
#64 = CC_DESIGN_DATE_AND_TIME_ASSIGNMENT ( #68, #65, ( #55 ) ) ;
#65 = DATE_TIME_ROLE ( 'classification_date' ) ;
#66 = CALENDAR_DATE ( 2015, 11, 8 ) ;
#67 = LOCAL_TIME ( 11, 24, 11.00000000000000000, #61 ) ;
#68 = DATE_AND_TIME ( #66, #67 ) ;
#69 = DIRECTION ( 'NONE',  ( -0.0000000000000000000, 1.085776366117874600E-016, -1.000000000000000000 ) ) ;
#70 = CARTESIAN_POINT ( 'NONE',  ( 0.0000000000000000000, 1.959434878635760800E-015, -50.00000000000002800 ) ) ;
#71 = AXIS2_PLACEMENT_3D ( 'NONE', #70, #69, #196 ) ;
#72 = CYLINDRICAL_SURFACE ( 'NONE', #71, 8.331000000000004800 ) ;
#73 = FACE_OUTER_BOUND ( 'NONE', #319, .T. ) ;
#74 = DIRECTION ( 'NONE',  ( 1.000000000000000000, 0.0000000000000000000, 0.0000000000000000000 ) ) ;
#75 = DIRECTION ( 'NONE',  ( -0.0000000000000000000, -0.0000000000000000000, 1.000000000000000000 ) ) ;
#76 = CARTESIAN_POINT ( 'NONE',  ( 0.0000000000000000000, 0.0000000000000000000, -50.00000000000000000 ) ) ;
#77 = AXIS2_PLACEMENT_3D ( 'NONE', #76, #75, #74 ) ;
#78 = CIRCLE ( 'NONE', #77, 10.75000000000000200 ) ;
#79 = DIRECTION ( 'NONE',  ( 1.000000000000000000, 0.0000000000000000000, 0.0000000000000000000 ) ) ;
#80 = DIRECTION ( 'NONE',  ( -0.0000000000000000000, -0.0000000000000000000, 1.000000000000000000 ) ) ;
#81 = CARTESIAN_POINT ( 'NONE',  ( 0.0000000000000000000, 0.0000000000000000000, -4.336808689942017700E-016 ) ) ;
#82 = CARTESIAN_POINT ( 'NONE',  ( 10.75000000000000200, 0.0000000000000000000, -50.00000000000000000 ) ) ;
#83 = DIRECTION ( 'NONE',  ( 1.000000000000000000, 0.0000000000000000000, 0.0000000000000000000 ) ) ;
#84 = DIRECTION ( 'NONE',  ( -0.0000000000000000000, -0.0000000000000000000, 1.000000000000000000 ) ) ;
#85 = CARTESIAN_POINT ( 'NONE',  ( 0.0000000000000000000, 0.0000000000000000000, -50.00000000000000000 ) ) ;
#86 = AXIS2_PLACEMENT_3D ( 'NONE', #85, #84, #83 ) ;
#87 = CARTESIAN_POINT ( 'NONE',  ( 0.0000000000000000000, 0.0000000000000000000, -49.70907506936424600 ) ) ;
#88 = DIRECTION ( 'NONE',  ( -1.000000000000000000, 0.0000000000000000000, 0.0000000000000000000 ) ) ;
#89 = DIRECTION ( 'NONE',  ( 0.0000000000000000000, 0.0000000000000000000, -1.000000000000000000 ) ) ;
#90 = AXIS2_PLACEMENT_3D ( 'NONE', #92, #89, #88 ) ;
#91 = CONICAL_SURFACE ( 'NONE', #90, 8.621924930635755000, 0.7853981633974542700 ) ;
#92 = CARTESIAN_POINT ( 'NONE',  ( 0.0000000000000000000, 0.0000000000000000000, -50.00000000000000000 ) ) ;
#93 = DIRECTION ( 'NONE',  ( 1.000000000000000000, 0.0000000000000000000, 0.0000000000000000000 ) ) ;
#94 = DIRECTION ( 'NONE',  ( -0.0000000000000000000, -0.0000000000000000000, 1.000000000000000000 ) ) ;
#95 = CARTESIAN_POINT ( 'NONE',  ( 0.0000000000000000000, 0.0000000000000000000, -3.304181524667523600E-019 ) ) ;
#96 = AXIS2_PLACEMENT_3D ( 'NONE', #95, #94, #93 ) ;
#97 = CIRCLE ( 'NONE', #96, 8.621924930635689300 ) ;
#98 = FACE_OUTER_BOUND ( 'NONE', #280, .T. ) ;
#99 = DIRECTION ( 'NONE',  ( -0.7071067811865489100, 8.659274570719371400E-017, 0.7071067811865462400 ) ) ;
#100 = CIRCLE ( 'NONE', #86, 10.75000000000000200 ) ;
#101 = CARTESIAN_POINT ( 'NONE',  ( 0.0000000000000000000, 0.0000000000000000000, -0.2909249306356903600 ) ) ;
#102 = CYLINDRICAL_SURFACE ( 'NONE', #183, 10.75000000000000000 ) ;
#103 = CARTESIAN_POINT ( 'NONE',  ( 8.330999999999997700, 0.0000000000000000000, -0.2909249306356903600 ) ) ;
#104 = DIRECTION ( 'NONE',  ( 1.000000000000000000, 0.0000000000000000000, 0.0000000000000000000 ) ) ;
#105 = DIRECTION ( 'NONE',  ( -0.0000000000000000000, -0.0000000000000000000, 1.000000000000000000 ) ) ;
#106 = AXIS2_PLACEMENT_3D ( 'NONE', #171, #170, #198 ) ;
#107 = CIRCLE ( 'NONE', #168, 8.330999999999997700 ) ;
#108 = DIRECTION ( 'NONE',  ( 1.000000000000000000, 0.0000000000000000000, 0.0000000000000000000 ) ) ;
#109 = AXIS2_PLACEMENT_3D ( 'NONE', #101, #230, #108 ) ;
#110 = CONICAL_SURFACE ( 'NONE', #109, 8.330999999999997700, 0.7853981633974501700 ) ;
#111 = CARTESIAN_POINT ( 'NONE',  ( -8.621924930635689300, 1.055846405223602500E-015, -3.304181524667523600E-019 ) ) ;
#112 = CARTESIAN_POINT ( 'NONE',  ( 1.020219553369422900E-015, -8.330999999999997700, -0.2909249306356903600 ) ) ;
#113 =( NAMED_UNIT ( * ) SI_UNIT ( $, .STERADIAN. ) SOLID_ANGLE_UNIT ( ) );
#114 =( NAMED_UNIT ( * ) PLANE_ANGLE_UNIT ( ) SI_UNIT ( $, .RADIAN. ) );
#115 =( LENGTH_UNIT ( ) NAMED_UNIT ( * ) SI_UNIT ( .MILLI., .METRE. ) );
#116 = DIRECTION ( 'NONE',  ( 1.000000000000000000, 0.0000000000000000000, 0.0000000000000000000 ) ) ;
#117 = DIRECTION ( 'NONE',  ( -0.0000000000000000000, -0.0000000000000000000, 1.000000000000000000 ) ) ;
#118 = CARTESIAN_POINT ( 'NONE',  ( 0.0000000000000000000, 0.0000000000000000000, -0.2909249306356903600 ) ) ;
#119 = AXIS2_PLACEMENT_3D ( 'NONE', #118, #117, #116 ) ;
#120 = APPROVAL ( #62, 'UNSPECIFIED' ) ;
#121 = CONICAL_SURFACE ( 'NONE', #119, 8.330999999999997700, 0.7853981633974501700 ) ;
#122 = FACE_OUTER_BOUND ( 'NONE', #343, .T. ) ;
#123 = DIRECTION ( 'NONE',  ( 1.000000000000000000, 0.0000000000000000000, 0.0000000000000000000 ) ) ;
#124 = DIRECTION ( 'NONE',  ( -0.0000000000000000000, -0.0000000000000000000, 1.000000000000000000 ) ) ;
#125 = CARTESIAN_POINT ( 'NONE',  ( 0.0000000000000000000, 0.0000000000000000000, 0.0000000000000000000 ) ) ;
#126 = AXIS2_PLACEMENT_3D ( 'NONE', #125, #124, #123 ) ;
#127 = CIRCLE ( 'NONE', #126, 10.75000000000000000 ) ;
#128 = DIRECTION ( 'NONE',  ( -1.000000000000000000, 0.0000000000000000000, 0.0000000000000000000 ) ) ;
#129 = DIRECTION ( 'NONE',  ( 0.0000000000000000000, 0.0000000000000000000, -1.000000000000000000 ) ) ;
#130 = CARTESIAN_POINT ( 'NONE',  ( 0.0000000000000000000, 0.0000000000000000000, -50.00000000000000000 ) ) ;
#131 = AXIS2_PLACEMENT_3D ( 'NONE', #130, #129, #128 ) ;
#132 = CONICAL_SURFACE ( 'NONE', #131, 8.621924930635755000, 0.7853981633974542700 ) ;
#133 = FACE_OUTER_BOUND ( 'NONE', #326, .T. ) ;
#134 = DIRECTION ( 'NONE',  ( 1.000000000000000000, 0.0000000000000000000, 0.0000000000000000000 ) ) ;
#135 = DIRECTION ( 'NONE',  ( -0.0000000000000000000, -0.0000000000000000000, 1.000000000000000000 ) ) ;
#136 = CARTESIAN_POINT ( 'NONE',  ( 0.0000000000000000000, 0.0000000000000000000, -50.00000000000000000 ) ) ;
#137 = AXIS2_PLACEMENT_3D ( 'NONE', #136, #135, #134 ) ;
#138 = DIRECTION ( 'NONE',  ( -1.000000000000000000, 0.0000000000000000000, -0.0000000000000000000 ) ) ;
#139 = VECTOR ( 'NONE', #99, 999.9999999999998900 ) ;
#140 = CARTESIAN_POINT ( 'NONE',  ( -8.330999999999997700, 1.020219553369422300E-015, -0.2909249306356903600 ) ) ;
#141 = LINE ( 'NONE', #140, #139 ) ;
#142 = CARTESIAN_POINT ( 'NONE',  ( 0.0000000000000000000, 0.0000000000000000000, -49.70907506936424600 ) ) ;
#143 = CARTESIAN_POINT ( 'NONE',  ( -8.330999999999997700, 0.0000000000000000000, -49.70907506936424600 ) ) ;
#144 = DIRECTION ( 'NONE',  ( -0.7071067811865517900, 0.0000000000000000000, -0.7071067811865433500 ) ) ;
#145 = VECTOR ( 'NONE', #144, 1000.000000000000000 ) ;
#146 = CARTESIAN_POINT ( 'NONE',  ( -8.621924930635755000, 0.0000000000000000000, -50.00000000000000000 ) ) ;
#147 = LINE ( 'NONE', #146, #145 ) ;
#148 = CARTESIAN_POINT ( 'NONE',  ( -8.621924930635755000, 0.0000000000000000000, -50.00000000000000000 ) ) ;
#149 = DIRECTION ( 'NONE',  ( 1.000000000000000000, 0.0000000000000000000, 0.0000000000000000000 ) ) ;
#150 = DIRECTION ( 'NONE',  ( -0.0000000000000000000, -0.0000000000000000000, 1.000000000000000000 ) ) ;
#151 = CARTESIAN_POINT ( 'NONE',  ( 0.0000000000000000000, 0.0000000000000000000, -50.00000000000000000 ) ) ;
#152 = AXIS2_PLACEMENT_3D ( 'NONE', #151, #150, #149 ) ;
#153 = CIRCLE ( 'NONE', #152, 8.621924930635755000 ) ;
#154 = CARTESIAN_POINT ( 'NONE',  ( 8.621924930635755000, 1.055846405223610600E-015, -50.00000000000000000 ) ) ;
#155 = DIRECTION ( 'NONE',  ( 0.7071067811865517900, 8.659274570719408400E-017, -0.7071067811865433500 ) ) ;
#156 = VECTOR ( 'NONE', #155, 1000.000000000000000 ) ;
#157 = CARTESIAN_POINT ( 'NONE',  ( 8.621924930635755000, 1.055846405223610600E-015, -50.00000000000000000 ) ) ;
#158 = LINE ( 'NONE', #157, #156 ) ;
#159 = CARTESIAN_POINT ( 'NONE',  ( 8.330999999999997700, 1.038032979296516400E-015, -49.70907506936424600 ) ) ;
#160 = CARTESIAN_POINT ( 'NONE',  ( 1.020219553369422900E-015, -8.330999999999997700, -49.70907506936424600 ) ) ;
#161 = DIRECTION ( 'NONE',  ( 1.000000000000000000, 0.0000000000000000000, 0.0000000000000000000 ) ) ;
#162 = DIRECTION ( 'NONE',  ( -0.0000000000000000000, -0.0000000000000000000, 1.000000000000000000 ) ) ;
#163 = AXIS2_PLACEMENT_3D ( 'NONE', #87, #162, #161 ) ;
#164 = CIRCLE ( 'NONE', #163, 8.330999999999997700 ) ;
#165 = DIRECTION ( 'NONE',  ( 1.000000000000000000, 0.0000000000000000000, 0.0000000000000000000 ) ) ;
#166 = DIRECTION ( 'NONE',  ( -0.0000000000000000000, -0.0000000000000000000, 1.000000000000000000 ) ) ;
#167 = CARTESIAN_POINT ( 'NONE',  ( 0.0000000000000000000, 0.0000000000000000000, -0.2909249306356903600 ) ) ;
#168 = AXIS2_PLACEMENT_3D ( 'NONE', #167, #166, #165 ) ;
#169 = CARTESIAN_POINT ( 'NONE',  ( -8.330999999999997700, 1.038032979296512500E-015, -0.2909249306356903600 ) ) ;
#170 = DIRECTION ( 'NONE',  ( -0.0000000000000000000, -0.0000000000000000000, 1.000000000000000000 ) ) ;
#171 = CARTESIAN_POINT ( 'NONE',  ( 0.0000000000000000000, 0.0000000000000000000, -0.2909249306356903600 ) ) ;
#172 = CC_DESIGN_APPROVAL ( #120, ( #55 ) ) ;
#173 = APPROVAL_DATE_TIME ( #174, #120 ) ;
#174 = DATE_AND_TIME ( #175, #176 ) ;
#175 = CALENDAR_DATE ( 2015, 11, 8 ) ;
#176 = LOCAL_TIME ( 11, 24, 11.00000000000000000, #177 ) ;
#177 = COORDINATED_UNIVERSAL_TIME_OFFSET ( 1, 0, .AHEAD. ) ;
#178 = APPROVAL_PERSON_ORGANIZATION ( #63, #120, #179 ) ;
#179 = APPROVAL_ROLE ( '' ) ;
#180 = ADVANCED_BREP_SHAPE_REPRESENTATION ( '19-0402-23_outokumpu', ( #278, #7 ), #181 ) ;
#181 =( GEOMETRIC_REPRESENTATION_CONTEXT ( 3 ) GLOBAL_UNCERTAINTY_ASSIGNED_CONTEXT ( ( #182 ) ) GLOBAL_UNIT_ASSIGNED_CONTEXT ( ( #115, #114, #113 ) ) REPRESENTATION_CONTEXT ( 'NONE', 'WORKASPACE' ) );
#182 = UNCERTAINTY_MEASURE_WITH_UNIT (LENGTH_MEASURE( 1.000000000000000100E-005 ), #115, 'distance_accuracy_value', 'NONE');
#183 = AXIS2_PLACEMENT_3D ( 'NONE', #197, #105, #104 ) ;
#184 = DIRECTION ( 'NONE',  ( 0.0000000000000000000, 0.0000000000000000000, -1.000000000000000000 ) ) ;
#185 = AXIS2_PLACEMENT_3D ( 'NONE', #187, #184, #138 ) ;
#186 = CIRCLE ( 'NONE', #137, 8.621924930635755000 ) ;
#187 = CARTESIAN_POINT ( 'NONE',  ( 0.0000000000000000000, 10.75000000000000000, -2.168404344971008900E-016 ) ) ;
#188 = PLANE ( 'NONE',  #185 ) ;
#189 = FACE_BOUND ( 'NONE', #337, .T. ) ;
#190 = FACE_OUTER_BOUND ( 'NONE', #317, .T. ) ;
#191 = DIRECTION ( 'NONE',  ( 1.000000000000000000, 0.0000000000000000000, 0.0000000000000000000 ) ) ;
#192 = DIRECTION ( 'NONE',  ( -0.0000000000000000000, -0.0000000000000000000, 1.000000000000000000 ) ) ;
#193 = CARTESIAN_POINT ( 'NONE',  ( 0.0000000000000000000, 0.0000000000000000000, -49.70907506936424600 ) ) ;
#194 = AXIS2_PLACEMENT_3D ( 'NONE', #193, #192, #191 ) ;
#195 = CIRCLE ( 'NONE', #194, 8.330999999999997700 ) ;
#196 = DIRECTION ( 'NONE',  ( 0.0000000000000000000, 1.000000000000000000, 0.0000000000000000000 ) ) ;
#197 = CARTESIAN_POINT ( 'NONE',  ( 0.0000000000000000000, 0.0000000000000000000, -4.336808689942017700E-016 ) ) ;
#198 = DIRECTION ( 'NONE',  ( 1.000000000000000000, 0.0000000000000000000, 0.0000000000000000000 ) ) ;
#199 = CIRCLE ( 'NONE', #106, 8.330999999999997700 ) ;
#200 = FACE_OUTER_BOUND ( 'NONE', #261, .T. ) ;
#201 = CYLINDRICAL_SURFACE ( 'NONE', #202, 10.75000000000000000 ) ;
#202 = AXIS2_PLACEMENT_3D ( 'NONE', #81, #80, #79 ) ;
#203 = FACE_OUTER_BOUND ( 'NONE', #345, .T. ) ;
#204 = DIRECTION ( 'NONE',  ( 1.000000000000000000, 0.0000000000000000000, 0.0000000000000000000 ) ) ;
#205 = DIRECTION ( 'NONE',  ( -0.0000000000000000000, -0.0000000000000000000, 1.000000000000000000 ) ) ;
#206 = AXIS2_PLACEMENT_3D ( 'NONE', #211, #205, #204 ) ;
#207 = CIRCLE ( 'NONE', #206, 8.621924930635689300 ) ;
#208 = DIRECTION ( 'NONE',  ( 1.000000000000000000, 0.0000000000000000000, 0.0000000000000000000 ) ) ;
#209 = DIRECTION ( 'NONE',  ( 0.0000000000000000000, -0.0000000000000000000, 1.000000000000000000 ) ) ;
#210 = AXIS2_PLACEMENT_3D ( 'NONE', #212, #209, #208 ) ;
#211 = CARTESIAN_POINT ( 'NONE',  ( 0.0000000000000000000, 0.0000000000000000000, -3.304181524667523600E-019 ) ) ;
#212 = CARTESIAN_POINT ( 'NONE',  ( 0.0000000000000000000, 10.75000000000000200, -50.00000000000000000 ) ) ;
#213 = PLANE ( 'NONE',  #210 ) ;
#214 = FACE_BOUND ( 'NONE', #308, .T. ) ;
#215 = FACE_OUTER_BOUND ( 'NONE', #300, .T. ) ;
#216 = DIRECTION ( 'NONE',  ( 1.000000000000000000, 0.0000000000000000000, 0.0000000000000000000 ) ) ;
#217 = DIRECTION ( 'NONE',  ( -0.0000000000000000000, -0.0000000000000000000, 1.000000000000000000 ) ) ;
#218 = CARTESIAN_POINT ( 'NONE',  ( 0.0000000000000000000, 0.0000000000000000000, -49.70907506936424600 ) ) ;
#219 = AXIS2_PLACEMENT_3D ( 'NONE', #218, #217, #216 ) ;
#220 = CIRCLE ( 'NONE', #219, 8.330999999999997700 ) ;
#221 = DIRECTION ( 'NONE',  ( 1.000000000000000000, 0.0000000000000000000, 0.0000000000000000000 ) ) ;
#222 = DIRECTION ( 'NONE',  ( -0.0000000000000000000, -0.0000000000000000000, 1.000000000000000000 ) ) ;
#223 = AXIS2_PLACEMENT_3D ( 'NONE', #229, #222, #221 ) ;
#224 = CIRCLE ( 'NONE', #223, 8.330999999999997700 ) ;
#225 = DIRECTION ( 'NONE',  ( 1.000000000000000000, 0.0000000000000000000, 0.0000000000000000000 ) ) ;
#226 = DIRECTION ( 'NONE',  ( -0.0000000000000000000, -0.0000000000000000000, 1.000000000000000000 ) ) ;
#227 = AXIS2_PLACEMENT_3D ( 'NONE', #142, #226, #225 ) ;
#228 = CIRCLE ( 'NONE', #227, 8.330999999999997700 ) ;
#229 = CARTESIAN_POINT ( 'NONE',  ( 0.0000000000000000000, 0.0000000000000000000, -0.2909249306356903600 ) ) ;
#230 = DIRECTION ( 'NONE',  ( -0.0000000000000000000, -0.0000000000000000000, 1.000000000000000000 ) ) ;
#231 = FACE_OUTER_BOUND ( 'NONE', #268, .T. ) ;
#232 = CARTESIAN_POINT ( 'NONE',  ( -10.75000000000000200, 1.316451830359056100E-015, -50.00000000000000000 ) ) ;
#233 = EDGE_CURVE ( 'NONE', #246, #235, #367, .T. ) ;
#234 = EDGE_CURVE ( 'NONE', #264, #246, #364, .T. ) ;
#235 = VERTEX_POINT ( 'NONE', #380 ) ;
#236 = ORIENTED_EDGE ( 'NONE', *, *, #234, .F. ) ;
#237 = EDGE_CURVE ( 'NONE', #265, #235, #353, .T. ) ;
#238 = ORIENTED_EDGE ( 'NONE', *, *, #233, .F. ) ;
#239 = VERTEX_POINT ( 'NONE', #370 ) ;
#240 = ORIENTED_EDGE ( 'NONE', *, *, #249, .T. ) ;
#241 = ORIENTED_EDGE ( 'NONE', *, *, #270, .T. ) ;
#242 = EDGE_CURVE ( 'NONE', #239, #271, #386, .T. ) ;
#243 = ORIENTED_EDGE ( 'NONE', *, *, #242, .T. ) ;
#244 = ADVANCED_FACE ( 'NONE', ( #360 ), #384, .F. ) ;
#245 = EDGE_LOOP ( 'NONE', ( #243, #241, #240, #250, #323, #252 ) ) ;
#246 = VERTEX_POINT ( 'NONE', #385 ) ;
#247 = CC_DESIGN_SECURITY_CLASSIFICATION ( #55, ( #23 ) ) ;
#248 = VERTEX_POINT ( 'NONE', #366 ) ;
#249 = EDGE_CURVE ( 'NONE', #272, #283, #374, .T. ) ;
#250 = ORIENTED_EDGE ( 'NONE', *, *, #295, .F. ) ;
#251 = ORIENTED_EDGE ( 'NONE', *, *, #302, .F. ) ;
#252 = ORIENTED_EDGE ( 'NONE', *, *, #253, .F. ) ;
#253 = EDGE_CURVE ( 'NONE', #239, #248, #379, .T. ) ;
#254 = VERTEX_POINT ( 'NONE', #375 ) ;
#255 = ORIENTED_EDGE ( 'NONE', *, *, #256, .F. ) ;
#256 = EDGE_CURVE ( 'NONE', #257, #254, #349, .T. ) ;
#257 = VERTEX_POINT ( 'NONE', #103 ) ;
#258 = ORIENTED_EDGE ( 'NONE', *, *, #259, .F. ) ;
#259 = EDGE_CURVE ( 'NONE', #272, #257, #199, .T. ) ;
#260 = ADVANCED_FACE ( 'NONE', ( #200 ), #102, .T. ) ;
#261 = EDGE_LOOP ( 'NONE', ( #262, #266, #238, #236 ) ) ;
#262 = ORIENTED_EDGE ( 'NONE', *, *, #263, .T. ) ;
#263 = EDGE_CURVE ( 'NONE', #264, #265, #100, .T. ) ;
#264 = VERTEX_POINT ( 'NONE', #82 ) ;
#265 = VERTEX_POINT ( 'NONE', #232 ) ;
#266 = ORIENTED_EDGE ( 'NONE', *, *, #237, .T. ) ;
#267 = ADVANCED_FACE ( 'NONE', ( #231 ), #110, .F. ) ;
#268 = EDGE_LOOP ( 'NONE', ( #269, #273, #276, #255, #258 ) ) ;
#269 = ORIENTED_EDGE ( 'NONE', *, *, #270, .F. ) ;
#270 = EDGE_CURVE ( 'NONE', #271, #272, #107, .T. ) ;
#271 = VERTEX_POINT ( 'NONE', #169 ) ;
#272 = VERTEX_POINT ( 'NONE', #112 ) ;
#273 = ORIENTED_EDGE ( 'NONE', *, *, #275, .T. ) ;
#274 = VERTEX_POINT ( 'NONE', #111 ) ;
#275 = EDGE_CURVE ( 'NONE', #271, #274, #141, .T. ) ;
#276 = ORIENTED_EDGE ( 'NONE', *, *, #277, .T. ) ;
#277 = EDGE_CURVE ( 'NONE', #274, #254, #97, .T. ) ;
#278 = MANIFOLD_SOLID_BREP ( 'NONE', #304 ) ;
#279 = ADVANCED_FACE ( 'NONE', ( #98 ), #91, .F. ) ;
#280 = EDGE_LOOP ( 'NONE', ( #281, #285, #288, #291, #294 ) ) ;
#281 = ORIENTED_EDGE ( 'NONE', *, *, #282, .T. ) ;
#282 = EDGE_CURVE ( 'NONE', #283, #284, #164, .T. ) ;
#283 = VERTEX_POINT ( 'NONE', #160 ) ;
#284 = VERTEX_POINT ( 'NONE', #159 ) ;
#285 = ORIENTED_EDGE ( 'NONE', *, *, #286, .T. ) ;
#286 = EDGE_CURVE ( 'NONE', #284, #287, #158, .T. ) ;
#287 = VERTEX_POINT ( 'NONE', #154 ) ;
#288 = ORIENTED_EDGE ( 'NONE', *, *, #289, .F. ) ;
#289 = EDGE_CURVE ( 'NONE', #290, #287, #153, .T. ) ;
#290 = VERTEX_POINT ( 'NONE', #148 ) ;
#291 = ORIENTED_EDGE ( 'NONE', *, *, #292, .F. ) ;
#292 = EDGE_CURVE ( 'NONE', #293, #290, #147, .T. ) ;
#293 = VERTEX_POINT ( 'NONE', #143 ) ;
#294 = ORIENTED_EDGE ( 'NONE', *, *, #295, .T. ) ;
#295 = EDGE_CURVE ( 'NONE', #293, #283, #228, .T. ) ;
#296 = EDGE_CURVE ( 'NONE', #257, #239, #224, .T. ) ;
#297 = ORIENTED_EDGE ( 'NONE', *, *, #253, .T. ) ;
#298 = ORIENTED_EDGE ( 'NONE', *, *, #259, .T. ) ;
#299 = EDGE_CURVE ( 'NONE', #248, #293, #220, .T. ) ;
#300 = EDGE_LOOP ( 'NONE', ( #311, #312 ) ) ;
#301 = ADVANCED_FACE ( 'NONE', ( #215, #214 ), #213, .F. ) ;
#302 = EDGE_CURVE ( 'NONE', #254, #274, #207, .T. ) ;
#303 = ORIENTED_EDGE ( 'NONE', *, *, #322, .F. ) ;
#304 = CLOSED_SHELL ( 'NONE', ( #279, #267, #260, #244, #310, #301, #316, #306, #347, #327 ) ) ;
#305 = ORIENTED_EDGE ( 'NONE', *, *, #277, .F. ) ;
#306 = ADVANCED_FACE ( 'NONE', ( #203 ), #201, .T. ) ;
#307 = EDGE_CURVE ( 'NONE', #265, #264, #78, .T. ) ;
#308 = EDGE_LOOP ( 'NONE', ( #320, #321 ) ) ;
#309 = ORIENTED_EDGE ( 'NONE', *, *, #296, .T. ) ;
#310 = ADVANCED_FACE ( 'NONE', ( #73 ), #72, .F. ) ;
#311 = ORIENTED_EDGE ( 'NONE', *, *, #263, .F. ) ;
#312 = ORIENTED_EDGE ( 'NONE', *, *, #307, .F. ) ;
#313 = ORIENTED_EDGE ( 'NONE', *, *, #314, .F. ) ;
#314 = EDGE_CURVE ( 'NONE', #284, #248, #195, .T. ) ;
#315 = ORIENTED_EDGE ( 'NONE', *, *, #282, .F. ) ;
#316 = ADVANCED_FACE ( 'NONE', ( #190, #189 ), #188, .F. ) ;
#317 = EDGE_LOOP ( 'NONE', ( #328, #346 ) ) ;
#318 = ORIENTED_EDGE ( 'NONE', *, *, #249, .F. ) ;
#319 = EDGE_LOOP ( 'NONE', ( #318, #298, #309, #297, #313, #315 ) ) ;
#320 = ORIENTED_EDGE ( 'NONE', *, *, #289, .T. ) ;
#321 = ORIENTED_EDGE ( 'NONE', *, *, #322, .T. ) ;
#322 = EDGE_CURVE ( 'NONE', #287, #290, #186, .T. ) ;
#323 = ORIENTED_EDGE ( 'NONE', *, *, #299, .F. ) ;
#324 = ORIENTED_EDGE ( 'NONE', *, *, #256, .T. ) ;
#325 = ORIENTED_EDGE ( 'NONE', *, *, #302, .T. ) ;
#326 = EDGE_LOOP ( 'NONE', ( #329, #332, #333, #334, #303 ) ) ;
#327 = ADVANCED_FACE ( 'NONE', ( #133 ), #132, .F. ) ;
#328 = ORIENTED_EDGE ( 'NONE', *, *, #233, .T. ) ;
#329 = ORIENTED_EDGE ( 'NONE', *, *, #286, .F. ) ;
#330 = ORIENTED_EDGE ( 'NONE', *, *, #296, .F. ) ;
#331 = EDGE_CURVE ( 'NONE', #235, #246, #127, .T. ) ;
#332 = ORIENTED_EDGE ( 'NONE', *, *, #314, .T. ) ;
#333 = ORIENTED_EDGE ( 'NONE', *, *, #299, .T. ) ;
#334 = ORIENTED_EDGE ( 'NONE', *, *, #292, .T. ) ;
#335 = DIRECTION ( 'NONE',  ( 0.7071067811865489100, 0.0000000000000000000, 0.7071067811865462400 ) ) ;
#336 = VECTOR ( 'NONE', #335, 999.9999999999998900 ) ;
#337 = EDGE_LOOP ( 'NONE', ( #251, #305 ) ) ;
#338 = ORIENTED_EDGE ( 'NONE', *, *, #275, .F. ) ;
#339 = ORIENTED_EDGE ( 'NONE', *, *, #242, .F. ) ;
#340 = ORIENTED_EDGE ( 'NONE', *, *, #237, .F. ) ;
#341 = ORIENTED_EDGE ( 'NONE', *, *, #307, .T. ) ;
#342 = ORIENTED_EDGE ( 'NONE', *, *, #331, .F. ) ;
#343 = EDGE_LOOP ( 'NONE', ( #338, #339, #330, #324, #325 ) ) ;
#344 = ORIENTED_EDGE ( 'NONE', *, *, #234, .T. ) ;
#345 = EDGE_LOOP ( 'NONE', ( #340, #341, #344, #342 ) ) ;
#346 = ORIENTED_EDGE ( 'NONE', *, *, #331, .T. ) ;
#347 = ADVANCED_FACE ( 'NONE', ( #122 ), #121, .F. ) ;
#348 = CARTESIAN_POINT ( 'NONE',  ( 8.330999999999997700, 0.0000000000000000000, -0.2909249306356903600 ) ) ;
#349 = LINE ( 'NONE', #348, #336 ) ;
#350 = DIRECTION ( 'NONE',  ( -0.0000000000000000000, -0.0000000000000000000, 1.000000000000000000 ) ) ;
#351 = VECTOR ( 'NONE', #350, 1000.000000000000000 ) ;
#352 = CARTESIAN_POINT ( 'NONE',  ( -10.75000000000000000, 1.316451830359055700E-015, -4.336808689942017700E-016 ) ) ;
#353 = LINE ( 'NONE', #352, #351 ) ;
#354 = DIRECTION ( 'NONE',  ( 1.000000000000000000, 0.0000000000000000000, 0.0000000000000000000 ) ) ;
#355 = CARTESIAN_POINT ( 'NONE',  ( 0.0000000000000000000, 1.959434878635760800E-015, -50.00000000000002800 ) ) ;
#356 = DIRECTION ( 'NONE',  ( 1.000000000000000000, 0.0000000000000000000, 0.0000000000000000000 ) ) ;
#357 = DIRECTION ( 'NONE',  ( -0.0000000000000000000, -0.0000000000000000000, 1.000000000000000000 ) ) ;
#358 = CARTESIAN_POINT ( 'NONE',  ( 0.0000000000000000000, 0.0000000000000000000, -0.2909249306356903600 ) ) ;
#359 = AXIS2_PLACEMENT_3D ( 'NONE', #358, #357, #356 ) ;
#360 = FACE_OUTER_BOUND ( 'NONE', #245, .T. ) ;
#361 = DIRECTION ( 'NONE',  ( -0.0000000000000000000, -0.0000000000000000000, 1.000000000000000000 ) ) ;
#362 = VECTOR ( 'NONE', #361, 1000.000000000000000 ) ;
#363 = CARTESIAN_POINT ( 'NONE',  ( 10.75000000000000000, 0.0000000000000000000, -4.336808689942017700E-016 ) ) ;
#364 = LINE ( 'NONE', #363, #362 ) ;
#365 = AXIS2_PLACEMENT_3D ( 'NONE', #368, #371, #354 ) ;
#366 = CARTESIAN_POINT ( 'NONE',  ( 0.0000000000000000000, 8.330999999999997700, -49.70907506936424600 ) ) ;
#367 = CIRCLE ( 'NONE', #365, 10.75000000000000000 ) ;
#368 = CARTESIAN_POINT ( 'NONE',  ( 0.0000000000000000000, 0.0000000000000000000, 0.0000000000000000000 ) ) ;
#369 = DIRECTION ( 'NONE',  ( -0.0000000000000000000, 1.085776366117874600E-016, -1.000000000000000000 ) ) ;
#370 = CARTESIAN_POINT ( 'NONE',  ( 0.0000000000000000000, 8.330999999999997700, -0.2909249306356903600 ) ) ;
#371 = DIRECTION ( 'NONE',  ( -0.0000000000000000000, -0.0000000000000000000, 1.000000000000000000 ) ) ;
#372 = VECTOR ( 'NONE', #369, 1000.000000000000000 ) ;
#373 = CARTESIAN_POINT ( 'NONE',  ( 1.020219553369423200E-015, -8.331000000000003100, -50.00000000000002800 ) ) ;
#374 = LINE ( 'NONE', #373, #372 ) ;
#375 = CARTESIAN_POINT ( 'NONE',  ( 8.621924930635689300, 0.0000000000000000000, -3.304181524667523600E-019 ) ) ;
#376 = DIRECTION ( 'NONE',  ( -0.0000000000000000000, 1.085776366117874600E-016, -1.000000000000000000 ) ) ;
#377 = VECTOR ( 'NONE', #376, 1000.000000000000000 ) ;
#378 = CARTESIAN_POINT ( 'NONE',  ( 0.0000000000000000000, 8.331000000000006600, -50.00000000000002800 ) ) ;
#379 = LINE ( 'NONE', #378, #377 ) ;
#380 = CARTESIAN_POINT ( 'NONE',  ( -10.75000000000000000, 1.316451830359055700E-015, 0.0000000000000000000 ) ) ;
#381 = DIRECTION ( 'NONE',  ( 0.0000000000000000000, 1.000000000000000000, 0.0000000000000000000 ) ) ;
#382 = DIRECTION ( 'NONE',  ( -0.0000000000000000000, 1.085776366117874600E-016, -1.000000000000000000 ) ) ;
#383 = AXIS2_PLACEMENT_3D ( 'NONE', #355, #382, #381 ) ;
#384 = CYLINDRICAL_SURFACE ( 'NONE', #383, 8.331000000000004800 ) ;
#385 = CARTESIAN_POINT ( 'NONE',  ( 10.75000000000000000, 0.0000000000000000000, 0.0000000000000000000 ) ) ;
#386 = CIRCLE ( 'NONE', #359, 8.330999999999997700 ) ;
#387 = SHAPE_DEFINITION_REPRESENTATION ( #388, #180 ) ;
#388 = PRODUCT_DEFINITION_SHAPE ( 'NONE', 'NONE',  #3 ) ;
#389 = PRODUCT_RELATED_PRODUCT_CATEGORY ( 'detail', '', ( #31 ) ) ;
ENDSEC;
END-ISO-10303-21;
