ISO-10303-21;
HEADER;
/* Generated by software containing ST-Developer
 * from STEP Tools, Inc. (www.steptools.com) 
 */

FILE_DESCRIPTION(
/* description */ (''),
/* implementation_level */ '2;1');

FILE_NAME(
/* name */ 
'C:\\Users\\cad\\Desktop\\Zeichnungen neu von Ralph\\3D_Kupplung_R666-
E\\3D_R666-E-DN20-DN40_17113145.stp',
/* time_stamp */ '2021-06-17T09:08:03+02:00',
/* author */ ('cad'),
/* organization */ (''),
/* preprocessor_version */ 'ST-DEVELOPER v18.1',
/* originating_system */ 'Autodesk Inventor 2022',
/* authorisation */ '');

FILE_SCHEMA (('AUTOMOTIVE_DESIGN { 1 0 10303 214 3 1 1 }'));
ENDSEC;

DATA;
#10=MECHANICAL_DESIGN_GEOMETRIC_PRESENTATION_REPRESENTATION('',(#13),#546);
#11=SHAPE_REPRESENTATION_RELATIONSHIP('SRR','None',#553,#12);
#12=ADVANCED_BREP_SHAPE_REPRESENTATION('',(#14),#545);
#13=STYLED_ITEM('',(#562),#14);
#14=MANIFOLD_SOLID_BREP('Volumenk\X\F6rper1',#295);
#15=CYLINDRICAL_SURFACE('',#337,19.);
#16=CYLINDRICAL_SURFACE('',#343,12.0585);
#17=CYLINDRICAL_SURFACE('',#349,22.);
#18=TOROIDAL_SURFACE('',#330,19.8,0.8);
#19=CONICAL_SURFACE('',#325,18.85,0.785398163397452);
#20=CONICAL_SURFACE('',#327,18.85,0.785398163397452);
#21=CONICAL_SURFACE('',#338,12.2085,0.785398163397445);
#22=CONICAL_SURFACE('',#346,21.85,0.785398163397445);
#23=CONICAL_SURFACE('',#352,21.85,0.785398163397447);
#24=CONICAL_SURFACE('',#353,12.8085,0.785398163397447);
#25=FACE_BOUND('',#72,.T.);
#26=FACE_BOUND('',#77,.T.);
#27=FACE_BOUND('',#81,.T.);
#28=CIRCLE('',#322,18.7);
#29=CIRCLE('',#323,18.7);
#30=CIRCLE('',#324,13.5585);
#31=CIRCLE('',#326,19.);
#32=CIRCLE('',#328,19.);
#33=CIRCLE('',#329,19.);
#34=CIRCLE('',#331,19.);
#35=CIRCLE('',#332,0.8);
#36=CIRCLE('',#333,19.8);
#37=CIRCLE('',#334,19.);
#38=CIRCLE('',#336,21.7);
#39=CIRCLE('',#339,12.3585);
#40=CIRCLE('',#340,12.0585);
#41=CIRCLE('',#342,21.7);
#42=CIRCLE('',#344,12.0585);
#43=CIRCLE('',#345,12.0585);
#44=CIRCLE('',#347,22.);
#45=CIRCLE('',#348,22.);
#46=CIRCLE('',#350,22.);
#47=CIRCLE('',#351,22.);
#48=ELLIPSE('',#317,26.8700576850888,19.);
#49=ELLIPSE('',#320,26.8700576850888,19.);
#50=FACE_OUTER_BOUND('',#67,.T.);
#51=FACE_OUTER_BOUND('',#68,.T.);
#52=FACE_OUTER_BOUND('',#69,.T.);
#53=FACE_OUTER_BOUND('',#70,.T.);
#54=FACE_OUTER_BOUND('',#71,.T.);
#55=FACE_OUTER_BOUND('',#73,.T.);
#56=FACE_OUTER_BOUND('',#74,.T.);
#57=FACE_OUTER_BOUND('',#75,.T.);
#58=FACE_OUTER_BOUND('',#76,.T.);
#59=FACE_OUTER_BOUND('',#78,.T.);
#60=FACE_OUTER_BOUND('',#79,.T.);
#61=FACE_OUTER_BOUND('',#80,.T.);
#62=FACE_OUTER_BOUND('',#82,.T.);
#63=FACE_OUTER_BOUND('',#83,.T.);
#64=FACE_OUTER_BOUND('',#84,.T.);
#65=FACE_OUTER_BOUND('',#85,.T.);
#66=FACE_OUTER_BOUND('',#86,.T.);
#67=EDGE_LOOP('',(#189,#190,#191,#192,#193,#194));
#68=EDGE_LOOP('',(#195,#196));
#69=EDGE_LOOP('',(#197,#198,#199,#200,#201,#202));
#70=EDGE_LOOP('',(#203,#204));
#71=EDGE_LOOP('',(#205,#206,#207,#208));
#72=EDGE_LOOP('',(#209));
#73=EDGE_LOOP('',(#210,#211,#212,#213));
#74=EDGE_LOOP('',(#214,#215,#216,#217,#218));
#75=EDGE_LOOP('',(#219,#220,#221,#222,#223));
#76=EDGE_LOOP('',(#224));
#77=EDGE_LOOP('',(#225));
#78=EDGE_LOOP('',(#226,#227,#228,#229,#230,#231,#232,#233,#234,#235,#236,
#237,#238));
#79=EDGE_LOOP('',(#239,#240,#241,#242));
#80=EDGE_LOOP('',(#243));
#81=EDGE_LOOP('',(#244));
#82=EDGE_LOOP('',(#245,#246,#247,#248,#249));
#83=EDGE_LOOP('',(#250,#251,#252,#253,#254));
#84=EDGE_LOOP('',(#255,#256,#257,#258,#259,#260));
#85=EDGE_LOOP('',(#261,#262,#263,#264,#265));
#86=EDGE_LOOP('',(#266,#267,#268,#269,#270));
#87=LINE('',#457,#102);
#88=LINE('',#459,#103);
#89=LINE('',#461,#104);
#90=LINE('',#466,#105);
#91=LINE('',#476,#106);
#92=LINE('',#478,#107);
#93=LINE('',#480,#108);
#94=LINE('',#485,#109);
#95=LINE('',#511,#110);
#96=LINE('',#516,#111);
#97=LINE('',#526,#112);
#98=LINE('',#529,#113);
#99=LINE('',#535,#114);
#100=LINE('',#540,#115);
#101=LINE('',#542,#116);
#102=VECTOR('',#358,10.);
#103=VECTOR('',#359,10.);
#104=VECTOR('',#360,10.);
#105=VECTOR('',#361,10.);
#106=VECTOR('',#368,10.);
#107=VECTOR('',#369,10.);
#108=VECTOR('',#370,10.);
#109=VECTOR('',#371,10.);
#110=VECTOR('',#410,19.);
#111=VECTOR('',#415,12.2085);
#112=VECTOR('',#428,12.0585);
#113=VECTOR('',#431,21.85);
#114=VECTOR('',#438,22.);
#115=VECTOR('',#445,21.85);
#116=VECTOR('',#448,12.8085);
#117=(
BOUNDED_CURVE()
B_SPLINE_CURVE(2,(#453,#454,#455),.UNSPECIFIED.,.F.,.F.)
B_SPLINE_CURVE_WITH_KNOTS((3,3),(0.,0.0862319192954935),.UNSPECIFIED.)
CURVE()
GEOMETRIC_REPRESENTATION_ITEM()
RATIONAL_B_SPLINE_CURVE((1.,1.00022999203112,1.))
REPRESENTATION_ITEM('')
);
#118=(
BOUNDED_CURVE()
B_SPLINE_CURVE(2,(#463,#464,#465),.UNSPECIFIED.,.F.,.F.)
B_SPLINE_CURVE_WITH_KNOTS((3,3),(0.,0.0862319192954936),.UNSPECIFIED.)
CURVE()
GEOMETRIC_REPRESENTATION_ITEM()
RATIONAL_B_SPLINE_CURVE((1.,1.00022999203104,1.))
REPRESENTATION_ITEM('')
);
#119=(
BOUNDED_CURVE()
B_SPLINE_CURVE(2,(#472,#473,#474),.UNSPECIFIED.,.F.,.F.)
B_SPLINE_CURVE_WITH_KNOTS((3,3),(0.,0.0862319192954938),.UNSPECIFIED.)
CURVE()
GEOMETRIC_REPRESENTATION_ITEM()
RATIONAL_B_SPLINE_CURVE((1.,1.00022999202882,1.))
REPRESENTATION_ITEM('')
);
#120=(
BOUNDED_CURVE()
B_SPLINE_CURVE(2,(#482,#483,#484),.UNSPECIFIED.,.F.,.F.)
B_SPLINE_CURVE_WITH_KNOTS((3,3),(0.,0.0862319192954938),.UNSPECIFIED.)
CURVE()
GEOMETRIC_REPRESENTATION_ITEM()
RATIONAL_B_SPLINE_CURVE((1.,1.00022999202882,1.))
REPRESENTATION_ITEM('')
);
#121=VERTEX_POINT('',#451);
#122=VERTEX_POINT('',#452);
#123=VERTEX_POINT('',#456);
#124=VERTEX_POINT('',#458);
#125=VERTEX_POINT('',#460);
#126=VERTEX_POINT('',#462);
#127=VERTEX_POINT('',#470);
#128=VERTEX_POINT('',#471);
#129=VERTEX_POINT('',#475);
#130=VERTEX_POINT('',#477);
#131=VERTEX_POINT('',#479);
#132=VERTEX_POINT('',#481);
#133=VERTEX_POINT('',#491);
#134=VERTEX_POINT('',#496);
#135=VERTEX_POINT('',#500);
#136=VERTEX_POINT('',#501);
#137=VERTEX_POINT('',#503);
#138=VERTEX_POINT('',#508);
#139=VERTEX_POINT('',#513);
#140=VERTEX_POINT('',#515);
#141=VERTEX_POINT('',#519);
#142=VERTEX_POINT('',#522);
#143=VERTEX_POINT('',#523);
#144=VERTEX_POINT('',#528);
#145=VERTEX_POINT('',#530);
#146=VERTEX_POINT('',#534);
#147=VERTEX_POINT('',#536);
#148=EDGE_CURVE('',#121,#122,#117,.T.);
#149=EDGE_CURVE('',#123,#121,#87,.T.);
#150=EDGE_CURVE('',#123,#124,#88,.T.);
#151=EDGE_CURVE('',#125,#124,#89,.T.);
#152=EDGE_CURVE('',#126,#125,#118,.T.);
#153=EDGE_CURVE('',#122,#126,#90,.T.);
#154=EDGE_CURVE('',#124,#123,#48,.T.);
#155=EDGE_CURVE('',#127,#128,#119,.T.);
#156=EDGE_CURVE('',#129,#127,#91,.T.);
#157=EDGE_CURVE('',#129,#130,#92,.T.);
#158=EDGE_CURVE('',#131,#130,#93,.T.);
#159=EDGE_CURVE('',#132,#131,#120,.T.);
#160=EDGE_CURVE('',#128,#132,#94,.T.);
#161=EDGE_CURVE('',#130,#129,#49,.T.);
#162=EDGE_CURVE('',#128,#126,#28,.T.);
#163=EDGE_CURVE('',#122,#132,#29,.T.);
#164=EDGE_CURVE('',#133,#133,#30,.T.);
#165=EDGE_CURVE('',#125,#127,#31,.T.);
#166=EDGE_CURVE('',#131,#134,#32,.T.);
#167=EDGE_CURVE('',#134,#121,#33,.T.);
#168=EDGE_CURVE('',#135,#136,#34,.T.);
#169=EDGE_CURVE('',#136,#137,#35,.T.);
#170=EDGE_CURVE('',#137,#137,#36,.T.);
#171=EDGE_CURVE('',#136,#135,#37,.T.);
#172=EDGE_CURVE('',#138,#138,#38,.T.);
#173=EDGE_CURVE('',#135,#134,#95,.T.);
#174=EDGE_CURVE('',#139,#139,#39,.T.);
#175=EDGE_CURVE('',#139,#140,#96,.T.);
#176=EDGE_CURVE('',#140,#140,#40,.T.);
#177=EDGE_CURVE('',#141,#141,#41,.T.);
#178=EDGE_CURVE('',#142,#143,#42,.T.);
#179=EDGE_CURVE('',#143,#142,#43,.T.);
#180=EDGE_CURVE('',#143,#140,#97,.T.);
#181=EDGE_CURVE('',#141,#144,#98,.T.);
#182=EDGE_CURVE('',#144,#145,#44,.T.);
#183=EDGE_CURVE('',#145,#144,#45,.T.);
#184=EDGE_CURVE('',#145,#146,#99,.T.);
#185=EDGE_CURVE('',#147,#146,#46,.T.);
#186=EDGE_CURVE('',#146,#147,#47,.T.);
#187=EDGE_CURVE('',#147,#138,#100,.T.);
#188=EDGE_CURVE('',#133,#142,#101,.T.);
#189=ORIENTED_EDGE('',*,*,#148,.F.);
#190=ORIENTED_EDGE('',*,*,#149,.F.);
#191=ORIENTED_EDGE('',*,*,#150,.T.);
#192=ORIENTED_EDGE('',*,*,#151,.F.);
#193=ORIENTED_EDGE('',*,*,#152,.F.);
#194=ORIENTED_EDGE('',*,*,#153,.F.);
#195=ORIENTED_EDGE('',*,*,#154,.F.);
#196=ORIENTED_EDGE('',*,*,#150,.F.);
#197=ORIENTED_EDGE('',*,*,#155,.F.);
#198=ORIENTED_EDGE('',*,*,#156,.F.);
#199=ORIENTED_EDGE('',*,*,#157,.T.);
#200=ORIENTED_EDGE('',*,*,#158,.F.);
#201=ORIENTED_EDGE('',*,*,#159,.F.);
#202=ORIENTED_EDGE('',*,*,#160,.F.);
#203=ORIENTED_EDGE('',*,*,#161,.F.);
#204=ORIENTED_EDGE('',*,*,#157,.F.);
#205=ORIENTED_EDGE('',*,*,#153,.T.);
#206=ORIENTED_EDGE('',*,*,#162,.F.);
#207=ORIENTED_EDGE('',*,*,#160,.T.);
#208=ORIENTED_EDGE('',*,*,#163,.F.);
#209=ORIENTED_EDGE('',*,*,#164,.F.);
#210=ORIENTED_EDGE('',*,*,#152,.T.);
#211=ORIENTED_EDGE('',*,*,#165,.T.);
#212=ORIENTED_EDGE('',*,*,#155,.T.);
#213=ORIENTED_EDGE('',*,*,#162,.T.);
#214=ORIENTED_EDGE('',*,*,#148,.T.);
#215=ORIENTED_EDGE('',*,*,#163,.T.);
#216=ORIENTED_EDGE('',*,*,#159,.T.);
#217=ORIENTED_EDGE('',*,*,#166,.T.);
#218=ORIENTED_EDGE('',*,*,#167,.T.);
#219=ORIENTED_EDGE('',*,*,#168,.T.);
#220=ORIENTED_EDGE('',*,*,#169,.T.);
#221=ORIENTED_EDGE('',*,*,#170,.T.);
#222=ORIENTED_EDGE('',*,*,#169,.F.);
#223=ORIENTED_EDGE('',*,*,#171,.T.);
#224=ORIENTED_EDGE('',*,*,#172,.F.);
#225=ORIENTED_EDGE('',*,*,#170,.F.);
#226=ORIENTED_EDGE('',*,*,#168,.F.);
#227=ORIENTED_EDGE('',*,*,#173,.T.);
#228=ORIENTED_EDGE('',*,*,#166,.F.);
#229=ORIENTED_EDGE('',*,*,#158,.T.);
#230=ORIENTED_EDGE('',*,*,#161,.T.);
#231=ORIENTED_EDGE('',*,*,#156,.T.);
#232=ORIENTED_EDGE('',*,*,#165,.F.);
#233=ORIENTED_EDGE('',*,*,#151,.T.);
#234=ORIENTED_EDGE('',*,*,#154,.T.);
#235=ORIENTED_EDGE('',*,*,#149,.T.);
#236=ORIENTED_EDGE('',*,*,#167,.F.);
#237=ORIENTED_EDGE('',*,*,#173,.F.);
#238=ORIENTED_EDGE('',*,*,#171,.F.);
#239=ORIENTED_EDGE('',*,*,#174,.T.);
#240=ORIENTED_EDGE('',*,*,#175,.T.);
#241=ORIENTED_EDGE('',*,*,#176,.T.);
#242=ORIENTED_EDGE('',*,*,#175,.F.);
#243=ORIENTED_EDGE('',*,*,#177,.F.);
#244=ORIENTED_EDGE('',*,*,#174,.F.);
#245=ORIENTED_EDGE('',*,*,#178,.F.);
#246=ORIENTED_EDGE('',*,*,#179,.F.);
#247=ORIENTED_EDGE('',*,*,#180,.T.);
#248=ORIENTED_EDGE('',*,*,#176,.F.);
#249=ORIENTED_EDGE('',*,*,#180,.F.);
#250=ORIENTED_EDGE('',*,*,#177,.T.);
#251=ORIENTED_EDGE('',*,*,#181,.T.);
#252=ORIENTED_EDGE('',*,*,#182,.T.);
#253=ORIENTED_EDGE('',*,*,#183,.T.);
#254=ORIENTED_EDGE('',*,*,#181,.F.);
#255=ORIENTED_EDGE('',*,*,#182,.F.);
#256=ORIENTED_EDGE('',*,*,#183,.F.);
#257=ORIENTED_EDGE('',*,*,#184,.T.);
#258=ORIENTED_EDGE('',*,*,#185,.F.);
#259=ORIENTED_EDGE('',*,*,#186,.F.);
#260=ORIENTED_EDGE('',*,*,#184,.F.);
#261=ORIENTED_EDGE('',*,*,#185,.T.);
#262=ORIENTED_EDGE('',*,*,#186,.T.);
#263=ORIENTED_EDGE('',*,*,#187,.T.);
#264=ORIENTED_EDGE('',*,*,#172,.T.);
#265=ORIENTED_EDGE('',*,*,#187,.F.);
#266=ORIENTED_EDGE('',*,*,#164,.T.);
#267=ORIENTED_EDGE('',*,*,#188,.T.);
#268=ORIENTED_EDGE('',*,*,#178,.T.);
#269=ORIENTED_EDGE('',*,*,#179,.T.);
#270=ORIENTED_EDGE('',*,*,#188,.F.);
#271=PLANE('',#315);
#272=PLANE('',#316);
#273=PLANE('',#318);
#274=PLANE('',#319);
#275=PLANE('',#321);
#276=PLANE('',#335);
#277=PLANE('',#341);
#278=ADVANCED_FACE('',(#50),#271,.F.);
#279=ADVANCED_FACE('',(#51),#272,.F.);
#280=ADVANCED_FACE('',(#52),#273,.F.);
#281=ADVANCED_FACE('',(#53),#274,.F.);
#282=ADVANCED_FACE('',(#54,#25),#275,.T.);
#283=ADVANCED_FACE('',(#55),#19,.T.);
#284=ADVANCED_FACE('',(#56),#20,.T.);
#285=ADVANCED_FACE('',(#57),#18,.F.);
#286=ADVANCED_FACE('',(#58,#26),#276,.T.);
#287=ADVANCED_FACE('',(#59),#15,.T.);
#288=ADVANCED_FACE('',(#60),#21,.F.);
#289=ADVANCED_FACE('',(#61,#27),#277,.T.);
#290=ADVANCED_FACE('',(#62),#16,.F.);
#291=ADVANCED_FACE('',(#63),#22,.T.);
#292=ADVANCED_FACE('',(#64),#17,.T.);
#293=ADVANCED_FACE('',(#65),#23,.T.);
#294=ADVANCED_FACE('',(#66),#24,.F.);
#295=CLOSED_SHELL('',(#278,#279,#280,#281,#282,#283,#284,#285,#286,#287,
#288,#289,#290,#291,#292,#293,#294));
#296=DERIVED_UNIT_ELEMENT(#298,1.);
#297=DERIVED_UNIT_ELEMENT(#548,-3.);
#298=(
MASS_UNIT()
NAMED_UNIT(*)
SI_UNIT($,.GRAM.)
);
#299=DERIVED_UNIT((#296,#297));
#300=MEASURE_REPRESENTATION_ITEM('density measure',
POSITIVE_RATIO_MEASURE(1.),#299);
#301=PROPERTY_DEFINITION_REPRESENTATION(#306,#303);
#302=PROPERTY_DEFINITION_REPRESENTATION(#307,#304);
#303=REPRESENTATION('material name',(#305),#545);
#304=REPRESENTATION('density',(#300),#545);
#305=DESCRIPTIVE_REPRESENTATION_ITEM('Generisch','Generisch');
#306=PROPERTY_DEFINITION('material property','material name',#555);
#307=PROPERTY_DEFINITION('material property','density of part',#555);
#308=DATE_TIME_ROLE('creation_date');
#309=APPLIED_DATE_AND_TIME_ASSIGNMENT(#310,#308,(#555));
#310=DATE_AND_TIME(#311,#312);
#311=CALENDAR_DATE(2021,17,6);
#312=LOCAL_TIME(0,0,0.,#313);
#313=COORDINATED_UNIVERSAL_TIME_OFFSET(0,0,.BEHIND.);
#314=AXIS2_PLACEMENT_3D('placement',#449,#354,#355);
#315=AXIS2_PLACEMENT_3D('',#450,#356,#357);
#316=AXIS2_PLACEMENT_3D('',#467,#362,#363);
#317=AXIS2_PLACEMENT_3D('',#468,#364,#365);
#318=AXIS2_PLACEMENT_3D('',#469,#366,#367);
#319=AXIS2_PLACEMENT_3D('',#486,#372,#373);
#320=AXIS2_PLACEMENT_3D('',#487,#374,#375);
#321=AXIS2_PLACEMENT_3D('',#488,#376,#377);
#322=AXIS2_PLACEMENT_3D('',#489,#378,#379);
#323=AXIS2_PLACEMENT_3D('',#490,#380,#381);
#324=AXIS2_PLACEMENT_3D('',#492,#382,#383);
#325=AXIS2_PLACEMENT_3D('',#493,#384,#385);
#326=AXIS2_PLACEMENT_3D('',#494,#386,#387);
#327=AXIS2_PLACEMENT_3D('',#495,#388,#389);
#328=AXIS2_PLACEMENT_3D('',#497,#390,#391);
#329=AXIS2_PLACEMENT_3D('',#498,#392,#393);
#330=AXIS2_PLACEMENT_3D('',#499,#394,#395);
#331=AXIS2_PLACEMENT_3D('',#502,#396,#397);
#332=AXIS2_PLACEMENT_3D('',#504,#398,#399);
#333=AXIS2_PLACEMENT_3D('',#505,#400,#401);
#334=AXIS2_PLACEMENT_3D('',#506,#402,#403);
#335=AXIS2_PLACEMENT_3D('',#507,#404,#405);
#336=AXIS2_PLACEMENT_3D('',#509,#406,#407);
#337=AXIS2_PLACEMENT_3D('',#510,#408,#409);
#338=AXIS2_PLACEMENT_3D('',#512,#411,#412);
#339=AXIS2_PLACEMENT_3D('',#514,#413,#414);
#340=AXIS2_PLACEMENT_3D('',#517,#416,#417);
#341=AXIS2_PLACEMENT_3D('',#518,#418,#419);
#342=AXIS2_PLACEMENT_3D('',#520,#420,#421);
#343=AXIS2_PLACEMENT_3D('',#521,#422,#423);
#344=AXIS2_PLACEMENT_3D('',#524,#424,#425);
#345=AXIS2_PLACEMENT_3D('',#525,#426,#427);
#346=AXIS2_PLACEMENT_3D('',#527,#429,#430);
#347=AXIS2_PLACEMENT_3D('',#531,#432,#433);
#348=AXIS2_PLACEMENT_3D('',#532,#434,#435);
#349=AXIS2_PLACEMENT_3D('',#533,#436,#437);
#350=AXIS2_PLACEMENT_3D('',#537,#439,#440);
#351=AXIS2_PLACEMENT_3D('',#538,#441,#442);
#352=AXIS2_PLACEMENT_3D('',#539,#443,#444);
#353=AXIS2_PLACEMENT_3D('',#541,#446,#447);
#354=DIRECTION('axis',(0.,0.,1.));
#355=DIRECTION('refdir',(1.,0.,0.));
#356=DIRECTION('center_axis',(0.,7.22965798773473E-17,-1.));
#357=DIRECTION('ref_axis',(0.,1.,7.22965798773473E-17));
#358=DIRECTION('',(-1.,0.,0.));
#359=DIRECTION('',(0.,1.,7.22965798773473E-17));
#360=DIRECTION('',(1.,0.,0.));
#361=DIRECTION('',(0.,1.,7.22965798773473E-17));
#362=DIRECTION('center_axis',(0.707106781186548,5.11214018878672E-17,-0.707106781186548));
#363=DIRECTION('ref_axis',(-0.707106781186548,-2.11751779894801E-17,-0.707106781186548));
#364=DIRECTION('center_axis',(0.707106781186548,5.11214018878672E-17,-0.707106781186548));
#365=DIRECTION('ref_axis',(0.707106781186547,0.,0.707106781186547));
#366=DIRECTION('center_axis',(0.,0.,1.));
#367=DIRECTION('ref_axis',(0.,-1.,0.));
#368=DIRECTION('',(-1.,0.,0.));
#369=DIRECTION('',(0.,-1.,0.));
#370=DIRECTION('',(1.,0.,0.));
#371=DIRECTION('',(0.,-1.,0.));
#372=DIRECTION('center_axis',(0.707106781186548,0.,0.707106781186548));
#373=DIRECTION('ref_axis',(0.707106781186548,0.,-0.707106781186548));
#374=DIRECTION('center_axis',(0.707106781186548,0.,0.707106781186548));
#375=DIRECTION('ref_axis',(-0.707106781186547,0.,0.707106781186547));
#376=DIRECTION('center_axis',(-1.,0.,0.));
#377=DIRECTION('ref_axis',(0.,0.,1.));
#378=DIRECTION('center_axis',(1.,0.,0.));
#379=DIRECTION('ref_axis',(0.,-1.,0.));
#380=DIRECTION('center_axis',(1.,0.,0.));
#381=DIRECTION('ref_axis',(0.,-1.,0.));
#382=DIRECTION('center_axis',(-1.,0.,0.));
#383=DIRECTION('ref_axis',(0.,0.,-1.));
#384=DIRECTION('center_axis',(1.,0.,0.));
#385=DIRECTION('ref_axis',(0.,1.,1.01064309961486E-15));
#386=DIRECTION('center_axis',(-1.,0.,0.));
#387=DIRECTION('ref_axis',(0.,-1.,0.));
#388=DIRECTION('center_axis',(1.,0.,0.));
#389=DIRECTION('ref_axis',(0.,-1.,0.));
#390=DIRECTION('center_axis',(-1.,0.,0.));
#391=DIRECTION('ref_axis',(0.,-1.,0.));
#392=DIRECTION('center_axis',(-1.,0.,0.));
#393=DIRECTION('ref_axis',(0.,-1.,0.));
#394=DIRECTION('center_axis',(1.,0.,0.));
#395=DIRECTION('ref_axis',(0.,0.,-1.));
#396=DIRECTION('center_axis',(1.,0.,0.));
#397=DIRECTION('ref_axis',(0.,-1.,1.83697019872103E-16));
#398=DIRECTION('center_axis',(0.,-1.,-1.22464679914735E-16));
#399=DIRECTION('ref_axis',(0.,-1.22464679914735E-16,1.));
#400=DIRECTION('center_axis',(-1.,0.,0.));
#401=DIRECTION('ref_axis',(0.,-1.,1.83697019872103E-16));
#402=DIRECTION('center_axis',(1.,0.,0.));
#403=DIRECTION('ref_axis',(0.,-1.,1.83697019872103E-16));
#404=DIRECTION('center_axis',(-1.,0.,0.));
#405=DIRECTION('ref_axis',(0.,0.,1.));
#406=DIRECTION('center_axis',(1.,0.,0.));
#407=DIRECTION('ref_axis',(0.,-1.,0.));
#408=DIRECTION('center_axis',(1.,0.,0.));
#409=DIRECTION('ref_axis',(0.,1.,0.));
#410=DIRECTION('',(-1.,0.,0.));
#411=DIRECTION('center_axis',(1.,0.,0.));
#412=DIRECTION('ref_axis',(0.,0.,1.));
#413=DIRECTION('center_axis',(1.,0.,0.));
#414=DIRECTION('ref_axis',(0.,0.,1.));
#415=DIRECTION('',(-0.70710678118655,-8.6595605623549E-17,0.707106781186545));
#416=DIRECTION('center_axis',(-1.,0.,0.));
#417=DIRECTION('ref_axis',(0.,0.,1.));
#418=DIRECTION('center_axis',(1.,0.,0.));
#419=DIRECTION('ref_axis',(0.,0.,-1.));
#420=DIRECTION('center_axis',(-1.,0.,0.));
#421=DIRECTION('ref_axis',(0.,-1.,0.));
#422=DIRECTION('center_axis',(-1.,0.,0.));
#423=DIRECTION('ref_axis',(0.,0.,1.));
#424=DIRECTION('center_axis',(1.,0.,0.));
#425=DIRECTION('ref_axis',(0.,0.,-1.));
#426=DIRECTION('center_axis',(1.,0.,0.));
#427=DIRECTION('ref_axis',(0.,0.,-1.));
#428=DIRECTION('',(1.,0.,0.));
#429=DIRECTION('center_axis',(-1.,0.,0.));
#430=DIRECTION('ref_axis',(0.,-1.,0.));
#431=DIRECTION('',(-0.70710678118655,0.707106781186545,8.6595605623549E-17));
#432=DIRECTION('center_axis',(1.,0.,0.));
#433=DIRECTION('ref_axis',(0.,-1.,0.));
#434=DIRECTION('center_axis',(1.,0.,0.));
#435=DIRECTION('ref_axis',(0.,-1.,0.));
#436=DIRECTION('center_axis',(1.,0.,0.));
#437=DIRECTION('ref_axis',(0.,1.,0.));
#438=DIRECTION('',(-1.,0.,0.));
#439=DIRECTION('center_axis',(-1.,0.,0.));
#440=DIRECTION('ref_axis',(0.,-1.,0.));
#441=DIRECTION('center_axis',(-1.,0.,0.));
#442=DIRECTION('ref_axis',(0.,-1.,0.));
#443=DIRECTION('center_axis',(1.,0.,0.));
#444=DIRECTION('ref_axis',(0.,-1.,0.));
#445=DIRECTION('',(-0.707106781186549,-0.707106781186546,-8.65956056235492E-17));
#446=DIRECTION('center_axis',(-1.,0.,0.));
#447=DIRECTION('ref_axis',(0.,0.,-1.));
#448=DIRECTION('',(0.707106781186548,-8.65956056235493E-17,-0.707106781186547));
#449=CARTESIAN_POINT('',(0.,0.,0.));
#450=CARTESIAN_POINT('Origin',(-20.5,-31.3136081715316,17.5));
#451=CARTESIAN_POINT('',(-20.2,-7.39932429347437,17.5));
#452=CARTESIAN_POINT('',(-20.5,-6.59090282131364,17.5));
#453=CARTESIAN_POINT('Ctrl Pts',(-20.2,-7.39932429347438,17.5));
#454=CARTESIAN_POINT('Ctrl Pts',(-20.3586677092394,-6.99189702633774,17.5));
#455=CARTESIAN_POINT('Ctrl Pts',(-20.5,-6.59090282131364,17.5));
#456=CARTESIAN_POINT('',(-9.50000000000001,-7.39932429347438,17.5));
#457=CARTESIAN_POINT('',(-12.,-7.39932429347437,17.5));
#458=CARTESIAN_POINT('',(-9.50000000000001,7.39932429347437,17.5));
#459=CARTESIAN_POINT('',(-9.50000000000001,30.1124247892903,17.5));
#460=CARTESIAN_POINT('',(-20.2,7.39932429347436,17.5));
#461=CARTESIAN_POINT('',(-12.,7.39932429347436,17.5));
#462=CARTESIAN_POINT('',(-20.5,6.59090282131363,17.5));
#463=CARTESIAN_POINT('Ctrl Pts',(-20.5,6.59090282131364,17.5));
#464=CARTESIAN_POINT('Ctrl Pts',(-20.3586677092394,6.99189702633764,17.5));
#465=CARTESIAN_POINT('Ctrl Pts',(-20.2,7.39932429347438,17.5));
#466=CARTESIAN_POINT('',(-20.5,-6.15680408576579,17.5));
#467=CARTESIAN_POINT('Origin',(-3.33478199953624,-0.600591691120646,23.6652180004638));
#468=CARTESIAN_POINT('Origin',(-27.,0.,0.));
#469=CARTESIAN_POINT('Origin',(-20.5,30.1124247892903,-17.5));
#470=CARTESIAN_POINT('',(-20.2,7.39932429347438,-17.5));
#471=CARTESIAN_POINT('',(-20.5,6.59090282131365,-17.5));
#472=CARTESIAN_POINT('Ctrl Pts',(-20.2,7.39932429347439,-17.5));
#473=CARTESIAN_POINT('Ctrl Pts',(-20.3586677092394,6.99189702633766,-17.5));
#474=CARTESIAN_POINT('Ctrl Pts',(-20.5,6.59090282131365,-17.5));
#475=CARTESIAN_POINT('',(-9.50000000000001,7.39932429347438,-17.5));
#476=CARTESIAN_POINT('',(-12.,7.39932429347438,-17.5));
#477=CARTESIAN_POINT('',(-9.50000000000001,-7.39932429347438,-17.5));
#478=CARTESIAN_POINT('',(-9.50000000000001,-31.3136081715316,-17.5));
#479=CARTESIAN_POINT('',(-20.2,-7.39932429347438,-17.5));
#480=CARTESIAN_POINT('',(-12.,-7.39932429347438,-17.5));
#481=CARTESIAN_POINT('',(-20.5,-6.59090282131365,-17.5));
#482=CARTESIAN_POINT('Ctrl Pts',(-20.5,-6.59090282131365,-17.5));
#483=CARTESIAN_POINT('Ctrl Pts',(-20.3586677092394,-6.99189702633766,-17.5));
#484=CARTESIAN_POINT('Ctrl Pts',(-20.2,-7.39932429347439,-17.5));
#485=CARTESIAN_POINT('',(-20.5,24.5562123946451,-17.5));
#486=CARTESIAN_POINT('Origin',(-4.22807961955592,-0.600591691120647,-22.7719203804441));
#487=CARTESIAN_POINT('Origin',(-27.,0.,0.));
#488=CARTESIAN_POINT('Origin',(-20.5,19.,0.));
#489=CARTESIAN_POINT('Origin',(-20.5,0.,0.));
#490=CARTESIAN_POINT('Origin',(-20.5,0.,0.));
#491=CARTESIAN_POINT('',(-20.5,1.66043736262394E-15,13.5585));
#492=CARTESIAN_POINT('Origin',(-20.5,0.,0.));
#493=CARTESIAN_POINT('Origin',(-20.35,0.,0.));
#494=CARTESIAN_POINT('Origin',(-20.2,0.,0.));
#495=CARTESIAN_POINT('Origin',(-20.35,0.,0.));
#496=CARTESIAN_POINT('',(-20.2,-19.,-2.32682891837997E-15));
#497=CARTESIAN_POINT('Origin',(-20.2,0.,0.));
#498=CARTESIAN_POINT('Origin',(-20.2,0.,0.));
#499=CARTESIAN_POINT('Origin',(-4.3,0.,0.));
#500=CARTESIAN_POINT('',(-4.3,-19.,-2.32682891837997E-15));
#501=CARTESIAN_POINT('',(-4.3,-2.32682891837997E-15,19.));
#502=CARTESIAN_POINT('Origin',(-4.3,0.,0.));
#503=CARTESIAN_POINT('',(-3.5,-2.42480066231176E-15,19.8));
#504=CARTESIAN_POINT('Origin',(-4.3,-2.42480066231176E-15,19.8));
#505=CARTESIAN_POINT('Origin',(-3.5,0.,0.));
#506=CARTESIAN_POINT('Origin',(-4.3,0.,0.));
#507=CARTESIAN_POINT('Origin',(-3.5,22.,0.));
#508=CARTESIAN_POINT('',(-3.5,21.7,2.65748355414976E-15));
#509=CARTESIAN_POINT('Origin',(-3.5,0.,0.));
#510=CARTESIAN_POINT('Origin',(-12.,0.,0.));
#511=CARTESIAN_POINT('',(-12.,-19.,-2.32682891837997E-15));
#512=CARTESIAN_POINT('Origin',(-0.150000000000001,0.,0.));
#513=CARTESIAN_POINT('',(0.,1.51347974672626E-15,-12.3585));
#514=CARTESIAN_POINT('Origin',(0.,0.,0.));
#515=CARTESIAN_POINT('',(-0.300000000000002,-1.47674034275184E-15,-12.0585));
#516=CARTESIAN_POINT('',(-0.150000000000001,1.49511004473905E-15,-12.2085));
#517=CARTESIAN_POINT('Origin',(-0.300000000000002,0.,0.));
#518=CARTESIAN_POINT('Origin',(0.,0.,0.));
#519=CARTESIAN_POINT('',(0.,21.7,-2.65748355414976E-15));
#520=CARTESIAN_POINT('Origin',(0.,0.,0.));
#521=CARTESIAN_POINT('Origin',(45.0152653966997,0.,0.));
#522=CARTESIAN_POINT('',(-19.,-1.47674034275184E-15,12.0585));
#523=CARTESIAN_POINT('',(-19.,-1.47674034275184E-15,-12.0585));
#524=CARTESIAN_POINT('Origin',(-19.,0.,0.));
#525=CARTESIAN_POINT('Origin',(-19.,0.,0.));
#526=CARTESIAN_POINT('',(45.0152653966997,-1.47674034275184E-15,-12.0585));
#527=CARTESIAN_POINT('Origin',(-0.15,0.,0.));
#528=CARTESIAN_POINT('',(-0.3,22.,2.69422295812418E-15));
#529=CARTESIAN_POINT('',(-0.15,21.85,2.67585325613697E-15));
#530=CARTESIAN_POINT('',(-0.3,-22.,-2.69422295812418E-15));
#531=CARTESIAN_POINT('Origin',(-0.3,0.,0.));
#532=CARTESIAN_POINT('Origin',(-0.3,0.,0.));
#533=CARTESIAN_POINT('Origin',(-1.75,0.,0.));
#534=CARTESIAN_POINT('',(-3.20000000000001,-22.,-2.69422295812418E-15));
#535=CARTESIAN_POINT('',(-1.75,-22.,-2.69422295812418E-15));
#536=CARTESIAN_POINT('',(-3.20000000000001,22.,-2.69422295812418E-15));
#537=CARTESIAN_POINT('Origin',(-3.20000000000001,0.,0.));
#538=CARTESIAN_POINT('Origin',(-3.20000000000001,0.,0.));
#539=CARTESIAN_POINT('Origin',(-3.35,0.,0.));
#540=CARTESIAN_POINT('',(-3.35,21.85,2.67585325613697E-15));
#541=CARTESIAN_POINT('Origin',(-19.75,0.,0.));
#542=CARTESIAN_POINT('',(-19.75,1.56858885268789E-15,12.8085));
#543=UNCERTAINTY_MEASURE_WITH_UNIT(LENGTH_MEASURE(0.01),#547,
'DISTANCE_ACCURACY_VALUE',
'Maximum model space distance between geometric entities at asserted c
onnectivities');
#544=UNCERTAINTY_MEASURE_WITH_UNIT(LENGTH_MEASURE(0.01),#547,
'DISTANCE_ACCURACY_VALUE',
'Maximum model space distance between geometric entities at asserted c
onnectivities');
#545=(
GEOMETRIC_REPRESENTATION_CONTEXT(3)
GLOBAL_UNCERTAINTY_ASSIGNED_CONTEXT((#543))
GLOBAL_UNIT_ASSIGNED_CONTEXT((#547,#549,#550))
REPRESENTATION_CONTEXT('','3D')
);
#546=(
GEOMETRIC_REPRESENTATION_CONTEXT(3)
GLOBAL_UNCERTAINTY_ASSIGNED_CONTEXT((#544))
GLOBAL_UNIT_ASSIGNED_CONTEXT((#547,#549,#550))
REPRESENTATION_CONTEXT('','3D')
);
#547=(
LENGTH_UNIT()
NAMED_UNIT(*)
SI_UNIT(.MILLI.,.METRE.)
);
#548=(
LENGTH_UNIT()
NAMED_UNIT(*)
SI_UNIT(.CENTI.,.METRE.)
);
#549=(
NAMED_UNIT(*)
PLANE_ANGLE_UNIT()
SI_UNIT($,.RADIAN.)
);
#550=(
NAMED_UNIT(*)
SI_UNIT($,.STERADIAN.)
SOLID_ANGLE_UNIT()
);
#551=SHAPE_DEFINITION_REPRESENTATION(#552,#553);
#552=PRODUCT_DEFINITION_SHAPE('',$,#555);
#553=SHAPE_REPRESENTATION('',(#314),#545);
#554=PRODUCT_DEFINITION_CONTEXT('part definition',#559,'design');
#555=PRODUCT_DEFINITION('3D_R666-E-DN20-DN40_17113145',
'3D_R666-E-DN20-DN40_17113145',#556,#554);
#556=PRODUCT_DEFINITION_FORMATION('',$,#561);
#557=PRODUCT_RELATED_PRODUCT_CATEGORY('3D_R666-E-DN20-DN40_17113145',
'3D_R666-E-DN20-DN40_17113145',(#561));
#558=APPLICATION_PROTOCOL_DEFINITION('international standard',
'automotive_design',2009,#559);
#559=APPLICATION_CONTEXT(
'Core Data for Automotive Mechanical Design Process');
#560=PRODUCT_CONTEXT('part definition',#559,'mechanical');
#561=PRODUCT('3D_R666-E-DN20-DN40_17113145',
'3D_R666-E-DN20-DN40_17113145',$,(#560));
#562=PRESENTATION_STYLE_ASSIGNMENT((#563));
#563=SURFACE_STYLE_USAGE(.BOTH.,#566);
#564=SURFACE_STYLE_RENDERING_WITH_PROPERTIES($,#570,(#565));
#565=SURFACE_STYLE_TRANSPARENT(0.);
#566=SURFACE_SIDE_STYLE('',(#567,#564));
#567=SURFACE_STYLE_FILL_AREA(#568);
#568=FILL_AREA_STYLE('',(#569));
#569=FILL_AREA_STYLE_COLOUR('',#570);
#570=COLOUR_RGB('',0.749019607843137,0.749019607843137,0.749019607843137);
ENDSEC;
END-ISO-10303-21;
