ISO-10303-21;
HEADER;
FILE_DESCRIPTION (( 'STEP AP203' ),
    '1' );
FILE_NAME ('3D_M2060_25-20_174121035.STEP',
    '2024-09-05T10:15:27',
    ( '' ),
    ( '' ),
    'SwSTEP 2.0',
    'SolidWorks 2024',
    '' );
FILE_SCHEMA (( 'CONFIG_CONTROL_DESIGN' ));
ENDSEC;

DATA;
#1 = DIRECTION ( 'NONE',  ( 1.000000000000000000, 0.000000000000000000, 0.000000000000000000 ) ) ;
#2 = CARTESIAN_POINT ( 'NONE',  ( 0.000000000000000000, 0.000000000000000000, 0.000000000000000000 ) ) ;
#3 = CALENDAR_DATE ( 2024, 5, 9 ) ;
#4 = DATE_TIME_ROLE ( 'classification_date' ) ;
#5 = DATE_AND_TIME ( #172, #128 ) ;
#6 = DIRECTION ( 'NONE',  ( 0.000000000000000000, 0.000000000000000000, -1.000000000000000000 ) ) ;
#7 = AXIS2_PLACEMENT_3D ( 'NONE', #143, #49, #142 ) ;
#8 = PERSON_AND_ORGANIZATION ( #162, #17 ) ;
#9 = ADVANCED_FACE ( 'NONE', ( #28 ), #205, .F. ) ;
#10 = FACE_BOUND ( 'NONE', #198, .T. ) ;
#11 = ADVANCED_BREP_SHAPE_REPRESENTATION ( '3D_M2060_25-20_174121035', ( #228, #86 ), #105 ) ;
#12 = CARTESIAN_POINT ( 'NONE',  ( 10.60532389131183706, 1.047422560305559652E-15, -8.552854268143402550 ) ) ;
#13 = CC_DESIGN_APPROVAL ( #22, ( #98 ) ) ;
#14 = CARTESIAN_POINT ( 'NONE',  ( 11.00000000000000000, 0.000000000000000000, 0.000000000000000000 ) ) ;
#15 = EDGE_CURVE ( 'NONE', #184, #73, #122, .T. ) ;
#16 = DESIGN_CONTEXT ( 'detailed design', #126, 'design' ) ;
#17 = ORGANIZATION ( 'UNSPECIFIED', 'UNSPECIFIED', '' ) ;
#18 = EDGE_CURVE ( 'NONE', #107, #184, #129, .T. ) ;
#19 = ORIENTED_EDGE ( 'NONE', *, *, #106, .F. ) ;
#20 = CONICAL_SURFACE ( 'NONE', #156, 8.552854268143402550, 0.2662520491509254295 ) ;
#21 = ORIENTED_EDGE ( 'NONE', *, *, #52, .T. ) ;
#22 = APPROVAL ( #218, 'UNSPECIFIED' ) ;
#23 = CARTESIAN_POINT ( 'NONE',  ( 11.00000000000000000, 6.123233995736766282E-16, 10.00000000000000000 ) ) ;
#24 = DATE_AND_TIME ( #78, #202 ) ;
#25 = LINE ( 'NONE', #239, #199 ) ;
#26 = SHAPE_DEFINITION_REPRESENTATION ( #124, #11 ) ;
#27 =( NAMED_UNIT ( * ) SI_UNIT ( $, .STERADIAN. ) SOLID_ANGLE_UNIT ( ) );
#28 = FACE_OUTER_BOUND ( 'NONE', #80, .T. ) ;
#29 = PERSON_AND_ORGANIZATION ( #162, #17 ) ;
#30 = DIRECTION ( 'NONE',  ( 0.000000000000000000, 0.000000000000000000, -1.000000000000000000 ) ) ;
#31 = AXIS2_PLACEMENT_3D ( 'NONE', #220, #173, #6 ) ;
#32 = EDGE_CURVE ( 'NONE', #73, #184, #226, .T. ) ;
#33 = PLANE ( 'NONE',  #7 ) ;
#34 = FACE_OUTER_BOUND ( 'NONE', #36, .T. ) ;
#35 = ADVANCED_FACE ( 'NONE', ( #139 ), #20, .F. ) ;
#36 = EDGE_LOOP ( 'NONE', ( #155, #19, #191, #37 ) ) ;
#37 = ORIENTED_EDGE ( 'NONE', *, *, #108, .T. ) ;
#38 = ORIENTED_EDGE ( 'NONE', *, *, #18, .F. ) ;
#39 = ORIENTED_EDGE ( 'NONE', *, *, #108, .F. ) ;
#40 = LOCAL_TIME ( 12, 15, 27.00000000000000000, #237 ) ;
#41 = CARTESIAN_POINT ( 'NONE',  ( 11.00000000000000000, 0.000000000000000000, 0.000000000000000000 ) ) ;
#42 = PLANE ( 'NONE',  #70 ) ;
#43 = CC_DESIGN_SECURITY_CLASSIFICATION ( #98, ( #247 ) ) ;
#44 = DIRECTION ( 'NONE',  ( 0.000000000000000000, 0.000000000000000000, 1.000000000000000000 ) ) ;
#45 = DIRECTION ( 'NONE',  ( -0.9647638212377321887, 0.000000000000000000, 0.2631174057921088494 ) ) ;
#46 = ORIENTED_EDGE ( 'NONE', *, *, #72, .T. ) ;
#47 = FACE_BOUND ( 'NONE', #235, .T. ) ;
#48 = SECURITY_CLASSIFICATION_LEVEL ( 'unclassified' ) ;
#49 = DIRECTION ( 'NONE',  ( 1.000000000000000000, 0.000000000000000000, 0.000000000000000000 ) ) ;
#50 = DIRECTION ( 'NONE',  ( -1.000000000000000000, -0.000000000000000000, -0.000000000000000000 ) ) ;
#51 = ORIENTED_EDGE ( 'NONE', *, *, #32, .T. ) ;
#52 = EDGE_CURVE ( 'NONE', #249, #107, #241, .T. ) ;
#53 = ORIENTED_EDGE ( 'NONE', *, *, #97, .T. ) ;
#54 = VERTEX_POINT ( 'NONE', #23 ) ;
#55 = APPROVAL_PERSON_ORGANIZATION ( #131, #163, #62 ) ;
#56 = DIRECTION ( 'NONE',  ( 0.000000000000000000, 0.000000000000000000, 1.000000000000000000 ) ) ;
#57 = VERTEX_POINT ( 'NONE', #115 ) ;
#58 = ADVANCED_FACE ( 'NONE', ( #10, #196 ), #42, .T. ) ;
#59 =( NAMED_UNIT ( * ) PLANE_ANGLE_UNIT ( ) SI_UNIT ( $, .RADIAN. ) );
#60 = CC_DESIGN_APPROVAL ( #163, ( #247 ) ) ;
#61 = DIRECTION ( 'NONE',  ( 0.000000000000000000, 0.000000000000000000, -1.000000000000000000 ) ) ;
#62 = APPROVAL_ROLE ( '' ) ;
#63 = AXIS2_PLACEMENT_3D ( 'NONE', #204, #161, #203 ) ;
#64 = CARTESIAN_POINT ( 'NONE',  ( 0.000000000000000000, 1.401634631871450435E-15, -11.44521532941026720 ) ) ;
#65 = PERSON_AND_ORGANIZATION ( #162, #17 ) ;
#66 = CARTESIAN_POINT ( 'NONE',  ( 0.000000000000000000, 0.000000000000000000, 0.000000000000000000 ) ) ;
#67 = DIRECTION ( 'NONE',  ( 0.000000000000000000, 0.000000000000000000, -1.000000000000000000 ) ) ;
#68 = CARTESIAN_POINT ( 'NONE',  ( 11.00000000000000000, 0.000000000000000000, 10.00000000000000000 ) ) ;
#69 = CLOSED_SHELL ( 'NONE', ( #35, #154, #58, #222, #230, #9 ) ) ;
#70 = AXIS2_PLACEMENT_3D ( 'NONE', #41, #111, #136 ) ;
#71 = PRODUCT ( '3D_M2060_25-20_174121035', '3D_M2060_25-20_174121035', '', ( #210 ) ) ;
#72 = EDGE_CURVE ( 'NONE', #107, #249, #132, .T. ) ;
#73 = VERTEX_POINT ( 'NONE', #64 ) ;
#74 = DIRECTION ( 'NONE',  ( 0.000000000000000000, 0.000000000000000000, -1.000000000000000000 ) ) ;
#75 = APPROVAL_ROLE ( '' ) ;
#76 = CIRCLE ( 'NONE', #110, 10.00000000000000000 ) ;
#77 = EDGE_LOOP ( 'NONE', ( #127, #215 ) ) ;
#78 = CALENDAR_DATE ( 2024, 5, 9 ) ;
#79 = APPROVAL_ROLE ( '' ) ;
#80 = EDGE_LOOP ( 'NONE', ( #240, #21, #90, #166 ) ) ;
#81 = AXIS2_PLACEMENT_3D ( 'NONE', #244, #176, #208 ) ;
#82 = DIRECTION ( 'NONE',  ( -1.000000000000000000, -0.000000000000000000, -0.000000000000000000 ) ) ;
#83 = PERSON_AND_ORGANIZATION ( #162, #17 ) ;
#84 = CARTESIAN_POINT ( 'NONE',  ( 0.000000000000000000, 2.388061258337338939E-15, -13.00000000000000178 ) ) ;
#85 = CARTESIAN_POINT ( 'NONE',  ( 11.00000000000000000, 0.000000000000000000, 0.000000000000000000 ) ) ;
#86 = AXIS2_PLACEMENT_3D ( 'NONE', #146, #56, #1 ) ;
#87 = APPROVAL_PERSON_ORGANIZATION ( #65, #22, #75 ) ;
#88 = AXIS2_PLACEMENT_3D ( 'NONE', #91, #151, #74 ) ;
#89 = ORIENTED_EDGE ( 'NONE', *, *, #181, .F. ) ;
#90 = ORIENTED_EDGE ( 'NONE', *, *, #18, .T. ) ;
#91 = CARTESIAN_POINT ( 'NONE',  ( 11.00000000000000000, 0.000000000000000000, 0.000000000000000000 ) ) ;
#92 = DIRECTION ( 'NONE',  ( -0.9647638212377321887, 3.222258888032613739E-17, -0.2631174057921088494 ) ) ;
#93 = CARTESIAN_POINT ( 'NONE',  ( 0.000000000000000000, 0.000000000000000000, 0.000000000000000000 ) ) ;
#94 = CC_DESIGN_APPROVAL ( #160, ( #243 ) ) ;
#95 = CARTESIAN_POINT ( 'NONE',  ( 10.60532389131183706, 0.000000000000000000, 0.000000000000000000 ) ) ;
#96 = PRODUCT_RELATED_PRODUCT_CATEGORY ( 'detail', '', ( #71 ) ) ;
#97 = EDGE_CURVE ( 'NONE', #57, #167, #25, .T. ) ;
#98 = SECURITY_CLASSIFICATION ( '', '', #48 ) ;
#99 = PERSON_AND_ORGANIZATION ( #162, #17 ) ;
#100 = CIRCLE ( 'NONE', #63, 13.00000000000000178 ) ;
#101 = APPLICATION_CONTEXT ( 'configuration controlled 3d designs of mechanical parts and assemblies' ) ;
#102 = VECTOR ( 'NONE', #45, 1000.000000000000000 ) ;
#103 = DIRECTION ( 'NONE',  ( -0.9647638212377321887, 0.000000000000000000, 0.2631174057921088494 ) ) ;
#104 = UNCERTAINTY_MEASURE_WITH_UNIT (LENGTH_MEASURE( 1.000000000000000082E-05 ), #223, 'distance_accuracy_value', 'NONE');
#105 =( GEOMETRIC_REPRESENTATION_CONTEXT ( 3 ) GLOBAL_UNCERTAINTY_ASSIGNED_CONTEXT ( ( #104 ) ) GLOBAL_UNIT_ASSIGNED_CONTEXT ( ( #223, #59, #27 ) ) REPRESENTATION_CONTEXT ( 'NONE', 'WORKASPACE' ) );
#106 = EDGE_CURVE ( 'NONE', #54, #57, #182, .T. ) ;
#107 = VERTEX_POINT ( 'NONE', #217 ) ;
#108 = EDGE_CURVE ( 'NONE', #109, #167, #211, .T. ) ;
#109 = VERTEX_POINT ( 'NONE', #117 ) ;
#110 = AXIS2_PLACEMENT_3D ( 'NONE', #85, #225, #123 ) ;
#111 = DIRECTION ( 'NONE',  ( 1.000000000000000000, 0.000000000000000000, 0.000000000000000000 ) ) ;
#112 = CALENDAR_DATE ( 2024, 5, 9 ) ;
#113 = ORIENTED_EDGE ( 'NONE', *, *, #52, .F. ) ;
#114 = DATE_TIME_ROLE ( 'creation_date' ) ;
#115 = CARTESIAN_POINT ( 'NONE',  ( 11.00000000000000000, 6.123233995736766282E-16, -10.00000000000000000 ) ) ;
#116 = VECTOR ( 'NONE', #103, 1000.000000000000000 ) ;
#117 = CARTESIAN_POINT ( 'NONE',  ( 0.000000000000000000, -7.960204194457796463E-16, 13.00000000000000178 ) ) ;
#118 = FACE_OUTER_BOUND ( 'NONE', #236, .T. ) ;
#119 = COORDINATED_UNIVERSAL_TIME_OFFSET ( 1, 0, .AHEAD. ) ;
#120 = FACE_OUTER_BOUND ( 'NONE', #147, .T. ) ;
#121 = DIRECTION ( 'NONE',  ( 0.000000000000000000, 0.000000000000000000, 1.000000000000000000 ) ) ;
#122 = CIRCLE ( 'NONE', #178, 11.44521532941026720 ) ;
#123 = DIRECTION ( 'NONE',  ( 0.000000000000000000, 0.000000000000000000, -1.000000000000000000 ) ) ;
#124 = PRODUCT_DEFINITION_SHAPE ( 'NONE', 'NONE',  #243 ) ;
#125 = ORIENTED_EDGE ( 'NONE', *, *, #190, .T. ) ;
#126 = APPLICATION_CONTEXT ( 'configuration controlled 3d designs of mechanical parts and assemblies' ) ;
#127 = ORIENTED_EDGE ( 'NONE', *, *, #106, .T. ) ;
#128 = LOCAL_TIME ( 12, 15, 27.00000000000000000, #195 ) ;
#129 = LINE ( 'NONE', #171, #102 ) ;
#130 = DIRECTION ( 'NONE',  ( -1.000000000000000000, -0.000000000000000000, -0.000000000000000000 ) ) ;
#131 = PERSON_AND_ORGANIZATION ( #162, #17 ) ;
#132 = CIRCLE ( 'NONE', #88, 8.445215329410265426 ) ;
#133 = CC_DESIGN_PERSON_AND_ORGANIZATION_ASSIGNMENT ( #192, #148, ( #71 ) ) ;
#134 = APPLICATION_PROTOCOL_DEFINITION ( 'international standard', 'config_control_design', 1994, #126 ) ;
#135 = CALENDAR_DATE ( 2024, 5, 9 ) ;
#136 = DIRECTION ( 'NONE',  ( 0.000000000000000000, 0.000000000000000000, -1.000000000000000000 ) ) ;
#137 = APPROVAL_STATUS ( 'not_yet_approved' ) ;
#138 = CC_DESIGN_PERSON_AND_ORGANIZATION_ASSIGNMENT ( #29, #175, ( #247 ) ) ;
#139 = FACE_OUTER_BOUND ( 'NONE', #188, .T. ) ;
#140 = EDGE_CURVE ( 'NONE', #54, #109, #183, .T. ) ;
#141 = CARTESIAN_POINT ( 'NONE',  ( 11.00000000000000000, 0.000000000000000000, 0.000000000000000000 ) ) ;
#142 = DIRECTION ( 'NONE',  ( 0.000000000000000000, 0.000000000000000000, -1.000000000000000000 ) ) ;
#143 = CARTESIAN_POINT ( 'NONE',  ( 0.000000000000000000, 0.000000000000000000, 0.000000000000000000 ) ) ;
#144 = CC_DESIGN_PERSON_AND_ORGANIZATION_ASSIGNMENT ( #8, #245, ( #98 ) ) ;
#145 = ORIENTED_EDGE ( 'NONE', *, *, #15, .F. ) ;
#146 = CARTESIAN_POINT ( 'NONE',  ( 0.000000000000000000, 0.000000000000000000, 0.000000000000000000 ) ) ;
#147 = EDGE_LOOP ( 'NONE', ( #89, #53, #227, #201 ) ) ;
#148 = PERSON_AND_ORGANIZATION_ROLE ( 'design_owner' ) ;
#149 = DIRECTION ( 'NONE',  ( 1.000000000000000000, 0.000000000000000000, 0.000000000000000000 ) ) ;
#150 = PERSON_AND_ORGANIZATION ( #162, #17 ) ;
#151 = DIRECTION ( 'NONE',  ( 1.000000000000000000, 0.000000000000000000, 0.000000000000000000 ) ) ;
#152 = APPROVAL_DATE_TIME ( #197, #22 ) ;
#153 = COORDINATED_UNIVERSAL_TIME_OFFSET ( 1, 0, .AHEAD. ) ;
#154 = ADVANCED_FACE ( 'NONE', ( #120 ), #185, .T. ) ;
#155 = ORIENTED_EDGE ( 'NONE', *, *, #97, .F. ) ;
#156 = AXIS2_PLACEMENT_3D ( 'NONE', #95, #82, #212 ) ;
#157 = DIRECTION ( 'NONE',  ( 1.000000000000000000, 0.000000000000000000, 0.000000000000000000 ) ) ;
#158 = PERSON_AND_ORGANIZATION_ROLE ( 'creator' ) ;
#159 = CARTESIAN_POINT ( 'NONE',  ( 11.00000000000000000, 1.217937611999347516E-15, -8.445215329410265426 ) ) ;
#160 = APPROVAL ( #137, 'UNSPECIFIED' ) ;
#161 = DIRECTION ( 'NONE',  ( 1.000000000000000000, 0.000000000000000000, 0.000000000000000000 ) ) ;
#162 = PERSON ( 'UNSPECIFIED', 'UNSPECIFIED', 'UNSPECIFIED', ('UNSPECIFIED'), ('UNSPECIFIED'), ('UNSPECIFIED') ) ;
#163 = APPROVAL ( #170, 'UNSPECIFIED' ) ;
#164 = EDGE_CURVE ( 'NONE', #167, #109, #100, .T. ) ;
#165 = AXIS2_PLACEMENT_3D ( 'NONE', #141, #50, #121 ) ;
#166 = ORIENTED_EDGE ( 'NONE', *, *, #32, .F. ) ;
#167 = VERTEX_POINT ( 'NONE', #84 ) ;
#168 = CC_DESIGN_PERSON_AND_ORGANIZATION_ASSIGNMENT ( #83, #242, ( #243 ) ) ;
#169 = CARTESIAN_POINT ( 'NONE',  ( 10.60532389131183706, 0.000000000000000000, 0.000000000000000000 ) ) ;
#170 = APPROVAL_STATUS ( 'not_yet_approved' ) ;
#171 = CARTESIAN_POINT ( 'NONE',  ( 10.60532389131183706, 0.000000000000000000, 8.552854268143402550 ) ) ;
#172 = CALENDAR_DATE ( 2024, 5, 9 ) ;
#173 = DIRECTION ( 'NONE',  ( 1.000000000000000000, 0.000000000000000000, 0.000000000000000000 ) ) ;
#174 = DIRECTION ( 'NONE',  ( 1.000000000000000000, 0.000000000000000000, 0.000000000000000000 ) ) ;
#175 = PERSON_AND_ORGANIZATION_ROLE ( 'design_supplier' ) ;
#176 = DIRECTION ( 'NONE',  ( 1.000000000000000000, 0.000000000000000000, 0.000000000000000000 ) ) ;
#177 = COORDINATED_UNIVERSAL_TIME_OFFSET ( 1, 0, .AHEAD. ) ;
#178 = AXIS2_PLACEMENT_3D ( 'NONE', #66, #157, #30 ) ;
#179 = LINE ( 'NONE', #12, #214 ) ;
#180 = DIRECTION ( 'NONE',  ( -1.000000000000000000, -0.000000000000000000, -0.000000000000000000 ) ) ;
#181 = EDGE_CURVE ( 'NONE', #57, #54, #76, .T. ) ;
#182 = CIRCLE ( 'NONE', #31, 10.00000000000000000 ) ;
#183 = LINE ( 'NONE', #68, #116 ) ;
#184 = VERTEX_POINT ( 'NONE', #221 ) ;
#185 = CONICAL_SURFACE ( 'NONE', #165, 10.00000000000000000, 0.2662520491509254295 ) ;
#186 = CC_DESIGN_DATE_AND_TIME_ASSIGNMENT ( #24, #4, ( #98 ) ) ;
#187 = CONICAL_SURFACE ( 'NONE', #232, 10.00000000000000000, 0.2662520491509254295 ) ;
#188 = EDGE_LOOP ( 'NONE', ( #46, #125, #145, #38 ) ) ;
#189 = AXIS2_PLACEMENT_3D ( 'NONE', #2, #149, #61 ) ;
#190 = EDGE_CURVE ( 'NONE', #249, #73, #179, .T. ) ;
#191 = ORIENTED_EDGE ( 'NONE', *, *, #140, .T. ) ;
#192 = PERSON_AND_ORGANIZATION ( #162, #17 ) ;
#193 = ORIENTED_EDGE ( 'NONE', *, *, #164, .F. ) ;
#194 = APPROVAL_DATE_TIME ( #213, #163 ) ;
#195 = COORDINATED_UNIVERSAL_TIME_OFFSET ( 1, 0, .AHEAD. ) ;
#196 = FACE_OUTER_BOUND ( 'NONE', #77, .T. ) ;
#197 = DATE_AND_TIME ( #135, #40 ) ;
#198 = EDGE_LOOP ( 'NONE', ( #231, #113 ) ) ;
#199 = VECTOR ( 'NONE', #92, 1000.000000000000000 ) ;
#200 = DATE_AND_TIME ( #112, #207 ) ;
#201 = ORIENTED_EDGE ( 'NONE', *, *, #140, .F. ) ;
#202 = LOCAL_TIME ( 12, 15, 27.00000000000000000, #119 ) ;
#203 = DIRECTION ( 'NONE',  ( 0.000000000000000000, 0.000000000000000000, -1.000000000000000000 ) ) ;
#204 = CARTESIAN_POINT ( 'NONE',  ( 0.000000000000000000, 0.000000000000000000, 0.000000000000000000 ) ) ;
#205 = CONICAL_SURFACE ( 'NONE', #248, 8.552854268143402550, 0.2662520491509254295 ) ;
#206 = ORIENTED_EDGE ( 'NONE', *, *, #15, .T. ) ;
#207 = LOCAL_TIME ( 12, 15, 27.00000000000000000, #153 ) ;
#208 = DIRECTION ( 'NONE',  ( 0.000000000000000000, 0.000000000000000000, -1.000000000000000000 ) ) ;
#209 = LOCAL_TIME ( 12, 15, 27.00000000000000000, #177 ) ;
#210 = MECHANICAL_CONTEXT ( 'NONE', #101, 'mechanical' ) ;
#211 = CIRCLE ( 'NONE', #229, 13.00000000000000178 ) ;
#212 = DIRECTION ( 'NONE',  ( 0.000000000000000000, 0.000000000000000000, 1.000000000000000000 ) ) ;
#213 = DATE_AND_TIME ( #3, #209 ) ;
#214 = VECTOR ( 'NONE', #246, 1000.000000000000000 ) ;
#215 = ORIENTED_EDGE ( 'NONE', *, *, #181, .T. ) ;
#216 = CC_DESIGN_PERSON_AND_ORGANIZATION_ASSIGNMENT ( #150, #158, ( #247 ) ) ;
#217 = CARTESIAN_POINT ( 'NONE',  ( 11.00000000000000000, 0.000000000000000000, 8.445215329410265426 ) ) ;
#218 = APPROVAL_STATUS ( 'not_yet_approved' ) ;
#219 = APPROVAL_DATE_TIME ( #200, #160 ) ;
#220 = CARTESIAN_POINT ( 'NONE',  ( 11.00000000000000000, 0.000000000000000000, 0.000000000000000000 ) ) ;
#221 = CARTESIAN_POINT ( 'NONE',  ( 0.000000000000000000, 0.000000000000000000, 11.44521532941026720 ) ) ;
#222 = ADVANCED_FACE ( 'NONE', ( #47, #118 ), #33, .F. ) ;
#223 =( LENGTH_UNIT ( ) NAMED_UNIT ( * ) SI_UNIT ( .MILLI., .METRE. ) );
#224 = DIRECTION ( 'NONE',  ( 0.000000000000000000, 0.000000000000000000, 1.000000000000000000 ) ) ;
#225 = DIRECTION ( 'NONE',  ( 1.000000000000000000, 0.000000000000000000, 0.000000000000000000 ) ) ;
#226 = CIRCLE ( 'NONE', #189, 11.44521532941026720 ) ;
#227 = ORIENTED_EDGE ( 'NONE', *, *, #164, .T. ) ;
#228 = MANIFOLD_SOLID_BREP ( 'Wandung2', #69 ) ;
#229 = AXIS2_PLACEMENT_3D ( 'NONE', #93, #174, #67 ) ;
#230 = ADVANCED_FACE ( 'NONE', ( #34 ), #187, .T. ) ;
#231 = ORIENTED_EDGE ( 'NONE', *, *, #72, .F. ) ;
#232 = AXIS2_PLACEMENT_3D ( 'NONE', #14, #180, #224 ) ;
#233 = APPROVAL_PERSON_ORGANIZATION ( #99, #160, #79 ) ;
#234 = APPLICATION_PROTOCOL_DEFINITION ( 'international standard', 'config_control_design', 1994, #101 ) ;
#235 = EDGE_LOOP ( 'NONE', ( #206, #51 ) ) ;
#236 = EDGE_LOOP ( 'NONE', ( #39, #193 ) ) ;
#237 = COORDINATED_UNIVERSAL_TIME_OFFSET ( 1, 0, .AHEAD. ) ;
#238 = CC_DESIGN_DATE_AND_TIME_ASSIGNMENT ( #5, #114, ( #243 ) ) ;
#239 = CARTESIAN_POINT ( 'NONE',  ( 11.00000000000000000, 1.224646799147353256E-15, -10.00000000000000000 ) ) ;
#240 = ORIENTED_EDGE ( 'NONE', *, *, #190, .F. ) ;
#241 = CIRCLE ( 'NONE', #81, 8.445215329410265426 ) ;
#242 = PERSON_AND_ORGANIZATION_ROLE ( 'creator' ) ;
#243 = PRODUCT_DEFINITION ( 'UNKNOWN', '', #247, #16 ) ;
#244 = CARTESIAN_POINT ( 'NONE',  ( 11.00000000000000000, 0.000000000000000000, 0.000000000000000000 ) ) ;
#245 = PERSON_AND_ORGANIZATION_ROLE ( 'classification_officer' ) ;
#246 = DIRECTION ( 'NONE',  ( -0.9647638212377321887, 3.222258888032613739E-17, -0.2631174057921088494 ) ) ;
#247 = PRODUCT_DEFINITION_FORMATION_WITH_SPECIFIED_SOURCE ( 'ANY', '', #71, .NOT_KNOWN. ) ;
#248 = AXIS2_PLACEMENT_3D ( 'NONE', #169, #130, #44 ) ;
#249 = VERTEX_POINT ( 'NONE', #159 ) ;
ENDSEC;
END-ISO-10303-21;
