ISO-10303-21;
HEADER;
FILE_DESCRIPTION (( 'STEP AP203' ),
    '1' );
FILE_NAME ('OT200-65-76_1x2_OSTP.step',
    '2020-12-16T02:33:53',
    ( '' ),
    ( '' ),
    'SwSTEP 2.0',
    'SolidWorks 2014',
    '' );
FILE_SCHEMA (( 'CONFIG_CONTROL_DESIGN' ));
ENDSEC;

DATA;
#1 = ADVANCED_FACE ( 'NONE', ( #18 ), #19, .T. ) ;
#2 = CARTESIAN_POINT ( 'NONE',  ( 95.00000000000000000, 0.0000000000000000000, 0.0000000000000000000 ) ) ;
#3 = EDGE_CURVE ( 'NONE', #158, #112, #250, .T. ) ;
#4 = DIRECTION ( 'NONE',  ( 1.000000000000000000, 6.123233995736766000E-017, 0.0000000000000000000 ) ) ;
#5 = LOCAL_TIME ( 3, 33, 53.00000000000000000, #28 ) ;
#6 = PERSON_AND_ORGANIZATION ( #123, #225 ) ;
#7 = APPROVAL_DATE_TIME ( #208, #24 ) ;
#8 = ORIENTED_EDGE ( 'NONE', *, *, #249, .T. ) ;
#9 = EDGE_CURVE ( 'NONE', #112, #13, #152, .T. ) ;
#10 = DIRECTION ( 'NONE',  ( 0.0000000000000000000, 0.0000000000000000000, 1.000000000000000000 ) ) ;
#11 = DIRECTION ( 'NONE',  ( 1.000000000000000000, 0.0000000000000000000, 0.0000000000000000000 ) ) ;
#12 = AXIS2_PLACEMENT_3D ( 'NONE', #201, #92, #113 ) ;
#13 = VERTEX_POINT ( 'NONE', #102 ) ;
#14 = APPROVAL_ROLE ( '' ) ;
#15 = AXIS2_PLACEMENT_3D ( 'NONE', #62, #236, #11 ) ;
#16 = DATE_TIME_ROLE ( 'creation_date' ) ;
#17 = CC_DESIGN_DATE_AND_TIME_ASSIGNMENT ( #157, #16, ( #78 ) ) ;
#18 = FACE_OUTER_BOUND ( 'NONE', #74, .T. ) ;
#19 = TOROIDAL_SURFACE ( 'NONE', #37, 95.00000000000000000, 38.04999999999999700 ) ;
#20 = AXIS2_PLACEMENT_3D ( 'NONE', #58, #195, #82 ) ;
#21 = ORIENTED_EDGE ( 'NONE', *, *, #3, .F. ) ;
#22 = DIRECTION ( 'NONE',  ( 0.0000000000000000000, 1.000000000000000000, 0.0000000000000000000 ) ) ;
#23 = PLANE ( 'NONE',  #68 ) ;
#24 = APPROVAL ( #35, 'UNSPECIFIED' ) ;
#25 = DIRECTION ( 'NONE',  ( 0.0000000000000000000, 1.000000000000000000, 0.0000000000000000000 ) ) ;
#26 = APPROVAL ( #32, 'UNSPECIFIED' ) ;
#27 = ADVANCED_BREP_SHAPE_REPRESENTATION ( 'OT200-65-76_1x2_OSTP', ( #98, #105 ), #177 ) ;
#28 = COORDINATED_UNIVERSAL_TIME_OFFSET ( 1, 0, .AHEAD. ) ;
#29 = EDGE_LOOP ( 'NONE', ( #174, #36 ) ) ;
#30 = CARTESIAN_POINT ( 'NONE',  ( 95.00000000000000000, 131.0500000000000100, 0.0000000000000000000 ) ) ;
#31 = CC_DESIGN_PERSON_AND_ORGANIZATION_ASSIGNMENT ( #135, #226, ( #190 ) ) ;
#32 = APPROVAL_STATUS ( 'not_yet_approved' ) ;
#33 = VERTEX_POINT ( 'NONE', #145 ) ;
#34 = PERSON_AND_ORGANIZATION_ROLE ( 'design_owner' ) ;
#35 = APPROVAL_STATUS ( 'not_yet_approved' ) ;
#36 = ORIENTED_EDGE ( 'NONE', *, *, #181, .T. ) ;
#37 = AXIS2_PLACEMENT_3D ( 'NONE', #2, #147, #214 ) ;
#38 = CC_DESIGN_APPROVAL ( #26, ( #71 ) ) ;
#39 = CARTESIAN_POINT ( 'NONE',  ( 0.0000000000000000000, 0.0000000000000000000, 0.0000000000000000000 ) ) ;
#40 = CARTESIAN_POINT ( 'NONE',  ( 0.0000000000000000000, 0.0000000000000000000, 0.0000000000000000000 ) ) ;
#41 = EDGE_CURVE ( 'NONE', #220, #84, #103, .T. ) ;
#42 = CARTESIAN_POINT ( 'NONE',  ( 94.99999999999998600, 56.95000000000000300, -4.659781070755679000E-015 ) ) ;
#43 = DIRECTION ( 'NONE',  ( 0.0000000000000000000, 1.000000000000000000, 0.0000000000000000000 ) ) ;
#44 = DESIGN_CONTEXT ( 'detailed design', #247, 'design' ) ;
#45 = ORIENTED_EDGE ( 'NONE', *, *, #197, .F. ) ;
#46 = AXIS2_PLACEMENT_3D ( 'NONE', #133, #240, #242 ) ;
#47 = DIRECTION ( 'NONE',  ( 0.0000000000000000000, 0.0000000000000000000, 1.000000000000000000 ) ) ;
#48 = FACE_OUTER_BOUND ( 'NONE', #200, .T. ) ;
#49 = AXIS2_PLACEMENT_3D ( 'NONE', #198, #183, #10 ) ;
#50 = DIRECTION ( 'NONE',  ( 1.000000000000000000, 0.0000000000000000000, 0.0000000000000000000 ) ) ;
#51 = CC_DESIGN_SECURITY_CLASSIFICATION ( #71, ( #190 ) ) ;
#52 = LOCAL_TIME ( 3, 33, 53.00000000000000000, #203 ) ;
#53 = APPROVAL_ROLE ( '' ) ;
#54 = DATE_AND_TIME ( #176, #83 ) ;
#55 = AXIS2_PLACEMENT_3D ( 'NONE', #72, #206, #205 ) ;
#56 = COORDINATED_UNIVERSAL_TIME_OFFSET ( 1, 0, .AHEAD. ) ;
#57 = UNCERTAINTY_MEASURE_WITH_UNIT (LENGTH_MEASURE( 1.000000000000000100E-005 ), #227, 'distance_accuracy_value', 'NONE');
#58 = CARTESIAN_POINT ( 'NONE',  ( 95.00000000000000000, 0.0000000000000000000, -4.414851710926207900E-015 ) ) ;
#59 = LOCAL_TIME ( 3, 33, 53.00000000000000000, #56 ) ;
#60 = EDGE_LOOP ( 'NONE', ( #136, #239 ) ) ;
#61 = AXIS2_PLACEMENT_3D ( 'NONE', #85, #130, #108 ) ;
#62 = CARTESIAN_POINT ( 'NONE',  ( 95.00000000000000000, 0.0000000000000000000, 0.0000000000000000000 ) ) ;
#63 = DIRECTION ( 'NONE',  ( 0.0000000000000000000, -0.0000000000000000000, 1.000000000000000000 ) ) ;
#64 = CARTESIAN_POINT ( 'NONE',  ( 0.0000000000000000000, 0.0000000000000000000, 0.0000000000000000000 ) ) ;
#65 = AXIS2_PLACEMENT_3D ( 'NONE', #155, #217, #237 ) ;
#66 = PERSON_AND_ORGANIZATION ( #123, #225 ) ;
#67 = PERSON_AND_ORGANIZATION ( #123, #225 ) ;
#68 = AXIS2_PLACEMENT_3D ( 'NONE', #154, #22, #63 ) ;
#69 = CARTESIAN_POINT ( 'NONE',  ( -36.04999999999999700, 0.0000000000000000000, 0.0000000000000000000 ) ) ;
#70 = ORIENTED_EDGE ( 'NONE', *, *, #99, .F. ) ;
#71 = SECURITY_CLASSIFICATION ( '', '', #73 ) ;
#72 = CARTESIAN_POINT ( 'NONE',  ( 95.00000000000000000, 0.0000000000000000000, 0.0000000000000000000 ) ) ;
#73 = SECURITY_CLASSIFICATION_LEVEL ( 'unclassified' ) ;
#74 = EDGE_LOOP ( 'NONE', ( #87, #8, #80, #21 ) ) ;
#75 = APPLICATION_PROTOCOL_DEFINITION ( 'international standard', 'config_control_design', 1994, #246 ) ;
#76 = EDGE_LOOP ( 'NONE', ( #229, #216, #167, #70 ) ) ;
#77 = DIRECTION ( 'NONE',  ( 0.0000000000000000000, 0.0000000000000000000, 1.000000000000000000 ) ) ;
#78 = PRODUCT_DEFINITION ( 'UNKNOWN', '', #190, #44 ) ;
#79 = PERSON_AND_ORGANIZATION ( #123, #225 ) ;
#80 = ORIENTED_EDGE ( 'NONE', *, *, #111, .T. ) ;
#81 = CC_DESIGN_DATE_AND_TIME_ASSIGNMENT ( #54, #173, ( #71 ) ) ;
#82 = DIRECTION ( 'NONE',  ( 1.000000000000000000, 0.0000000000000000000, 0.0000000000000000000 ) ) ;
#83 = LOCAL_TIME ( 3, 33, 53.00000000000000000, #194 ) ;
#84 = VERTEX_POINT ( 'NONE', #127 ) ;
#85 = CARTESIAN_POINT ( 'NONE',  ( 95.00000000000000000, 95.00000000000000000, 0.0000000000000000000 ) ) ;
#86 = EDGE_CURVE ( 'NONE', #248, #144, #245, .T. ) ;
#87 = ORIENTED_EDGE ( 'NONE', *, *, #181, .F. ) ;
#88 = ORIENTED_EDGE ( 'NONE', *, *, #141, .F. ) ;
#89 = APPROVAL_DATE_TIME ( #224, #26 ) ;
#90 = EDGE_LOOP ( 'NONE', ( #252, #140, #209, #170 ) ) ;
#91 = AXIS2_PLACEMENT_3D ( 'NONE', #40, #43, #47 ) ;
#92 = DIRECTION ( 'NONE',  ( 1.000000000000000000, 6.123233995736766000E-017, -0.0000000000000000000 ) ) ;
#93 = CARTESIAN_POINT ( 'NONE',  ( 95.00000000000000000, 58.95000000000000300, -4.414851710926207900E-015 ) ) ;
#94 = ORIENTED_EDGE ( 'NONE', *, *, #9, .F. ) ;
#95 = PERSON_AND_ORGANIZATION_ROLE ( 'classification_officer' ) ;
#96 = CC_DESIGN_APPROVAL ( #24, ( #78 ) ) ;
#97 = CIRCLE ( 'NONE', #49, 38.04999999999999700 ) ;
#98 = MANIFOLD_SOLID_BREP ( 'cut-body', #241 ) ;
#99 = EDGE_CURVE ( 'NONE', #144, #84, #231, .T. ) ;
#100 = DATE_AND_TIME ( #211, #5 ) ;
#101 = TOROIDAL_SURFACE ( 'NONE', #15, 95.00000000000000000, 38.04999999999999700 ) ;
#102 = CARTESIAN_POINT ( 'NONE',  ( -38.04999999999999700, 0.0000000000000000000, 0.0000000000000000000 ) ) ;
#103 = CIRCLE ( 'NONE', #20, 58.95000000000000300 ) ;
#104 = CARTESIAN_POINT ( 'NONE',  ( 95.00000000000000000, 0.0000000000000000000, -4.659781070755679000E-015 ) ) ;
#105 = AXIS2_PLACEMENT_3D ( 'NONE', #121, #77, #50 ) ;
#106 = DIRECTION ( 'NONE',  ( 0.0000000000000000000, 0.0000000000000000000, 1.000000000000000000 ) ) ;
#107 = CALENDAR_DATE ( 2020, 16, 12 ) ;
#108 = DIRECTION ( 'NONE',  ( 0.0000000000000000000, 1.000000000000000000, 0.0000000000000000000 ) ) ;
#109 = DIRECTION ( 'NONE',  ( 0.0000000000000000000, 1.000000000000000000, 0.0000000000000000000 ) ) ;
#110 = CIRCLE ( 'NONE', #65, 38.04999999999999700 ) ;
#111 = EDGE_CURVE ( 'NONE', #13, #112, #97, .T. ) ;
#112 = VERTEX_POINT ( 'NONE', #233 ) ;
#113 = DIRECTION ( 'NONE',  ( 0.0000000000000000000, 0.0000000000000000000, 1.000000000000000000 ) ) ;
#114 = FACE_OUTER_BOUND ( 'NONE', #76, .T. ) ;
#115 = DIRECTION ( 'NONE',  ( 0.0000000000000000000, 0.0000000000000000000, 1.000000000000000000 ) ) ;
#116 = AXIS2_PLACEMENT_3D ( 'NONE', #151, #148, #25 ) ;
#117 = APPROVAL_ROLE ( '' ) ;
#118 = APPLICATION_PROTOCOL_DEFINITION ( 'international standard', 'config_control_design', 1994, #247 ) ;
#119 = APPROVAL_PERSON_ORGANIZATION ( #67, #24, #14 ) ;
#120 = EDGE_LOOP ( 'NONE', ( #88, #45 ) ) ;
#121 = CARTESIAN_POINT ( 'NONE',  ( 0.0000000000000000000, 0.0000000000000000000, 0.0000000000000000000 ) ) ;
#122 = APPROVAL_PERSON_ORGANIZATION ( #161, #26, #117 ) ;
#123 = PERSON ( 'UNSPECIFIED', 'UNSPECIFIED', 'UNSPECIFIED', ('UNSPECIFIED'), ('UNSPECIFIED'), ('UNSPECIFIED') ) ;
#124 = PRODUCT_DEFINITION_SHAPE ( 'NONE', 'NONE',  #78 ) ;
#125 = CIRCLE ( 'NONE', #91, 36.04999999999999700 ) ;
#126 = ORIENTED_EDGE ( 'NONE', *, *, #3, .T. ) ;
#127 = CARTESIAN_POINT ( 'NONE',  ( 36.04999999999999700, 0.0000000000000000000, -4.414851710926207900E-015 ) ) ;
#128 = CC_DESIGN_PERSON_AND_ORGANIZATION_ASSIGNMENT ( #66, #207, ( #190 ) ) ;
#129 = DIRECTION ( 'NONE',  ( 1.000000000000000000, 0.0000000000000000000, 0.0000000000000000000 ) ) ;
#130 = DIRECTION ( 'NONE',  ( 1.000000000000000000, 6.123233995736766000E-017, 0.0000000000000000000 ) ) ;
#131 = FACE_OUTER_BOUND ( 'NONE', #29, .T. ) ;
#132 = AXIS2_PLACEMENT_3D ( 'NONE', #188, #218, #129 ) ;
#133 = CARTESIAN_POINT ( 'NONE',  ( 95.00000000000000000, 0.0000000000000000000, 0.0000000000000000000 ) ) ;
#134 = ADVANCED_FACE ( 'NONE', ( #114 ), #193, .F. ) ;
#135 = PERSON_AND_ORGANIZATION ( #123, #225 ) ;
#136 = ORIENTED_EDGE ( 'NONE', *, *, #215, .T. ) ;
#137 = MECHANICAL_CONTEXT ( 'NONE', #246, 'mechanical' ) ;
#138 = PRODUCT_RELATED_PRODUCT_CATEGORY ( 'detail', '', ( #160 ) ) ;
#139 =( NAMED_UNIT ( * ) SI_UNIT ( $, .STERADIAN. ) SOLID_ANGLE_UNIT ( ) );
#140 = ORIENTED_EDGE ( 'NONE', *, *, #86, .T. ) ;
#141 = EDGE_CURVE ( 'NONE', #220, #248, #192, .T. ) ;
#142 = CIRCLE ( 'NONE', #159, 38.04999999999999700 ) ;
#143 = CIRCLE ( 'NONE', #55, 133.0500000000000100 ) ;
#144 = VERTEX_POINT ( 'NONE', #69 ) ;
#145 = CARTESIAN_POINT ( 'NONE',  ( 94.99999999999997200, 133.0500000000000100, 0.0000000000000000000 ) ) ;
#146 = CC_DESIGN_APPROVAL ( #210, ( #190 ) ) ;
#147 = DIRECTION ( 'NONE',  ( 0.0000000000000000000, 0.0000000000000000000, 1.000000000000000000 ) ) ;
#148 = DIRECTION ( 'NONE',  ( 1.000000000000000000, 6.123233995736766000E-017, 0.0000000000000000000 ) ) ;
#149 = FACE_BOUND ( 'NONE', #60, .T. ) ;
#150 = ORIENTED_EDGE ( 'NONE', *, *, #175, .F. ) ;
#151 = CARTESIAN_POINT ( 'NONE',  ( 95.00000000000000000, 95.00000000000000000, 0.0000000000000000000 ) ) ;
#152 = CIRCLE ( 'NONE', #156, 38.04999999999999700 ) ;
#153 = ORIENTED_EDGE ( 'NONE', *, *, #111, .F. ) ;
#154 = CARTESIAN_POINT ( 'NONE',  ( 0.0000000000000000000, 0.0000000000000000000, 0.0000000000000000000 ) ) ;
#155 = CARTESIAN_POINT ( 'NONE',  ( 94.99999999999998600, 95.00000000000000000, 0.0000000000000000000 ) ) ;
#156 = AXIS2_PLACEMENT_3D ( 'NONE', #39, #178, #163 ) ;
#157 = DATE_AND_TIME ( #251, #52 ) ;
#158 = VERTEX_POINT ( 'NONE', #42 ) ;
#159 = AXIS2_PLACEMENT_3D ( 'NONE', #182, #4, #115 ) ;
#160 = PRODUCT ( 'OT200-65-76_1x2_OSTP', 'OT200-65-76_1x2_OSTP', '', ( #137 ) ) ;
#161 = PERSON_AND_ORGANIZATION ( #123, #225 ) ;
#162 = ORIENTED_EDGE ( 'NONE', *, *, #9, .T. ) ;
#163 = DIRECTION ( 'NONE',  ( 0.0000000000000000000, 0.0000000000000000000, 1.000000000000000000 ) ) ;
#164 = CIRCLE ( 'NONE', #116, 36.04999999999999700 ) ;
#165 = AXIS2_PLACEMENT_3D ( 'NONE', #64, #109, #168 ) ;
#166 = APPROVAL_DATE_TIME ( #100, #210 ) ;
#167 = ORIENTED_EDGE ( 'NONE', *, *, #41, .T. ) ;
#168 = DIRECTION ( 'NONE',  ( 0.0000000000000000000, 0.0000000000000000000, 1.000000000000000000 ) ) ;
#169 = ADVANCED_FACE ( 'NONE', ( #48 ), #101, .T. ) ;
#170 = ORIENTED_EDGE ( 'NONE', *, *, #41, .F. ) ;
#171 = ADVANCED_FACE ( 'NONE', ( #196 ), #184, .F. ) ;
#172 = APPROVAL_STATUS ( 'not_yet_approved' ) ;
#173 = DATE_TIME_ROLE ( 'classification_date' ) ;
#174 = ORIENTED_EDGE ( 'NONE', *, *, #175, .T. ) ;
#175 = EDGE_CURVE ( 'NONE', #158, #33, #110, .T. ) ;
#176 = CALENDAR_DATE ( 2020, 16, 12 ) ;
#177 =( GEOMETRIC_REPRESENTATION_CONTEXT ( 3 ) GLOBAL_UNCERTAINTY_ASSIGNED_CONTEXT ( ( #57 ) ) GLOBAL_UNIT_ASSIGNED_CONTEXT ( ( #227, #189, #139 ) ) REPRESENTATION_CONTEXT ( 'NONE', 'WORKASPACE' ) );
#178 = DIRECTION ( 'NONE',  ( 0.0000000000000000000, 1.000000000000000000, 0.0000000000000000000 ) ) ;
#179 = PERSON_AND_ORGANIZATION ( #123, #225 ) ;
#180 = CARTESIAN_POINT ( 'NONE',  ( 95.00000000000000000, 0.0000000000000000000, 0.0000000000000000000 ) ) ;
#181 = EDGE_CURVE ( 'NONE', #33, #158, #142, .T. ) ;
#182 = CARTESIAN_POINT ( 'NONE',  ( 94.99999999999998600, 95.00000000000000000, 0.0000000000000000000 ) ) ;
#183 = DIRECTION ( 'NONE',  ( 0.0000000000000000000, 1.000000000000000000, 0.0000000000000000000 ) ) ;
#184 = TOROIDAL_SURFACE ( 'NONE', #132, 95.00000000000000000, 36.04999999999999700 ) ;
#185 = AXIS2_PLACEMENT_3D ( 'NONE', #180, #106, #199 ) ;
#186 = ORIENTED_EDGE ( 'NONE', *, *, #249, .F. ) ;
#187 = PLANE ( 'NONE',  #12 ) ;
#188 = CARTESIAN_POINT ( 'NONE',  ( 95.00000000000000000, 0.0000000000000000000, 0.0000000000000000000 ) ) ;
#189 =( NAMED_UNIT ( * ) PLANE_ANGLE_UNIT ( ) SI_UNIT ( $, .RADIAN. ) );
#190 = PRODUCT_DEFINITION_FORMATION_WITH_SPECIFIED_SOURCE ( 'ANY', '', #160, .NOT_KNOWN. ) ;
#191 = LOCAL_TIME ( 3, 33, 53.00000000000000000, #238 ) ;
#192 = CIRCLE ( 'NONE', #61, 36.04999999999999700 ) ;
#193 = TOROIDAL_SURFACE ( 'NONE', #185, 95.00000000000000000, 36.04999999999999700 ) ;
#194 = COORDINATED_UNIVERSAL_TIME_OFFSET ( 1, 0, .AHEAD. ) ;
#195 = DIRECTION ( 'NONE',  ( 0.0000000000000000000, 0.0000000000000000000, 1.000000000000000000 ) ) ;
#196 = FACE_OUTER_BOUND ( 'NONE', #90, .T. ) ;
#197 = EDGE_CURVE ( 'NONE', #248, #220, #164, .T. ) ;
#198 = CARTESIAN_POINT ( 'NONE',  ( 0.0000000000000000000, 0.0000000000000000000, 0.0000000000000000000 ) ) ;
#199 = DIRECTION ( 'NONE',  ( 1.000000000000000000, 0.0000000000000000000, 0.0000000000000000000 ) ) ;
#200 = EDGE_LOOP ( 'NONE', ( #186, #150, #126, #162 ) ) ;
#201 = CARTESIAN_POINT ( 'NONE',  ( 94.99999999999998600, 95.00000000000000000, 0.0000000000000000000 ) ) ;
#202 = ADVANCED_FACE ( 'NONE', ( #149, #219 ), #23, .F. ) ;
#203 = COORDINATED_UNIVERSAL_TIME_OFFSET ( 1, 0, .AHEAD. ) ;
#204 = ADVANCED_FACE ( 'NONE', ( #213, #131 ), #187, .T. ) ;
#205 = DIRECTION ( 'NONE',  ( 1.000000000000000000, 0.0000000000000000000, 0.0000000000000000000 ) ) ;
#206 = DIRECTION ( 'NONE',  ( 0.0000000000000000000, 0.0000000000000000000, 1.000000000000000000 ) ) ;
#207 = PERSON_AND_ORGANIZATION_ROLE ( 'creator' ) ;
#208 = DATE_AND_TIME ( #107, #59 ) ;
#209 = ORIENTED_EDGE ( 'NONE', *, *, #215, .F. ) ;
#210 = APPROVAL ( #172, 'UNSPECIFIED' ) ;
#211 = CALENDAR_DATE ( 2020, 16, 12 ) ;
#212 = SHAPE_DEFINITION_REPRESENTATION ( #124, #27 ) ;
#213 = FACE_BOUND ( 'NONE', #120, .T. ) ;
#214 = DIRECTION ( 'NONE',  ( 1.000000000000000000, 0.0000000000000000000, 0.0000000000000000000 ) ) ;
#215 = EDGE_CURVE ( 'NONE', #84, #144, #125, .T. ) ;
#216 = ORIENTED_EDGE ( 'NONE', *, *, #197, .T. ) ;
#217 = DIRECTION ( 'NONE',  ( 1.000000000000000000, 6.123233995736766000E-017, 0.0000000000000000000 ) ) ;
#218 = DIRECTION ( 'NONE',  ( 0.0000000000000000000, 0.0000000000000000000, 1.000000000000000000 ) ) ;
#219 = FACE_OUTER_BOUND ( 'NONE', #232, .T. ) ;
#220 = VERTEX_POINT ( 'NONE', #93 ) ;
#221 = AXIS2_PLACEMENT_3D ( 'NONE', #104, #234, #253 ) ;
#222 = PERSON_AND_ORGANIZATION_ROLE ( 'creator' ) ;
#223 = CC_DESIGN_PERSON_AND_ORGANIZATION_ASSIGNMENT ( #228, #95, ( #71 ) ) ;
#224 = DATE_AND_TIME ( #244, #191 ) ;
#225 = ORGANIZATION ( 'UNSPECIFIED', 'UNSPECIFIED', '' ) ;
#226 = PERSON_AND_ORGANIZATION_ROLE ( 'design_supplier' ) ;
#227 =( LENGTH_UNIT ( ) NAMED_UNIT ( * ) SI_UNIT ( .MILLI., .METRE. ) );
#228 = PERSON_AND_ORGANIZATION ( #123, #225 ) ;
#229 = ORIENTED_EDGE ( 'NONE', *, *, #86, .F. ) ;
#230 = CC_DESIGN_PERSON_AND_ORGANIZATION_ASSIGNMENT ( #6, #222, ( #78 ) ) ;
#231 = CIRCLE ( 'NONE', #165, 36.04999999999999700 ) ;
#232 = EDGE_LOOP ( 'NONE', ( #94, #153 ) ) ;
#233 = CARTESIAN_POINT ( 'NONE',  ( 38.04999999999999700, 0.0000000000000000000, -4.659781070755679000E-015 ) ) ;
#234 = DIRECTION ( 'NONE',  ( 0.0000000000000000000, 0.0000000000000000000, 1.000000000000000000 ) ) ;
#235 = APPROVAL_PERSON_ORGANIZATION ( #79, #210, #53 ) ;
#236 = DIRECTION ( 'NONE',  ( 0.0000000000000000000, 0.0000000000000000000, 1.000000000000000000 ) ) ;
#237 = DIRECTION ( 'NONE',  ( 0.0000000000000000000, 0.0000000000000000000, 1.000000000000000000 ) ) ;
#238 = COORDINATED_UNIVERSAL_TIME_OFFSET ( 1, 0, .AHEAD. ) ;
#239 = ORIENTED_EDGE ( 'NONE', *, *, #99, .T. ) ;
#240 = DIRECTION ( 'NONE',  ( 0.0000000000000000000, 0.0000000000000000000, 1.000000000000000000 ) ) ;
#241 = CLOSED_SHELL ( 'NONE', ( #171, #1, #169, #204, #202, #134 ) ) ;
#242 = DIRECTION ( 'NONE',  ( 1.000000000000000000, 0.0000000000000000000, 0.0000000000000000000 ) ) ;
#243 = CC_DESIGN_PERSON_AND_ORGANIZATION_ASSIGNMENT ( #179, #34, ( #160 ) ) ;
#244 = CALENDAR_DATE ( 2020, 16, 12 ) ;
#245 = CIRCLE ( 'NONE', #46, 131.0500000000000100 ) ;
#246 = APPLICATION_CONTEXT ( 'configuration controlled 3d designs of mechanical parts and assemblies' ) ;
#247 = APPLICATION_CONTEXT ( 'configuration controlled 3d designs of mechanical parts and assemblies' ) ;
#248 = VERTEX_POINT ( 'NONE', #30 ) ;
#249 = EDGE_CURVE ( 'NONE', #33, #13, #143, .T. ) ;
#250 = CIRCLE ( 'NONE', #221, 56.95000000000000300 ) ;
#251 = CALENDAR_DATE ( 2020, 16, 12 ) ;
#252 = ORIENTED_EDGE ( 'NONE', *, *, #141, .T. ) ;
#253 = DIRECTION ( 'NONE',  ( 1.000000000000000000, 0.0000000000000000000, 0.0000000000000000000 ) ) ;
ENDSEC;
END-ISO-10303-21;
