ISO-10303-21;
HEADER;
FILE_DESCRIPTION (( 'STEP AP203' ),
    '1' );
FILE_NAME ('11-0206-04_outokumpu.step',
    '2015-08-11T09:46:33',
    ( '' ),
    ( '' ),
    'SwSTEP 2.0',
    'SolidWorks 2008',
    '' );
FILE_SCHEMA (( 'CONFIG_CONTROL_DESIGN' ));
ENDSEC;

DATA;
#1 = ORIENTED_EDGE ( 'NONE', *, *, #52, .T. ) ;
#2 = CLOSED_SHELL ( 'NONE', ( #22, #47, #39, #18, #254, #119, #137, #61, #56, #123 ) ) ;
#3 = EDGE_LOOP ( 'NONE', ( #4, #5, #6, #55 ) ) ;
#4 = ORIENTED_EDGE ( 'NONE', *, *, #12, .F. ) ;
#5 = ORIENTED_EDGE ( 'NONE', *, *, #67, .F. ) ;
#6 = ORIENTED_EDGE ( 'NONE', *, *, #17, .T. ) ;
#7 = EDGE_CURVE ( 'NONE', #11, #8, #124, .T. ) ;
#8 = VERTEX_POINT ( 'NONE', #245 ) ;
#9 = ORIENTED_EDGE ( 'NONE', *, *, #7, .F. ) ;
#10 = ORIENTED_EDGE ( 'NONE', *, *, #12, .T. ) ;
#11 = VERTEX_POINT ( 'NONE', #244 ) ;
#12 = EDGE_CURVE ( 'NONE', #11, #20, #243, .T. ) ;
#13 = ORIENTED_EDGE ( 'NONE', *, *, #14, .T. ) ;
#14 = EDGE_CURVE ( 'NONE', #20, #15, #239, .T. ) ;
#15 = VERTEX_POINT ( 'NONE', #234 ) ;
#16 = ORIENTED_EDGE ( 'NONE', *, *, #17, .F. ) ;
#17 = EDGE_CURVE ( 'NONE', #8, #15, #233, .T. ) ;
#18 = ADVANCED_FACE ( 'NONE', ( #229 ), #227, .T. ) ;
#19 = EDGE_LOOP ( 'NONE', ( #70, #126, #127, #253 ) ) ;
#20 = VERTEX_POINT ( 'NONE', #228 ) ;
#21 = MANIFOLD_SOLID_BREP ( 'NONE', #2 ) ;
#22 = ADVANCED_FACE ( 'NONE', ( #222 ), #220, .T. ) ;
#23 = EDGE_LOOP ( 'NONE', ( #24, #28, #31, #34 ) ) ;
#24 = ORIENTED_EDGE ( 'NONE', *, *, #25, .T. ) ;
#25 = EDGE_CURVE ( 'NONE', #26, #27, #115, .T. ) ;
#26 = VERTEX_POINT ( 'NONE', #110 ) ;
#27 = VERTEX_POINT ( 'NONE', #109 ) ;
#28 = ORIENTED_EDGE ( 'NONE', *, *, #29, .T. ) ;
#29 = EDGE_CURVE ( 'NONE', #27, #30, #108, .T. ) ;
#30 = VERTEX_POINT ( 'NONE', #104 ) ;
#31 = ORIENTED_EDGE ( 'NONE', *, *, #32, .F. ) ;
#32 = EDGE_CURVE ( 'NONE', #33, #30, #103, .T. ) ;
#33 = VERTEX_POINT ( 'NONE', #98 ) ;
#34 = ORIENTED_EDGE ( 'NONE', *, *, #50, .F. ) ;
#35 = EDGE_CURVE ( 'NONE', #51, #36, #97, .T. ) ;
#36 = VERTEX_POINT ( 'NONE', #93 ) ;
#37 = ORIENTED_EDGE ( 'NONE', *, *, #38, .F. ) ;
#38 = EDGE_CURVE ( 'NONE', #48, #42, #218, .T. ) ;
#39 = ADVANCED_FACE ( 'NONE', ( #214 ), #213, .F. ) ;
#40 = ORIENTED_EDGE ( 'NONE', *, *, #41, .T. ) ;
#41 = EDGE_CURVE ( 'NONE', #36, #42, #212, .T. ) ;
#42 = VERTEX_POINT ( 'NONE', #203 ) ;
#43 = EDGE_LOOP ( 'NONE', ( #9, #10, #13, #16 ) ) ;
#44 = EDGE_LOOP ( 'NONE', ( #49, #46, #40, #37 ) ) ;
#45 = EDGE_CURVE ( 'NONE', #51, #48, #202, .T. ) ;
#46 = ORIENTED_EDGE ( 'NONE', *, *, #35, .T. ) ;
#47 = ADVANCED_FACE ( 'NONE', ( #197 ), #196, .T. ) ;
#48 = VERTEX_POINT ( 'NONE', #195 ) ;
#49 = ORIENTED_EDGE ( 'NONE', *, *, #45, .F. ) ;
#50 = EDGE_CURVE ( 'NONE', #26, #33, #190, .T. ) ;
#51 = VERTEX_POINT ( 'NONE', #153 ) ;
#52 = EDGE_CURVE ( 'NONE', #30, #33, #151, .T. ) ;
#53 = ORIENTED_EDGE ( 'NONE', *, *, #121, .T. ) ;
#54 = EDGE_LOOP ( 'NONE', ( #255, #1, #53, #71 ) ) ;
#55 = ORIENTED_EDGE ( 'NONE', *, *, #131, .T. ) ;
#56 = ADVANCED_FACE ( 'NONE', ( #152 ), #143, .T. ) ;
#57 = EDGE_LOOP ( 'NONE', ( #58, #59, #60, #122 ) ) ;
#58 = ORIENTED_EDGE ( 'NONE', *, *, #35, .F. ) ;
#59 = ORIENTED_EDGE ( 'NONE', *, *, #129, .F. ) ;
#60 = ORIENTED_EDGE ( 'NONE', *, *, #38, .T. ) ;
#61 = ADVANCED_FACE ( 'NONE', ( #145 ), #144, .F. ) ;
#62 = DIRECTION ( 'NONE',  ( 1.000000000000000000, 0.0000000000000000000, 0.0000000000000000000 ) ) ;
#63 = DIRECTION ( 'NONE',  ( 0.0000000000000000000, 0.0000000000000000000, 1.000000000000000000 ) ) ;
#64 = CARTESIAN_POINT ( 'NONE',  ( 0.0000000000000000000, 0.0000000000000000000, 0.0000000000000000000 ) ) ;
#65 = EDGE_LOOP ( 'NONE', ( #66, #68 ) ) ;
#66 = ORIENTED_EDGE ( 'NONE', *, *, #67, .T. ) ;
#67 = EDGE_CURVE ( 'NONE', #8, #11, #88, .T. ) ;
#68 = ORIENTED_EDGE ( 'NONE', *, *, #7, .T. ) ;
#69 = EDGE_LOOP ( 'NONE', ( #128, #130 ) ) ;
#70 = ORIENTED_EDGE ( 'NONE', *, *, #32, .T. ) ;
#71 = ORIENTED_EDGE ( 'NONE', *, *, #118, .F. ) ;
#72 = EDGE_LOOP ( 'NONE', ( #120, #132 ) ) ;
#73 = FACE_OUTER_BOUND ( 'NONE', #133, .T. ) ;
#74 = FACE_BOUND ( 'NONE', #72, .T. ) ;
#75 = DIRECTION ( 'NONE',  ( 1.000000000000000000, 0.0000000000000000000, 0.0000000000000000000 ) ) ;
#76 = DIRECTION ( 'NONE',  ( -0.0000000000000000000, -0.0000000000000000000, 1.000000000000000000 ) ) ;
#77 = CARTESIAN_POINT ( 'NONE',  ( 0.0000000000000000000, 0.0000000000000000000, -0.3253044282003090300 ) ) ;
#78 = AXIS2_PLACEMENT_3D ( 'NONE', #77, #76, #75 ) ;
#79 = CIRCLE ( 'NONE', #78, 9.315500000000000100 ) ;
#80 = DIRECTION ( 'NONE',  ( -0.0000000000000000000, -0.0000000000000000000, 1.000000000000000000 ) ) ;
#81 = VECTOR ( 'NONE', #80, 1000.000000000000000 ) ;
#82 = CARTESIAN_POINT ( 'NONE',  ( -9.315500000000000100, 1.140782048903235600E-015, -4.336808689942017700E-016 ) ) ;
#83 = LINE ( 'NONE', #82, #81 ) ;
#84 = DIRECTION ( 'NONE',  ( 0.0000000000000000000, 1.000000000000000000, 1.828651628474494800E-016 ) ) ;
#85 = DIRECTION ( 'NONE',  ( -0.0000000000000000000, 1.828651628474494600E-016, -1.000000000000000000 ) ) ;
#86 = CARTESIAN_POINT ( 'NONE',  ( 0.0000000000000000000, -3.469446951953615000E-015, 0.0000000000000000000 ) ) ;
#87 = AXIS2_PLACEMENT_3D ( 'NONE', #86, #85, #84 ) ;
#88 = CIRCLE ( 'NONE', #87, 8.050000000000000700 ) ;
#89 = DIRECTION ( 'NONE',  ( 0.0000000000000000000, 1.000000000000000000, 0.0000000000000000000 ) ) ;
#90 = DIRECTION ( 'NONE',  ( -0.0000000000000000000, 1.828651628474494600E-016, -1.000000000000000000 ) ) ;
#91 = EDGE_CURVE ( 'NONE', #30, #42, #83, .T. ) ;
#92 = ORIENTED_EDGE ( 'NONE', *, *, #50, .T. ) ;
#93 = CARTESIAN_POINT ( 'NONE',  ( 9.315500000000000100, 0.0000000000000000000, -0.3253044282003090300 ) ) ;
#94 = DIRECTION ( 'NONE',  ( 0.7071067811865510100, 8.659274570719398600E-017, -0.7071067811865441300 ) ) ;
#95 = VECTOR ( 'NONE', #94, 999.9999999999998900 ) ;
#96 = CARTESIAN_POINT ( 'NONE',  ( 8.990195571799688400, 1.100945061933169900E-015, -5.464289072506945500E-018 ) ) ;
#97 = LINE ( 'NONE', #96, #95 ) ;
#98 = CARTESIAN_POINT ( 'NONE',  ( 9.315500000000000100, 0.0000000000000000000, -24.67469557179961700 ) ) ;
#99 = DIRECTION ( 'NONE',  ( 1.000000000000000000, 0.0000000000000000000, 0.0000000000000000000 ) ) ;
#100 = DIRECTION ( 'NONE',  ( -0.0000000000000000000, -0.0000000000000000000, 1.000000000000000000 ) ) ;
#101 = CARTESIAN_POINT ( 'NONE',  ( 0.0000000000000000000, 0.0000000000000000000, -24.67469557179961700 ) ) ;
#102 = AXIS2_PLACEMENT_3D ( 'NONE', #101, #100, #99 ) ;
#103 = CIRCLE ( 'NONE', #102, 9.315500000000000100 ) ;
#104 = CARTESIAN_POINT ( 'NONE',  ( -9.315500000000000100, 1.140782048903235600E-015, -24.67469557179961700 ) ) ;
#105 = DIRECTION ( 'NONE',  ( -0.7071067811865550100, 8.659274570719446600E-017, 0.7071067811865400200 ) ) ;
#106 = VECTOR ( 'NONE', #105, 1000.000000000000000 ) ;
#107 = CARTESIAN_POINT ( 'NONE',  ( -9.315500000000000100, 1.140782048903235600E-015, -24.67469557179961700 ) ) ;
#108 = LINE ( 'NONE', #107, #106 ) ;
#109 = CARTESIAN_POINT ( 'NONE',  ( -8.990195571799610300, 1.120863555418198200E-015, -25.00000000000000000 ) ) ;
#110 = CARTESIAN_POINT ( 'NONE',  ( 8.990195571799610300, 0.0000000000000000000, -25.00000000000000000 ) ) ;
#111 = DIRECTION ( 'NONE',  ( 1.000000000000000000, 0.0000000000000000000, 0.0000000000000000000 ) ) ;
#112 = DIRECTION ( 'NONE',  ( -0.0000000000000000000, -0.0000000000000000000, 1.000000000000000000 ) ) ;
#113 = CARTESIAN_POINT ( 'NONE',  ( 0.0000000000000000000, 0.0000000000000000000, -25.00000000000000000 ) ) ;
#114 = AXIS2_PLACEMENT_3D ( 'NONE', #113, #112, #111 ) ;
#115 = CIRCLE ( 'NONE', #114, 8.990195571799610300 ) ;
#116 = DIRECTION ( 'NONE',  ( 1.000000000000000000, 0.0000000000000000000, 0.0000000000000000000 ) ) ;
#117 = DIRECTION ( 'NONE',  ( -0.0000000000000000000, -0.0000000000000000000, 1.000000000000000000 ) ) ;
#118 = EDGE_CURVE ( 'NONE', #42, #36, #79, .T. ) ;
#119 = ADVANCED_FACE ( 'NONE', ( #74, #73 ), #188, .F. ) ;
#120 = ORIENTED_EDGE ( 'NONE', *, *, #131, .F. ) ;
#121 = EDGE_CURVE ( 'NONE', #33, #36, #183, .T. ) ;
#122 = ORIENTED_EDGE ( 'NONE', *, *, #118, .T. ) ;
#123 = ADVANCED_FACE ( 'NONE', ( #179 ), #177, .T. ) ;
#124 = CIRCLE ( 'NONE', #249, 8.050000000000000700 ) ;
#125 =( LENGTH_UNIT ( ) NAMED_UNIT ( * ) SI_UNIT ( .MILLI., .METRE. ) );
#126 = ORIENTED_EDGE ( 'NONE', *, *, #91, .T. ) ;
#127 = ORIENTED_EDGE ( 'NONE', *, *, #41, .F. ) ;
#128 = ORIENTED_EDGE ( 'NONE', *, *, #129, .T. ) ;
#129 = EDGE_CURVE ( 'NONE', #48, #51, #178, .T. ) ;
#130 = ORIENTED_EDGE ( 'NONE', *, *, #45, .T. ) ;
#131 = EDGE_CURVE ( 'NONE', #15, #20, #168, .T. ) ;
#132 = ORIENTED_EDGE ( 'NONE', *, *, #14, .F. ) ;
#133 = EDGE_LOOP ( 'NONE', ( #134, #135 ) ) ;
#134 = ORIENTED_EDGE ( 'NONE', *, *, #25, .F. ) ;
#135 = ORIENTED_EDGE ( 'NONE', *, *, #136, .F. ) ;
#136 = EDGE_CURVE ( 'NONE', #27, #26, #163, .T. ) ;
#137 = ADVANCED_FACE ( 'NONE', ( #158, #157 ), #156, .F. ) ;
#138 = CARTESIAN_POINT ( 'NONE',  ( 0.0000000000000000000, 1.102182119232627800E-015, -25.00000000000003600 ) ) ;
#139 = AXIS2_PLACEMENT_3D ( 'NONE', #138, #90, #89 ) ;
#140 = DIRECTION ( 'NONE',  ( -1.000000000000000000, 0.0000000000000000000, 0.0000000000000000000 ) ) ;
#141 = DIRECTION ( 'NONE',  ( 0.0000000000000000000, 0.0000000000000000000, -1.000000000000000000 ) ) ;
#142 = AXIS2_PLACEMENT_3D ( 'NONE', #146, #141, #140 ) ;
#143 = CONICAL_SURFACE ( 'NONE', #142, 8.990195571799688400, 0.7853981633974532800 ) ;
#144 = CYLINDRICAL_SURFACE ( 'NONE', #139, 8.050000000000000700 ) ;
#145 = FACE_OUTER_BOUND ( 'NONE', #3, .T. ) ;
#146 = CARTESIAN_POINT ( 'NONE',  ( 0.0000000000000000000, 0.0000000000000000000, -5.464289072506945500E-018 ) ) ;
#147 = DIRECTION ( 'NONE',  ( 1.000000000000000000, 0.0000000000000000000, 0.0000000000000000000 ) ) ;
#148 = DIRECTION ( 'NONE',  ( -0.0000000000000000000, -0.0000000000000000000, 1.000000000000000000 ) ) ;
#149 = CARTESIAN_POINT ( 'NONE',  ( 0.0000000000000000000, 0.0000000000000000000, -24.67469557179961700 ) ) ;
#150 = AXIS2_PLACEMENT_3D ( 'NONE', #149, #148, #147 ) ;
#151 = CIRCLE ( 'NONE', #150, 9.315500000000000100 ) ;
#152 = FACE_OUTER_BOUND ( 'NONE', #57, .T. ) ;
#153 = CARTESIAN_POINT ( 'NONE',  ( 8.990195571799688400, 1.120863555418202800E-015, -5.464289072506945500E-018 ) ) ;
#154 = DIRECTION ( 'NONE',  ( 0.7071067811865550100, 0.0000000000000000000, 0.7071067811865400200 ) ) ;
#155 = VECTOR ( 'NONE', #154, 1000.000000000000000 ) ;
#156 = PLANE ( 'NONE',  #271 ) ;
#157 = FACE_OUTER_BOUND ( 'NONE', #69, .T. ) ;
#158 = FACE_BOUND ( 'NONE', #65, .T. ) ;
#159 = DIRECTION ( 'NONE',  ( 1.000000000000000000, 0.0000000000000000000, 0.0000000000000000000 ) ) ;
#160 = DIRECTION ( 'NONE',  ( -0.0000000000000000000, -0.0000000000000000000, 1.000000000000000000 ) ) ;
#161 = CARTESIAN_POINT ( 'NONE',  ( 0.0000000000000000000, 0.0000000000000000000, -25.00000000000000000 ) ) ;
#162 = AXIS2_PLACEMENT_3D ( 'NONE', #161, #160, #159 ) ;
#163 = CIRCLE ( 'NONE', #162, 8.990195571799610300 ) ;
#164 = DIRECTION ( 'NONE',  ( 0.0000000000000000000, 1.000000000000000000, 0.0000000000000000000 ) ) ;
#165 = DIRECTION ( 'NONE',  ( -0.0000000000000000000, 1.828651628474494600E-016, -1.000000000000000000 ) ) ;
#166 = CARTESIAN_POINT ( 'NONE',  ( 0.0000000000000000000, 1.102182119232621700E-015, -25.00000000000000000 ) ) ;
#167 = AXIS2_PLACEMENT_3D ( 'NONE', #166, #165, #164 ) ;
#168 = CIRCLE ( 'NONE', #167, 8.050000000000002500 ) ;
#169 = DIRECTION ( 'NONE',  ( 1.000000000000000000, 0.0000000000000000000, 0.0000000000000000000 ) ) ;
#170 = DIRECTION ( 'NONE',  ( -0.0000000000000000000, -0.0000000000000000000, 1.000000000000000000 ) ) ;
#171 = CARTESIAN_POINT ( 'NONE',  ( 0.0000000000000000000, 0.0000000000000000000, -5.464289072506945500E-018 ) ) ;
#172 = AXIS2_PLACEMENT_3D ( 'NONE', #171, #170, #169 ) ;
#173 = DIRECTION ( 'NONE',  ( 1.000000000000000000, 0.0000000000000000000, 0.0000000000000000000 ) ) ;
#174 = DIRECTION ( 'NONE',  ( -0.0000000000000000000, -0.0000000000000000000, 1.000000000000000000 ) ) ;
#175 = CARTESIAN_POINT ( 'NONE',  ( 0.0000000000000000000, 0.0000000000000000000, -24.67469557179961700 ) ) ;
#176 = AXIS2_PLACEMENT_3D ( 'NONE', #175, #174, #173 ) ;
#177 = CONICAL_SURFACE ( 'NONE', #176, 9.315500000000000100, 0.7853981633974589400 ) ;
#178 = CIRCLE ( 'NONE', #172, 8.990195571799688400 ) ;
#179 = FACE_OUTER_BOUND ( 'NONE', #250, .T. ) ;
#180 = DIRECTION ( 'NONE',  ( -0.0000000000000000000, -0.0000000000000000000, 1.000000000000000000 ) ) ;
#181 = VECTOR ( 'NONE', #180, 1000.000000000000000 ) ;
#182 = CARTESIAN_POINT ( 'NONE',  ( 9.315500000000000100, 0.0000000000000000000, -4.336808689942017700E-016 ) ) ;
#183 = LINE ( 'NONE', #182, #181 ) ;
#184 = DIRECTION ( 'NONE',  ( 1.000000000000000000, 0.0000000000000000000, 0.0000000000000000000 ) ) ;
#185 = DIRECTION ( 'NONE',  ( 0.0000000000000000000, -0.0000000000000000000, 1.000000000000000000 ) ) ;
#186 = CARTESIAN_POINT ( 'NONE',  ( 0.0000000000000000000, 9.315500000000000100, -25.00000000000000000 ) ) ;
#187 = AXIS2_PLACEMENT_3D ( 'NONE', #186, #185, #184 ) ;
#188 = PLANE ( 'NONE',  #187 ) ;
#189 = CARTESIAN_POINT ( 'NONE',  ( 9.315500000000000100, 0.0000000000000000000, -24.67469557179961700 ) ) ;
#190 = LINE ( 'NONE', #189, #155 ) ;
#191 = DIRECTION ( 'NONE',  ( -1.000000000000000000, 0.0000000000000000000, 0.0000000000000000000 ) ) ;
#192 = DIRECTION ( 'NONE',  ( 0.0000000000000000000, 0.0000000000000000000, -1.000000000000000000 ) ) ;
#193 = CARTESIAN_POINT ( 'NONE',  ( 0.0000000000000000000, 0.0000000000000000000, -5.464289072506945500E-018 ) ) ;
#194 = AXIS2_PLACEMENT_3D ( 'NONE', #193, #192, #191 ) ;
#195 = CARTESIAN_POINT ( 'NONE',  ( -8.990195571799688400, 0.0000000000000000000, -5.464289072506945500E-018 ) ) ;
#196 = CONICAL_SURFACE ( 'NONE', #194, 8.990195571799688400, 0.7853981633974532800 ) ;
#197 = FACE_OUTER_BOUND ( 'NONE', #44, .T. ) ;
#198 = DIRECTION ( 'NONE',  ( 1.000000000000000000, 0.0000000000000000000, 0.0000000000000000000 ) ) ;
#199 = DIRECTION ( 'NONE',  ( -0.0000000000000000000, -0.0000000000000000000, 1.000000000000000000 ) ) ;
#200 = CARTESIAN_POINT ( 'NONE',  ( 0.0000000000000000000, 0.0000000000000000000, -5.464289072506945500E-018 ) ) ;
#201 = AXIS2_PLACEMENT_3D ( 'NONE', #200, #199, #198 ) ;
#202 = CIRCLE ( 'NONE', #201, 8.990195571799688400 ) ;
#203 = CARTESIAN_POINT ( 'NONE',  ( -9.315500000000000100, 1.140782048903235600E-015, -0.3253044282003090300 ) ) ;
#204 = DIRECTION ( 'NONE',  ( 1.000000000000000000, 0.0000000000000000000, 0.0000000000000000000 ) ) ;
#205 = DIRECTION ( 'NONE',  ( -0.0000000000000000000, -0.0000000000000000000, 1.000000000000000000 ) ) ;
#206 = CARTESIAN_POINT ( 'NONE',  ( 0.0000000000000000000, 0.0000000000000000000, -0.3253044282003090300 ) ) ;
#207 = AXIS2_PLACEMENT_3D ( 'NONE', #206, #205, #204 ) ;
#208 = DIRECTION ( 'NONE',  ( 0.0000000000000000000, 1.000000000000000000, 0.0000000000000000000 ) ) ;
#209 = DIRECTION ( 'NONE',  ( -0.0000000000000000000, 1.828651628474494600E-016, -1.000000000000000000 ) ) ;
#210 = CARTESIAN_POINT ( 'NONE',  ( 0.0000000000000000000, 1.102182119232627800E-015, -25.00000000000003600 ) ) ;
#211 = AXIS2_PLACEMENT_3D ( 'NONE', #210, #209, #208 ) ;
#212 = CIRCLE ( 'NONE', #207, 9.315500000000000100 ) ;
#213 = CYLINDRICAL_SURFACE ( 'NONE', #211, 8.050000000000000700 ) ;
#214 = FACE_OUTER_BOUND ( 'NONE', #43, .T. ) ;
#215 = DIRECTION ( 'NONE',  ( -0.7071067811865510100, 0.0000000000000000000, -0.7071067811865441300 ) ) ;
#216 = VECTOR ( 'NONE', #215, 999.9999999999998900 ) ;
#217 = CARTESIAN_POINT ( 'NONE',  ( -8.990195571799688400, 0.0000000000000000000, -5.464289072506945500E-018 ) ) ;
#218 = LINE ( 'NONE', #217, #216 ) ;
#219 = AXIS2_PLACEMENT_3D ( 'NONE', #221, #117, #116 ) ;
#220 = CONICAL_SURFACE ( 'NONE', #219, 9.315500000000000100, 0.7853981633974589400 ) ;
#221 = CARTESIAN_POINT ( 'NONE',  ( 0.0000000000000000000, 0.0000000000000000000, -24.67469557179961700 ) ) ;
#222 = FACE_OUTER_BOUND ( 'NONE', #23, .T. ) ;
#223 = DIRECTION ( 'NONE',  ( 1.000000000000000000, 0.0000000000000000000, 0.0000000000000000000 ) ) ;
#224 = DIRECTION ( 'NONE',  ( -0.0000000000000000000, -0.0000000000000000000, 1.000000000000000000 ) ) ;
#225 = CARTESIAN_POINT ( 'NONE',  ( 0.0000000000000000000, 0.0000000000000000000, -4.336808689942017700E-016 ) ) ;
#226 = AXIS2_PLACEMENT_3D ( 'NONE', #225, #224, #223 ) ;
#227 = CYLINDRICAL_SURFACE ( 'NONE', #226, 9.315500000000000100 ) ;
#228 = CARTESIAN_POINT ( 'NONE',  ( 9.858081148270139300E-016, -8.050000000000000700, -25.00000000000000000 ) ) ;
#229 = FACE_OUTER_BOUND ( 'NONE', #19, .T. ) ;
#230 = DIRECTION ( 'NONE',  ( -0.0000000000000000000, 1.828651628474494600E-016, -1.000000000000000000 ) ) ;
#231 = VECTOR ( 'NONE', #230, 1000.000000000000000 ) ;
#232 = CARTESIAN_POINT ( 'NONE',  ( 0.0000000000000000000, 8.050000000000002500, -25.00000000000003600 ) ) ;
#233 = LINE ( 'NONE', #232, #231 ) ;
#234 = CARTESIAN_POINT ( 'NONE',  ( 0.0000000000000000000, 8.050000000000004300, -25.00000000000000000 ) ) ;
#235 = DIRECTION ( 'NONE',  ( 0.0000000000000000000, 1.000000000000000000, 0.0000000000000000000 ) ) ;
#236 = DIRECTION ( 'NONE',  ( -0.0000000000000000000, 1.828651628474494600E-016, -1.000000000000000000 ) ) ;
#237 = CARTESIAN_POINT ( 'NONE',  ( 0.0000000000000000000, 1.102182119232621700E-015, -25.00000000000000000 ) ) ;
#238 = AXIS2_PLACEMENT_3D ( 'NONE', #237, #236, #235 ) ;
#239 = CIRCLE ( 'NONE', #238, 8.050000000000002500 ) ;
#240 = DIRECTION ( 'NONE',  ( -0.0000000000000000000, 1.828651628474494600E-016, -1.000000000000000000 ) ) ;
#241 = VECTOR ( 'NONE', #240, 1000.000000000000000 ) ;
#242 = CARTESIAN_POINT ( 'NONE',  ( 9.858081148270139300E-016, -8.050000000000000700, -25.00000000000003600 ) ) ;
#243 = LINE ( 'NONE', #242, #241 ) ;
#244 = CARTESIAN_POINT ( 'NONE',  ( 9.858081148270143200E-016, -8.050000000000004300, -1.472064560921968400E-015 ) ) ;
#245 = CARTESIAN_POINT ( 'NONE',  ( 0.0000000000000000000, 8.049999999999998900, 1.472064560921968400E-015 ) ) ;
#246 = DIRECTION ( 'NONE',  ( 0.0000000000000000000, 1.000000000000000000, 1.828651628474494800E-016 ) ) ;
#247 = DIRECTION ( 'NONE',  ( -0.0000000000000000000, 1.828651628474494600E-016, -1.000000000000000000 ) ) ;
#248 = CARTESIAN_POINT ( 'NONE',  ( 0.0000000000000000000, -3.469446951953615000E-015, 0.0000000000000000000 ) ) ;
#249 = AXIS2_PLACEMENT_3D ( 'NONE', #248, #247, #246 ) ;
#250 = EDGE_LOOP ( 'NONE', ( #251, #252, #92, #256 ) ) ;
#251 = ORIENTED_EDGE ( 'NONE', *, *, #29, .F. ) ;
#252 = ORIENTED_EDGE ( 'NONE', *, *, #136, .T. ) ;
#253 = ORIENTED_EDGE ( 'NONE', *, *, #121, .F. ) ;
#254 = ADVANCED_FACE ( 'NONE', ( #267 ), #266, .T. ) ;
#255 = ORIENTED_EDGE ( 'NONE', *, *, #91, .F. ) ;
#256 = ORIENTED_EDGE ( 'NONE', *, *, #52, .F. ) ;
#257 = ADVANCED_BREP_SHAPE_REPRESENTATION ( '11-0206-04_outokumpu', ( #21, #265 ), #258 ) ;
#258 =( GEOMETRIC_REPRESENTATION_CONTEXT ( 3 ) GLOBAL_UNCERTAINTY_ASSIGNED_CONTEXT ( ( #259 ) ) GLOBAL_UNIT_ASSIGNED_CONTEXT ( ( #125, #261, #260 ) ) REPRESENTATION_CONTEXT ( 'NONE', 'WORKASPACE' ) );
#259 = UNCERTAINTY_MEASURE_WITH_UNIT (LENGTH_MEASURE( 1.000000000000000100E-005 ), #125, 'distance_accuracy_value', 'NONE');
#260 =( NAMED_UNIT ( * ) SI_UNIT ( $, .STERADIAN. ) SOLID_ANGLE_UNIT ( ) );
#261 =( NAMED_UNIT ( * ) PLANE_ANGLE_UNIT ( ) SI_UNIT ( $, .RADIAN. ) );
#262 = DIRECTION ( 'NONE',  ( 1.000000000000000000, 0.0000000000000000000, 0.0000000000000000000 ) ) ;
#263 = DIRECTION ( 'NONE',  ( -0.0000000000000000000, -0.0000000000000000000, 1.000000000000000000 ) ) ;
#264 = AXIS2_PLACEMENT_3D ( 'NONE', #272, #263, #262 ) ;
#265 = AXIS2_PLACEMENT_3D ( 'NONE', #64, #63, #62 ) ;
#266 = CYLINDRICAL_SURFACE ( 'NONE', #264, 9.315500000000000100 ) ;
#267 = FACE_OUTER_BOUND ( 'NONE', #54, .T. ) ;
#268 = DIRECTION ( 'NONE',  ( -1.000000000000000000, 0.0000000000000000000, -0.0000000000000000000 ) ) ;
#269 = DIRECTION ( 'NONE',  ( 0.0000000000000000000, 0.0000000000000000000, -1.000000000000000000 ) ) ;
#270 = CARTESIAN_POINT ( 'NONE',  ( 0.0000000000000000000, 9.315500000000000100, -2.168404344971008900E-016 ) ) ;
#271 = AXIS2_PLACEMENT_3D ( 'NONE', #270, #269, #268 ) ;
#272 = CARTESIAN_POINT ( 'NONE',  ( 0.0000000000000000000, 0.0000000000000000000, -4.336808689942017700E-016 ) ) ;
#273 = PRODUCT_DEFINITION_SHAPE ( 'NONE', 'NONE',  #340 ) ;
#274 = PRODUCT_RELATED_PRODUCT_CATEGORY ( 'detail', '', ( #347 ) ) ;
#275 = CC_DESIGN_SECURITY_CLASSIFICATION ( #310, ( #327 ) ) ;
#276 = CC_DESIGN_APPROVAL ( #284, ( #310 ) ) ;
#277 = APPROVAL_DATE_TIME ( #278, #284 ) ;
#278 = DATE_AND_TIME ( #279, #280 ) ;
#279 = CALENDAR_DATE ( 2015, 11, 8 ) ;
#280 = LOCAL_TIME ( 11, 46, 33.00000000000000000, #281 ) ;
#281 = COORDINATED_UNIVERSAL_TIME_OFFSET ( 1, 0, .AHEAD. ) ;
#282 = APPROVAL_PERSON_ORGANIZATION ( #286, #284, #283 ) ;
#283 = APPROVAL_ROLE ( '' ) ;
#284 = APPROVAL ( #285, 'UNSPECIFIED' ) ;
#285 = APPROVAL_STATUS ( 'not_yet_approved' ) ;
#286 = PERSON_AND_ORGANIZATION ( #346, #345 ) ;
#287 = CC_DESIGN_DATE_AND_TIME_ASSIGNMENT ( #306, #288, ( #310 ) ) ;
#288 = DATE_TIME_ROLE ( 'classification_date' ) ;
#289 = CALENDAR_DATE ( 2015, 11, 8 ) ;
#290 = LOCAL_TIME ( 11, 46, 33.00000000000000000, #291 ) ;
#291 = COORDINATED_UNIVERSAL_TIME_OFFSET ( 1, 0, .AHEAD. ) ;
#292 = APPLICATION_CONTEXT ( 'configuration controlled 3d designs of mechanical parts and assemblies' ) ;
#293 = PERSON_AND_ORGANIZATION ( #346, #345 ) ;
#294 = CC_DESIGN_PERSON_AND_ORGANIZATION_ASSIGNMENT ( #296, #295, ( #327 ) ) ;
#295 = PERSON_AND_ORGANIZATION_ROLE ( 'creator' ) ;
#296 = PERSON_AND_ORGANIZATION ( #346, #345 ) ;
#297 = CC_DESIGN_APPROVAL ( #324, ( #327 ) ) ;
#298 = APPROVAL_DATE_TIME ( #299, #324 ) ;
#299 = DATE_AND_TIME ( #300, #301 ) ;
#300 = CALENDAR_DATE ( 2015, 11, 8 ) ;
#301 = LOCAL_TIME ( 11, 46, 33.00000000000000000, #302 ) ;
#302 = COORDINATED_UNIVERSAL_TIME_OFFSET ( 1, 0, .AHEAD. ) ;
#303 = APPROVAL_PERSON_ORGANIZATION ( #326, #324, #304 ) ;
#304 = APPROVAL_ROLE ( '' ) ;
#305 = SHAPE_DEFINITION_REPRESENTATION ( #273, #257 ) ;
#306 = DATE_AND_TIME ( #289, #290 ) ;
#307 = CC_DESIGN_PERSON_AND_ORGANIZATION_ASSIGNMENT ( #309, #308, ( #310 ) ) ;
#308 = PERSON_AND_ORGANIZATION_ROLE ( 'classification_officer' ) ;
#309 = PERSON_AND_ORGANIZATION ( #346, #345 ) ;
#310 = SECURITY_CLASSIFICATION ( '', '', #311 ) ;
#311 = SECURITY_CLASSIFICATION_LEVEL ( 'unclassified' ) ;
#312 = CC_DESIGN_PERSON_AND_ORGANIZATION_ASSIGNMENT ( #293, #313, ( #327 ) ) ;
#313 = PERSON_AND_ORGANIZATION_ROLE ( 'design_supplier' ) ;
#314 = COORDINATED_UNIVERSAL_TIME_OFFSET ( 1, 0, .AHEAD. ) ;
#315 = CC_DESIGN_PERSON_AND_ORGANIZATION_ASSIGNMENT ( #317, #316, ( #340 ) ) ;
#316 = PERSON_AND_ORGANIZATION_ROLE ( 'creator' ) ;
#317 = PERSON_AND_ORGANIZATION ( #346, #345 ) ;
#318 = CC_DESIGN_APPROVAL ( #337, ( #340 ) ) ;
#319 = APPROVAL_DATE_TIME ( #335, #337 ) ;
#320 = CALENDAR_DATE ( 2015, 11, 8 ) ;
#321 = LOCAL_TIME ( 11, 46, 33.00000000000000000, #322 ) ;
#322 = COORDINATED_UNIVERSAL_TIME_OFFSET ( 1, 0, .AHEAD. ) ;
#323 = APPROVAL_PERSON_ORGANIZATION ( #339, #337, #336 ) ;
#324 = APPROVAL ( #325, 'UNSPECIFIED' ) ;
#325 = APPROVAL_STATUS ( 'not_yet_approved' ) ;
#326 = PERSON_AND_ORGANIZATION ( #346, #345 ) ;
#327 = PRODUCT_DEFINITION_FORMATION_WITH_SPECIFIED_SOURCE ( 'ANY', '', #347, .NOT_KNOWN. ) ;
#328 = CC_DESIGN_DATE_AND_TIME_ASSIGNMENT ( #330, #329, ( #340 ) ) ;
#329 = DATE_TIME_ROLE ( 'creation_date' ) ;
#330 = DATE_AND_TIME ( #331, #332 ) ;
#331 = CALENDAR_DATE ( 2015, 11, 8 ) ;
#332 = LOCAL_TIME ( 11, 46, 33.00000000000000000, #314 ) ;
#333 = PERSON_AND_ORGANIZATION_ROLE ( 'design_owner' ) ;
#334 = PERSON_AND_ORGANIZATION ( #346, #345 ) ;
#335 = DATE_AND_TIME ( #320, #321 ) ;
#336 = APPROVAL_ROLE ( '' ) ;
#337 = APPROVAL ( #338, 'UNSPECIFIED' ) ;
#338 = APPROVAL_STATUS ( 'not_yet_approved' ) ;
#339 = PERSON_AND_ORGANIZATION ( #346, #345 ) ;
#340 = PRODUCT_DEFINITION ( 'UNKNOWN', '', #327, #341 ) ;
#341 = DESIGN_CONTEXT ( 'detailed design', #343, 'design' ) ;
#342 = APPLICATION_PROTOCOL_DEFINITION ( 'international standard', 'config_control_design', 1994, #343 ) ;
#343 = APPLICATION_CONTEXT ( 'configuration controlled 3d designs of mechanical parts and assemblies' ) ;
#344 = CC_DESIGN_PERSON_AND_ORGANIZATION_ASSIGNMENT ( #334, #333, ( #347 ) ) ;
#345 = ORGANIZATION ( 'UNSPECIFIED', 'UNSPECIFIED', '' ) ;
#346 = PERSON ( 'UNSPECIFIED', 'UNSPECIFIED', 'UNSPECIFIED', ('UNSPECIFIED'), ('UNSPECIFIED'), ('UNSPECIFIED') ) ;
#347 = PRODUCT ( '11-0206-04_outokumpu', '11-0206-04_outokumpu', '', ( #348 ) ) ;
#348 = MECHANICAL_CONTEXT ( 'NONE', #292, 'mechanical' ) ;
#349 = APPLICATION_PROTOCOL_DEFINITION ( 'international standard', 'config_control_design', 1994, #292 ) ;
ENDSEC;
END-ISO-10303-21;
