ISO-10303-21;
HEADER;
FILE_DESCRIPTION (( 'STEP AP203' ),
    '1' );
FILE_NAME ('3D_R365_54x2_173371120.STEP',
    '2024-07-16T06:32:38',
    ( '' ),
    ( '' ),
    'SwSTEP 2.0',
    'SolidWorks 2024',
    '' );
FILE_SCHEMA (( 'CONFIG_CONTROL_DESIGN' ));
ENDSEC;

DATA;
#1 = AXIS2_PLACEMENT_3D ( 'NONE', #241, #61, #238 ) ;
#2 = DIRECTION ( 'NONE',  ( -1.000000000000000000, 4.596983092540343816E-18, 0.000000000000000000 ) ) ;
#3 = EDGE_CURVE ( 'NONE', #229, #119, #22, .T. ) ;
#4 = DIRECTION ( 'NONE',  ( -1.000000000000000000, 4.596983092540344586E-18, 0.000000000000000000 ) ) ;
#5 = VECTOR ( 'NONE', #248, 1000.000000000000000 ) ;
#6 = DIRECTION ( 'NONE',  ( -0.000000000000000000, 0.000000000000000000, -1.000000000000000000 ) ) ;
#7 = AXIS2_PLACEMENT_3D ( 'NONE', #26, #123, #312 ) ;
#8 = DIRECTION ( 'NONE',  ( -1.000000000000000000, 4.596983092540343816E-18, 0.000000000000000000 ) ) ;
#9 = APPROVAL_STATUS ( 'not_yet_approved' ) ;
#10 = APPROVAL_PERSON_ORGANIZATION ( #232, #191, #391 ) ;
#11 = VERTEX_POINT ( 'NONE', #244 ) ;
#12 = DATE_AND_TIME ( #295, #274 ) ;
#13 = EDGE_LOOP ( 'NONE', ( #15, #125, #25, #396 ) ) ;
#14 = ADVANCED_FACE ( 'NONE', ( #373 ), #250, .T. ) ;
#15 = ORIENTED_EDGE ( 'NONE', *, *, #99, .F. ) ;
#16 = ORIENTED_EDGE ( 'NONE', *, *, #408, .F. ) ;
#17 = CYLINDRICAL_SURFACE ( 'NONE', #19, 25.00000000000000000 ) ;
#18 = ORIENTED_EDGE ( 'NONE', *, *, #103, .F. ) ;
#19 = AXIS2_PLACEMENT_3D ( 'NONE', #179, #91, #318 ) ;
#20 = TOROIDAL_SURFACE ( 'NONE', #127, 20.90000000000000213, 4.100000000000002309 ) ;
#21 = DIRECTION ( 'NONE',  ( -1.224646799147353207E-16, 5.629680630014033300E-34, 1.000000000000000000 ) ) ;
#22 = CIRCLE ( 'NONE', #343, 25.00000000000000355 ) ;
#23 = SPHERICAL_SURFACE ( 'NONE', #218, 41.20000000000000284 ) ;
#24 = DIRECTION ( 'NONE',  ( 4.596983092540343816E-18, 1.000000000000000000, -0.000000000000000000 ) ) ;
#25 = ORIENTED_EDGE ( 'NONE', *, *, #310, .T. ) ;
#26 = CARTESIAN_POINT ( 'NONE',  ( 7.210985854030636687E-15, 3.793225020853361329, 0.000000000000000000 ) ) ;
#27 = UNCERTAINTY_MEASURE_WITH_UNIT (LENGTH_MEASURE( 1.000000000000000082E-05 ), #64, 'distance_accuracy_value', 'NONE');
#28 = CARTESIAN_POINT ( 'NONE',  ( 27.00000000000000355, 0.4992907712231263728, 3.306546357697854128E-15 ) ) ;
#29 = EDGE_CURVE ( 'NONE', #229, #200, #58, .T. ) ;
#30 = LINE ( 'NONE', #344, #5 ) ;
#31 = DIRECTION ( 'NONE',  ( 4.596983092540343816E-18, 1.000000000000000000, -0.000000000000000000 ) ) ;
#32 = DIRECTION ( 'NONE',  ( -1.000000000000000000, 4.596983092540343816E-18, 0.000000000000000000 ) ) ;
#33 = ADVANCED_FACE ( 'NONE', ( #217 ), #340, .T. ) ;
#34 = CARTESIAN_POINT ( 'NONE',  ( 9.484726407206024727E-16, 5.400022215794830771, 0.000000000000000000 ) ) ;
#35 = AXIS2_PLACEMENT_3D ( 'NONE', #164, #6, #132 ) ;
#36 = AXIS2_PLACEMENT_3D ( 'NONE', #292, #358, #70 ) ;
#37 = PERSON_AND_ORGANIZATION_ROLE ( 'design_owner' ) ;
#38 = APPROVAL_ROLE ( '' ) ;
#39 = ORGANIZATION ( 'UNSPECIFIED', 'UNSPECIFIED', '' ) ;
#40 = EDGE_LOOP ( 'NONE', ( #84, #136, #205 ) ) ;
#41 = CC_DESIGN_PERSON_AND_ORGANIZATION_ASSIGNMENT ( #395, #110, ( #169 ) ) ;
#42 = EDGE_CURVE ( 'NONE', #200, #264, #381, .T. ) ;
#43 = EDGE_LOOP ( 'NONE', ( #105, #74, #400, #208 ) ) ;
#44 = EDGE_LOOP ( 'NONE', ( #236, #326, #121, #80 ) ) ;
#45 = FACE_BOUND ( 'NONE', #329, .T. ) ;
#46 = VERTEX_POINT ( 'NONE', #28 ) ;
#47 = APPROVAL_STATUS ( 'not_yet_approved' ) ;
#48 = DIRECTION ( 'NONE',  ( 1.000000000000000000, -4.596983092540343816E-18, 0.000000000000000000 ) ) ;
#49 = CIRCLE ( 'NONE', #281, 39.19999999999999574 ) ;
#50 = APPLICATION_CONTEXT ( 'configuration controlled 3d designs of mechanical parts and assemblies' ) ;
#51 = AXIS2_PLACEMENT_3D ( 'NONE', #120, #252, #188 ) ;
#52 = DIRECTION ( 'NONE',  ( 4.596983092540343816E-18, 1.000000000000000000, -0.000000000000000000 ) ) ;
#53 = DIRECTION ( 'NONE',  ( -1.000000000000000000, 0.000000000000000000, 0.000000000000000000 ) ) ;
#54 = DIRECTION ( 'NONE',  ( -1.000000000000000000, 0.000000000000000000, 0.000000000000000000 ) ) ;
#55 = CC_DESIGN_PERSON_AND_ORGANIZATION_ASSIGNMENT ( #101, #227, ( #202 ) ) ;
#56 = AXIS2_PLACEMENT_3D ( 'NONE', #313, #89, #242 ) ;
#57 = CARTESIAN_POINT ( 'NONE',  ( 9.259440611288261064E-16, 0.4992907712231264838, 0.000000000000000000 ) ) ;
#58 = CIRCLE ( 'NONE', #327, 4.100000000000003197 ) ;
#59 = AXIS2_PLACEMENT_3D ( 'NONE', #57, #337, #277 ) ;
#60 = DIRECTION ( 'NONE',  ( 1.000000000000000000, 0.000000000000000000, 1.224646799147352961E-16 ) ) ;
#61 = DIRECTION ( 'NONE',  ( -0.000000000000000000, 0.000000000000000000, -1.000000000000000000 ) ) ;
#62 = CARTESIAN_POINT ( 'NONE',  ( 0.000000000000000000, 0.4992907712232990680, 0.000000000000000000 ) ) ;
#63 = COORDINATED_UNIVERSAL_TIME_OFFSET ( 1, 0, .AHEAD. ) ;
#64 =( LENGTH_UNIT ( ) NAMED_UNIT ( * ) SI_UNIT ( .MILLI., .METRE. ) );
#65 = CIRCLE ( 'NONE', #59, 27.00000000000000355 ) ;
#66 = ADVANCED_FACE ( 'NONE', ( #159 ), #375, .F. ) ;
#67 = AXIS2_PLACEMENT_3D ( 'NONE', #98, #385, #4 ) ;
#68 = AXIS2_PLACEMENT_3D ( 'NONE', #79, #31, #336 ) ;
#69 = DIRECTION ( 'NONE',  ( -1.000000000000000000, 4.015563601798163914E-18, 0.000000000000000000 ) ) ;
#70 = DIRECTION ( 'NONE',  ( 1.000000000000000000, 0.000000000000000000, 1.224646799147352714E-16 ) ) ;
#71 = CC_DESIGN_PERSON_AND_ORGANIZATION_ASSIGNMENT ( #174, #81, ( #169 ) ) ;
#72 = ORIENTED_EDGE ( 'NONE', *, *, #247, .T. ) ;
#73 = EDGE_CURVE ( 'NONE', #325, #46, #30, .T. ) ;
#74 = ORIENTED_EDGE ( 'NONE', *, *, #103, .T. ) ;
#75 = SHAPE_DEFINITION_REPRESENTATION ( #109, #311 ) ;
#76 = DIRECTION ( 'NONE',  ( -1.000000000000000000, 0.000000000000000000, 0.000000000000000000 ) ) ;
#77 = ORIENTED_EDGE ( 'NONE', *, *, #193, .T. ) ;
#78 = PERSON_AND_ORGANIZATION ( #225, #39 ) ;
#79 = CARTESIAN_POINT ( 'NONE',  ( 0.000000000000000000, 0.4992907712232990680, 0.000000000000000000 ) ) ;
#80 = ORIENTED_EDGE ( 'NONE', *, *, #3, .T. ) ;
#81 = PERSON_AND_ORGANIZATION_ROLE ( 'creator' ) ;
#82 = FACE_OUTER_BOUND ( 'NONE', #260, .T. ) ;
#83 = VECTOR ( 'NONE', #256, 1000.000000000000000 ) ;
#84 = ORIENTED_EDGE ( 'NONE', *, *, #310, .F. ) ;
#85 = DIRECTION ( 'NONE',  ( -1.000000000000000000, 0.000000000000000000, 0.000000000000000000 ) ) ;
#86 = DIRECTION ( 'NONE',  ( 0.000000000000000000, 0.000000000000000000, 1.000000000000000000 ) ) ;
#87 = CARTESIAN_POINT ( 'NONE',  ( 1.387778780781445676E-14, 2817.965330118411202, 0.000000000000000000 ) ) ;
#88 = EDGE_CURVE ( 'NONE', #46, #184, #65, .T. ) ;
#89 = DIRECTION ( 'NONE',  ( 4.596983092540343816E-18, 1.000000000000000000, -0.000000000000000000 ) ) ;
#90 = DIRECTION ( 'NONE',  ( -1.224646799147353207E-16, 5.629680630014033300E-34, 1.000000000000000000 ) ) ;
#91 = DIRECTION ( 'NONE',  ( 4.596983092540343816E-18, 1.000000000000000000, -0.000000000000000000 ) ) ;
#92 = CIRCLE ( 'NONE', #197, 27.00000000000000000 ) ;
#93 = EDGE_LOOP ( 'NONE', ( #113, #108, #168, #198 ) ) ;
#94 = CARTESIAN_POINT ( 'NONE',  ( -27.00000000000000000, 1.241185434985892892E-16, 0.000000000000000000 ) ) ;
#95 = SECURITY_CLASSIFICATION ( '', '', #235 ) ;
#96 = CARTESIAN_POINT ( 'NONE',  ( 27.00000000000000000, -1.241185434985892645E-16, 3.306546357697853733E-15 ) ) ;
#97 = APPROVAL ( #47, 'UNSPECIFIED' ) ;
#98 = CARTESIAN_POINT ( 'NONE',  ( 0.000000000000000000, 0.4992907712232990680, 0.000000000000000000 ) ) ;
#99 = EDGE_CURVE ( 'NONE', #119, #229, #398, .T. ) ;
#100 = DIRECTION ( 'NONE',  ( 1.000000000000000000, 0.000000000000000000, 0.000000000000000000 ) ) ;
#101 = PERSON_AND_ORGANIZATION ( #225, #39 ) ;
#102 = CIRCLE ( 'NONE', #196, 6.100000000000001421 ) ;
#103 = EDGE_CURVE ( 'NONE', #46, #364, #289, .T. ) ;
#104 = ORIENTED_EDGE ( 'NONE', *, *, #317, .T. ) ;
#105 = ORIENTED_EDGE ( 'NONE', *, *, #384, .T. ) ;
#106 = APPROVAL_DATE_TIME ( #303, #97 ) ;
#107 = SPHERICAL_SURFACE ( 'NONE', #306, 39.19999999999999574 ) ;
#108 = ORIENTED_EDGE ( 'NONE', *, *, #73, .T. ) ;
#109 = PRODUCT_DEFINITION_SHAPE ( 'NONE', 'NONE',  #202 ) ;
#110 = PERSON_AND_ORGANIZATION_ROLE ( 'design_supplier' ) ;
#111 = VECTOR ( 'NONE', #128, 1000.000000000000000 ) ;
#112 = DIRECTION ( 'NONE',  ( 4.596983092540343816E-18, 1.000000000000000000, -0.000000000000000000 ) ) ;
#113 = ORIENTED_EDGE ( 'NONE', *, *, #296, .T. ) ;
#114 = AXIS2_PLACEMENT_3D ( 'NONE', #366, #21, #272 ) ;
#115 = CARTESIAN_POINT ( 'NONE',  ( 9.236488298952508525E-16, 0.000000000000000000, 0.000000000000000000 ) ) ;
#116 = VERTEX_POINT ( 'NONE', #187 ) ;
#117 = CARTESIAN_POINT ( 'NONE',  ( -20.90000000000000213, 0.4992907712232991790, 0.000000000000000000 ) ) ;
#118 = CC_DESIGN_APPROVAL ( #209, ( #202 ) ) ;
#119 = VERTEX_POINT ( 'NONE', #278 ) ;
#120 = CARTESIAN_POINT ( 'NONE',  ( 7.066212031080206689E-15, -27.69999999999999929, 0.000000000000000000 ) ) ;
#121 = ORIENTED_EDGE ( 'NONE', *, *, #408, .T. ) ;
#122 = ADVANCED_FACE ( 'NONE', ( #151 ), #23, .T. ) ;
#123 = DIRECTION ( 'NONE',  ( 4.596983092540343816E-18, 1.000000000000000000, -0.000000000000000000 ) ) ;
#124 = CARTESIAN_POINT ( 'NONE',  ( -5.332621558448778258E-31, 0.4992907712231831052, 0.000000000000000000 ) ) ;
#125 = ORIENTED_EDGE ( 'NONE', *, *, #144, .T. ) ;
#126 = CIRCLE ( 'NONE', #304, 24.53219373219373622 ) ;
#127 = AXIS2_PLACEMENT_3D ( 'NONE', #298, #112, #8 ) ;
#128 = DIRECTION ( 'NONE',  ( 4.596983092540343816E-18, 1.000000000000000000, -0.000000000000000000 ) ) ;
#129 = CARTESIAN_POINT ( 'NONE',  ( 25.00000000000000000, -1.149245773135085892E-16, 3.061616997868383043E-15 ) ) ;
#130 = EDGE_CURVE ( 'NONE', #361, #389, #181, .T. ) ;
#131 = CARTESIAN_POINT ( 'NONE',  ( -24.99999999999998579, 2817.965330118411202, 0.000000000000000000 ) ) ;
#132 = DIRECTION ( 'NONE',  ( -1.000000000000000000, 0.000000000000000000, 0.000000000000000000 ) ) ;
#133 = AXIS2_PLACEMENT_3D ( 'NONE', #194, #285, #100 ) ;
#134 = APPROVAL_DATE_TIME ( #224, #209 ) ;
#135 = ADVANCED_FACE ( 'NONE', ( #166 ), #20, .F. ) ;
#136 = ORIENTED_EDGE ( 'NONE', *, *, #262, .T. ) ;
#137 = DATE_TIME_ROLE ( 'creation_date' ) ;
#138 = DIRECTION ( 'NONE',  ( 4.596983092540343816E-18, 1.000000000000000000, -0.000000000000000000 ) ) ;
#139 = ORIENTED_EDGE ( 'NONE', *, *, #287, .T. ) ;
#140 = APPROVAL_STATUS ( 'not_yet_approved' ) ;
#141 = ORIENTED_EDGE ( 'NONE', *, *, #3, .F. ) ;
#142 = CALENDAR_DATE ( 2024, 16, 7 ) ;
#143 = ORIENTED_EDGE ( 'NONE', *, *, #73, .F. ) ;
#144 = EDGE_CURVE ( 'NONE', #119, #264, #282, .T. ) ;
#145 = CIRCLE ( 'NONE', #286, 27.00000000000000000 ) ;
#146 = CARTESIAN_POINT ( 'NONE',  ( 7.066212031080206689E-15, -27.69999999999999929, 0.000000000000000000 ) ) ;
#147 = ORIENTED_EDGE ( 'NONE', *, *, #401, .T. ) ;
#148 = AXIS2_PLACEMENT_3D ( 'NONE', #180, #138, #230 ) ;
#149 = PERSON_AND_ORGANIZATION_ROLE ( 'classification_officer' ) ;
#150 = DIRECTION ( 'NONE',  ( -1.000000000000000000, 0.000000000000000000, 0.000000000000000000 ) ) ;
#151 = FACE_OUTER_BOUND ( 'NONE', #231, .T. ) ;
#152 = CARTESIAN_POINT ( 'NONE',  ( 25.00000000000001421, 2817.965330118411202, 3.061616997868383043E-15 ) ) ;
#153 = LOCAL_TIME ( 8, 32, 38.00000000000000000, #237 ) ;
#154 = ADVANCED_FACE ( 'NONE', ( #290 ), #107, .F. ) ;
#155 = CARTESIAN_POINT ( 'NONE',  ( -5.332621558448778258E-31, 0.4992907712231831052, 0.000000000000000000 ) ) ;
#156 = EDGE_LOOP ( 'NONE', ( #143, #263, #270, #302 ) ) ;
#157 = DIRECTION ( 'NONE',  ( -0.000000000000000000, 0.000000000000000000, -1.000000000000000000 ) ) ;
#158 = CC_DESIGN_APPROVAL ( #97, ( #95 ) ) ;
#159 = FACE_OUTER_BOUND ( 'NONE', #44, .T. ) ;
#160 = CARTESIAN_POINT ( 'NONE',  ( 7.210985854030636687E-15, 3.793225020853361329, 0.000000000000000000 ) ) ;
#161 = ADVANCED_FACE ( 'NONE', ( #199 ), #345, .T. ) ;
#162 = MECHANICAL_CONTEXT ( 'NONE', #354, 'mechanical' ) ;
#163 = CIRCLE ( 'NONE', #377, 23.34131054131056615 ) ;
#164 = CARTESIAN_POINT ( 'NONE',  ( 7.066212031080206689E-15, -27.69999999999999929, 0.000000000000000000 ) ) ;
#165 = AXIS2_PLACEMENT_3D ( 'NONE', #124, #409, #371 ) ;
#166 = FACE_OUTER_BOUND ( 'NONE', #13, .T. ) ;
#167 = PRODUCT ( '3D_R365_54x2_173371120', '3D_R365_54x2_173371120', '', ( #162 ) ) ;
#168 = ORIENTED_EDGE ( 'NONE', *, *, #384, .F. ) ;
#169 = PRODUCT_DEFINITION_FORMATION_WITH_SPECIFIED_SOURCE ( 'ANY', '', #167, .NOT_KNOWN. ) ;
#170 = COORDINATED_UNIVERSAL_TIME_OFFSET ( 1, 0, .AHEAD. ) ;
#171 = ORIENTED_EDGE ( 'NONE', *, *, #372, .T. ) ;
#172 = ORIENTED_EDGE ( 'NONE', *, *, #322, .T. ) ;
#173 = EDGE_LOOP ( 'NONE', ( #266, #405 ) ) ;
#174 = PERSON_AND_ORGANIZATION ( #225, #39 ) ;
#175 = SPHERICAL_SURFACE ( 'NONE', #228, 39.19999999999999574 ) ;
#176 = ORIENTED_EDGE ( 'NONE', *, *, #144, .F. ) ;
#177 = CALENDAR_DATE ( 2024, 16, 7 ) ;
#178 = TOROIDAL_SURFACE ( 'NONE', #67, 20.90000000000000213, 6.100000000000002309 ) ;
#179 = CARTESIAN_POINT ( 'NONE',  ( 1.387778780781445676E-14, 2817.965330118411202, 0.000000000000000000 ) ) ;
#180 = CARTESIAN_POINT ( 'NONE',  ( 9.236488298952508525E-16, 0.000000000000000000, 0.000000000000000000 ) ) ;
#181 = CIRCLE ( 'NONE', #148, 25.00000000000000000 ) ;
#182 = CC_DESIGN_PERSON_AND_ORGANIZATION_ASSIGNMENT ( #261, #37, ( #167 ) ) ;
#183 = DIRECTION ( 'NONE',  ( -1.000000000000000000, 0.000000000000000000, 0.000000000000000000 ) ) ;
#184 = VERTEX_POINT ( 'NONE', #328 ) ;
#185 = EDGE_LOOP ( 'NONE', ( #18, #234, #139, #203 ) ) ;
#186 = AXIS2_PLACEMENT_3D ( 'NONE', #374, #378, #54 ) ;
#187 = CARTESIAN_POINT ( 'NONE',  ( 4.732835328249321087E-15, 13.50000000000000178, 0.000000000000000000 ) ) ;
#188 = DIRECTION ( 'NONE',  ( -1.000000000000000000, 0.000000000000000000, 0.000000000000000000 ) ) ;
#189 = MANIFOLD_SOLID_BREP ( 'Wandung1', #380 ) ;
#190 = DIRECTION ( 'NONE',  ( 4.596983092540343816E-18, 1.000000000000000000, -0.000000000000000000 ) ) ;
#191 = APPROVAL ( #140, 'UNSPECIFIED' ) ;
#192 = CARTESIAN_POINT ( 'NONE',  ( 9.259440611288261064E-16, 0.4992907712231264838, 0.000000000000000000 ) ) ;
#193 = EDGE_CURVE ( 'NONE', #364, #11, #379, .T. ) ;
#194 = CARTESIAN_POINT ( 'NONE',  ( 0.000000000000000000, 0.000000000000000000, 0.000000000000000000 ) ) ;
#195 = CARTESIAN_POINT ( 'NONE',  ( 4.846106041978976004E-15, 11.50000000000000000, 0.000000000000000000 ) ) ;
#196 = AXIS2_PLACEMENT_3D ( 'NONE', #117, #314, #404 ) ;
#197 = AXIS2_PLACEMENT_3D ( 'NONE', #115, #52, #308 ) ;
#198 = ORIENTED_EDGE ( 'NONE', *, *, #351, .F. ) ;
#199 = FACE_OUTER_BOUND ( 'NONE', #185, .T. ) ;
#200 = VERTEX_POINT ( 'NONE', #315 ) ;
#201 = COORDINATED_UNIVERSAL_TIME_OFFSET ( 1, 0, .AHEAD. ) ;
#202 = PRODUCT_DEFINITION ( 'UNKNOWN', '', #169, #245 ) ;
#203 = ORIENTED_EDGE ( 'NONE', *, *, #193, .F. ) ;
#204 = CALENDAR_DATE ( 2024, 16, 7 ) ;
#205 = ORIENTED_EDGE ( 'NONE', *, *, #401, .F. ) ;
#206 = DATE_AND_TIME ( #204, #153 ) ;
#207 = CARTESIAN_POINT ( 'NONE',  ( 9.236488298952508525E-16, 0.000000000000000000, 0.000000000000000000 ) ) ;
#208 = ORIENTED_EDGE ( 'NONE', *, *, #287, .F. ) ;
#209 = APPROVAL ( #9, 'UNSPECIFIED' ) ;
#210 = DATE_TIME_ROLE ( 'classification_date' ) ;
#211 = FACE_OUTER_BOUND ( 'NONE', #214, .T. ) ;
#212 = VERTEX_POINT ( 'NONE', #94 ) ;
#213 = DIRECTION ( 'NONE',  ( -1.000000000000000000, 0.000000000000000000, 0.000000000000000000 ) ) ;
#214 = EDGE_LOOP ( 'NONE', ( #239, #104, #294, #16 ) ) ;
#215 = EDGE_CURVE ( 'NONE', #325, #212, #92, .T. ) ;
#216 = CIRCLE ( 'NONE', #35, 39.19999999999999574 ) ;
#217 = FACE_OUTER_BOUND ( 'NONE', #93, .T. ) ;
#218 = AXIS2_PLACEMENT_3D ( 'NONE', #402, #86, #53 ) ;
#219 = DIRECTION ( 'NONE',  ( -1.224646799147353207E-16, 5.629680630014033300E-34, 1.000000000000000000 ) ) ;
#220 = ORIENTED_EDGE ( 'NONE', *, *, #253, .F. ) ;
#221 = DIRECTION ( 'NONE',  ( 0.000000000000000000, 0.000000000000000000, 1.000000000000000000 ) ) ;
#222 = ADVANCED_FACE ( 'NONE', ( #330 ), #268, .T. ) ;
#223 = CALENDAR_DATE ( 2024, 16, 7 ) ;
#224 = DATE_AND_TIME ( #223, #368 ) ;
#225 = PERSON ( 'UNSPECIFIED', 'UNSPECIFIED', 'UNSPECIFIED', ('UNSPECIFIED'), ('UNSPECIFIED'), ('UNSPECIFIED') ) ;
#226 = CIRCLE ( 'NONE', #397, 27.00000000000000355 ) ;
#227 = PERSON_AND_ORGANIZATION_ROLE ( 'creator' ) ;
#228 = AXIS2_PLACEMENT_3D ( 'NONE', #146, #221, #183 ) ;
#229 = VERTEX_POINT ( 'NONE', #279 ) ;
#230 = DIRECTION ( 'NONE',  ( 1.000000000000000000, -4.596983092540343816E-18, 0.000000000000000000 ) ) ;
#231 = EDGE_LOOP ( 'NONE', ( #171, #72, #220 ) ) ;
#232 = PERSON_AND_ORGANIZATION ( #225, #39 ) ;
#233 = DIRECTION ( 'NONE',  ( 0.000000000000000000, 0.000000000000000000, 1.000000000000000000 ) ) ;
#234 = ORIENTED_EDGE ( 'NONE', *, *, #88, .T. ) ;
#235 = SECURITY_CLASSIFICATION_LEVEL ( 'unclassified' ) ;
#236 = ORIENTED_EDGE ( 'NONE', *, *, #317, .F. ) ;
#237 = COORDINATED_UNIVERSAL_TIME_OFFSET ( 1, 0, .AHEAD. ) ;
#238 = DIRECTION ( 'NONE',  ( -1.000000000000000000, 0.000000000000000000, 0.000000000000000000 ) ) ;
#239 = ORIENTED_EDGE ( 'NONE', *, *, #322, .F. ) ;
#240 = APPROVAL_PERSON_ORGANIZATION ( #291, #209, #38 ) ;
#241 = CARTESIAN_POINT ( 'NONE',  ( 7.066212031080206689E-15, -27.69999999999999929, 0.000000000000000000 ) ) ;
#242 = DIRECTION ( 'NONE',  ( -1.000000000000000000, 0.000000000000000000, 0.000000000000000000 ) ) ;
#243 = LINE ( 'NONE', #152, #111 ) ;
#244 = CARTESIAN_POINT ( 'NONE',  ( -24.53219373219373622, 5.400022215794830771, 0.000000000000000000 ) ) ;
#245 = DESIGN_CONTEXT ( 'detailed design', #50, 'design' ) ;
#246 = CARTESIAN_POINT ( 'NONE',  ( -20.90000000000000213, 0.4992907712232991790, 0.000000000000000000 ) ) ;
#247 = EDGE_CURVE ( 'NONE', #364, #116, #251, .T. ) ;
#248 = DIRECTION ( 'NONE',  ( 4.596983092540343816E-18, 1.000000000000000000, -0.000000000000000000 ) ) ;
#249 = VECTOR ( 'NONE', #255, 1000.000000000000000 ) ;
#250 = CYLINDRICAL_SURFACE ( 'NONE', #406, 27.00000000000000355 ) ;
#251 = CIRCLE ( 'NONE', #114, 41.20000000000000284 ) ;
#252 = DIRECTION ( 'NONE',  ( 0.000000000000000000, 0.000000000000000000, 1.000000000000000000 ) ) ;
#253 = EDGE_CURVE ( 'NONE', #11, #116, #356, .T. ) ;
#254 = DIRECTION ( 'NONE',  ( 4.596983092540343816E-18, 1.000000000000000000, -0.000000000000000000 ) ) ;
#255 = DIRECTION ( 'NONE',  ( 4.596983092540343816E-18, 1.000000000000000000, -0.000000000000000000 ) ) ;
#256 = DIRECTION ( 'NONE',  ( 4.596983092540343816E-18, 1.000000000000000000, -0.000000000000000000 ) ) ;
#257 = ADVANCED_FACE ( 'NONE', ( #305 ), #175, .F. ) ;
#258 = LOCAL_TIME ( 8, 32, 38.00000000000000000, #360 ) ;
#259 = CARTESIAN_POINT ( 'NONE',  ( -26.99999999999998934, 2817.965330118411202, 0.000000000000000000 ) ) ;
#260 = EDGE_LOOP ( 'NONE', ( #176, #141, #335, #341 ) ) ;
#261 = PERSON_AND_ORGANIZATION ( #225, #39 ) ;
#262 = EDGE_CURVE ( 'NONE', #264, #359, #49, .T. ) ;
#263 = ORIENTED_EDGE ( 'NONE', *, *, #215, .T. ) ;
#264 = VERTEX_POINT ( 'NONE', #347 ) ;
#265 = DATE_AND_TIME ( #142, #403 ) ;
#266 = ORIENTED_EDGE ( 'NONE', *, *, #296, .F. ) ;
#267 = AXIS2_PLACEMENT_3D ( 'NONE', #207, #254, #383 ) ;
#268 = SPHERICAL_SURFACE ( 'NONE', #51, 41.20000000000000284 ) ;
#269 = AXIS2_PLACEMENT_3D ( 'NONE', #399, #410, #150 ) ;
#270 = ORIENTED_EDGE ( 'NONE', *, *, #351, .T. ) ;
#271 = CC_DESIGN_DATE_AND_TIME_ASSIGNMENT ( #206, #210, ( #95 ) ) ;
#272 = DIRECTION ( 'NONE',  ( 1.000000000000000000, 0.000000000000000000, 1.224646799147352961E-16 ) ) ;
#273 = DIRECTION ( 'NONE',  ( -1.000000000000000000, 4.336808689942016966E-18, 0.000000000000000000 ) ) ;
#274 = LOCAL_TIME ( 8, 32, 38.00000000000000000, #170 ) ;
#275 = CARTESIAN_POINT ( 'NONE',  ( 7.066212031080206689E-15, -27.69999999999999929, 0.000000000000000000 ) ) ;
#276 = DIRECTION ( 'NONE',  ( 4.596983092540343816E-18, 1.000000000000000000, -0.000000000000000000 ) ) ;
#277 = DIRECTION ( 'NONE',  ( -1.000000000000000000, 4.015563601798163914E-18, 0.000000000000000000 ) ) ;
#278 = CARTESIAN_POINT ( 'NONE',  ( 25.00000000000000711, 0.4992907712231829942, 3.061616997868383831E-15 ) ) ;
#279 = CARTESIAN_POINT ( 'NONE',  ( -25.00000000000000355, 0.4992907712231831607, 0.000000000000000000 ) ) ;
#280 = ADVANCED_FACE ( 'NONE', ( #82 ), #342, .F. ) ;
#281 = AXIS2_PLACEMENT_3D ( 'NONE', #275, #219, #382 ) ;
#282 = CIRCLE ( 'NONE', #36, 4.100000000000003197 ) ;
#283 = DIRECTION ( 'NONE',  ( 4.596983092540343816E-18, 1.000000000000000000, -0.000000000000000000 ) ) ;
#284 =( NAMED_UNIT ( * ) SI_UNIT ( $, .STERADIAN. ) SOLID_ANGLE_UNIT ( ) );
#285 = DIRECTION ( 'NONE',  ( 0.000000000000000000, 0.000000000000000000, 1.000000000000000000 ) ) ;
#286 = AXIS2_PLACEMENT_3D ( 'NONE', #370, #190, #32 ) ;
#287 = EDGE_CURVE ( 'NONE', #184, #11, #102, .T. ) ;
#288 = CARTESIAN_POINT ( 'NONE',  ( -25.00000000000000000, 1.149245773135085892E-16, 0.000000000000000000 ) ) ;
#289 = CIRCLE ( 'NONE', #321, 6.100000000000001421 ) ;
#290 = FACE_OUTER_BOUND ( 'NONE', #40, .T. ) ;
#291 = PERSON_AND_ORGANIZATION ( #225, #39 ) ;
#292 = CARTESIAN_POINT ( 'NONE',  ( 20.90000000000000213, 0.4992907712232989570, 2.559511810217968698E-15 ) ) ;
#293 =( GEOMETRIC_REPRESENTATION_CONTEXT ( 3 ) GLOBAL_UNCERTAINTY_ASSIGNED_CONTEXT ( ( #27 ) ) GLOBAL_UNIT_ASSIGNED_CONTEXT ( ( #64, #350, #284 ) ) REPRESENTATION_CONTEXT ( 'NONE', 'WORKASPACE' ) );
#294 = ORIENTED_EDGE ( 'NONE', *, *, #99, .T. ) ;
#295 = CALENDAR_DATE ( 2024, 16, 7 ) ;
#296 = EDGE_CURVE ( 'NONE', #212, #325, #145, .T. ) ;
#297 = EDGE_LOOP ( 'NONE', ( #299, #393, #147 ) ) ;
#298 = CARTESIAN_POINT ( 'NONE',  ( 0.000000000000000000, 0.4992907712232990680, 0.000000000000000000 ) ) ;
#299 = ORIENTED_EDGE ( 'NONE', *, *, #262, .F. ) ;
#300 = ORIENTED_EDGE ( 'NONE', *, *, #130, .T. ) ;
#301 = PLANE ( 'NONE',  #353 ) ;
#302 = ORIENTED_EDGE ( 'NONE', *, *, #88, .F. ) ;
#303 = DATE_AND_TIME ( #177, #258 ) ;
#304 = AXIS2_PLACEMENT_3D ( 'NONE', #34, #323, #320 ) ;
#305 = FACE_OUTER_BOUND ( 'NONE', #297, .T. ) ;
#306 = AXIS2_PLACEMENT_3D ( 'NONE', #363, #233, #76 ) ;
#307 = CARTESIAN_POINT ( 'NONE',  ( 20.90000000000000213, 0.4992907712232989570, 2.559511810217968698E-15 ) ) ;
#308 = DIRECTION ( 'NONE',  ( -1.000000000000000000, 4.596983092540343816E-18, 0.000000000000000000 ) ) ;
#309 = DIRECTION ( 'NONE',  ( 4.596983092540343816E-18, 1.000000000000000000, -0.000000000000000000 ) ) ;
#310 = EDGE_CURVE ( 'NONE', #264, #200, #163, .T. ) ;
#311 = ADVANCED_BREP_SHAPE_REPRESENTATION ( '3D_R365_54x2_173371120', ( #189, #133 ), #293 ) ;
#312 = DIRECTION ( 'NONE',  ( -1.000000000000000000, 0.000000000000000000, 0.000000000000000000 ) ) ;
#313 = CARTESIAN_POINT ( 'NONE',  ( 1.387778780781445676E-14, 2817.965330118411202, 0.000000000000000000 ) ) ;
#314 = DIRECTION ( 'NONE',  ( -0.000000000000000000, 0.000000000000000000, -1.000000000000000000 ) ) ;
#315 = CARTESIAN_POINT ( 'NONE',  ( -23.34131054131055905, 3.793225020853361329, 0.000000000000000000 ) ) ;
#316 = CARTESIAN_POINT ( 'NONE',  ( 24.53219373219373622, 5.400022215794830771, 3.155436805358617782E-15 ) ) ;
#317 = EDGE_CURVE ( 'NONE', #389, #119, #243, .T. ) ;
#318 = DIRECTION ( 'NONE',  ( -1.000000000000000000, 0.000000000000000000, 0.000000000000000000 ) ) ;
#319 = AXIS2_PLACEMENT_3D ( 'NONE', #62, #24, #2 ) ;
#320 = DIRECTION ( 'NONE',  ( -1.000000000000000000, 0.000000000000000000, 0.000000000000000000 ) ) ;
#321 = AXIS2_PLACEMENT_3D ( 'NONE', #307, #90, #60 ) ;
#322 = EDGE_CURVE ( 'NONE', #389, #361, #411, .T. ) ;
#323 = DIRECTION ( 'NONE',  ( 4.596983092540343816E-18, 1.000000000000000000, -0.000000000000000000 ) ) ;
#324 = APPROVAL_PERSON_ORGANIZATION ( #365, #97, #333 ) ;
#325 = VERTEX_POINT ( 'NONE', #96 ) ;
#326 = ORIENTED_EDGE ( 'NONE', *, *, #130, .F. ) ;
#327 = AXIS2_PLACEMENT_3D ( 'NONE', #246, #157, #407 ) ;
#328 = CARTESIAN_POINT ( 'NONE',  ( -27.00000000000000355, 0.4992907712231265949, 0.000000000000000000 ) ) ;
#329 = EDGE_LOOP ( 'NONE', ( #300, #172 ) ) ;
#330 = FACE_OUTER_BOUND ( 'NONE', #357, .T. ) ;
#331 = ADVANCED_FACE ( 'NONE', ( #45, #376 ), #301, .T. ) ;
#332 = ORIENTED_EDGE ( 'NONE', *, *, #253, .T. ) ;
#333 = APPROVAL_ROLE ( '' ) ;
#334 = CARTESIAN_POINT ( 'NONE',  ( -2.852854229668740672E-34, -6.205927174929464460E-17, 0.000000000000000000 ) ) ;
#335 = ORIENTED_EDGE ( 'NONE', *, *, #29, .T. ) ;
#336 = DIRECTION ( 'NONE',  ( -1.000000000000000000, 4.596983092540344586E-18, 0.000000000000000000 ) ) ;
#337 = DIRECTION ( 'NONE',  ( 4.596983092540343816E-18, 1.000000000000000000, -0.000000000000000000 ) ) ;
#338 = PRODUCT_RELATED_PRODUCT_CATEGORY ( 'detail', '', ( #167 ) ) ;
#339 = ADVANCED_FACE ( 'NONE', ( #211 ), #17, .F. ) ;
#340 = CYLINDRICAL_SURFACE ( 'NONE', #186, 27.00000000000000355 ) ;
#341 = ORIENTED_EDGE ( 'NONE', *, *, #42, .T. ) ;
#342 = TOROIDAL_SURFACE ( 'NONE', #319, 20.90000000000000213, 4.100000000000002309 ) ;
#343 = AXIS2_PLACEMENT_3D ( 'NONE', #155, #276, #273 ) ;
#344 = CARTESIAN_POINT ( 'NONE',  ( 27.00000000000001776, 2817.965330118411202, 3.306546357697854128E-15 ) ) ;
#345 = TOROIDAL_SURFACE ( 'NONE', #68, 20.90000000000000213, 6.100000000000002309 ) ;
#346 = DIRECTION ( 'NONE',  ( -4.596983092540343816E-18, -1.000000000000000000, 0.000000000000000000 ) ) ;
#347 = CARTESIAN_POINT ( 'NONE',  ( 23.34131054131057326, 3.793225020853361329, 2.960051561050210684E-15 ) ) ;
#348 = CC_DESIGN_APPROVAL ( #191, ( #169 ) ) ;
#349 = LINE ( 'NONE', #131, #83 ) ;
#350 =( NAMED_UNIT ( * ) PLANE_ANGLE_UNIT ( ) SI_UNIT ( $, .RADIAN. ) );
#351 = EDGE_CURVE ( 'NONE', #212, #184, #355, .T. ) ;
#352 = FACE_OUTER_BOUND ( 'NONE', #43, .T. ) ;
#353 = AXIS2_PLACEMENT_3D ( 'NONE', #334, #346, #48 ) ;
#354 = APPLICATION_CONTEXT ( 'configuration controlled 3d designs of mechanical parts and assemblies' ) ;
#355 = LINE ( 'NONE', #259, #249 ) ;
#356 = CIRCLE ( 'NONE', #1, 41.20000000000000284 ) ;
#357 = EDGE_LOOP ( 'NONE', ( #367, #77, #332 ) ) ;
#358 = DIRECTION ( 'NONE',  ( -1.224646799147353207E-16, 5.629680630014033300E-34, 1.000000000000000000 ) ) ;
#359 = VERTEX_POINT ( 'NONE', #195 ) ;
#360 = COORDINATED_UNIVERSAL_TIME_OFFSET ( 1, 0, .AHEAD. ) ;
#361 = VERTEX_POINT ( 'NONE', #288 ) ;
#362 = ADVANCED_FACE ( 'NONE', ( #352 ), #178, .T. ) ;
#363 = CARTESIAN_POINT ( 'NONE',  ( 7.066212031080206689E-15, -27.69999999999999929, 0.000000000000000000 ) ) ;
#364 = VERTEX_POINT ( 'NONE', #316 ) ;
#365 = PERSON_AND_ORGANIZATION ( #225, #39 ) ;
#366 = CARTESIAN_POINT ( 'NONE',  ( 7.066212031080206689E-15, -27.69999999999999929, 0.000000000000000000 ) ) ;
#367 = ORIENTED_EDGE ( 'NONE', *, *, #247, .F. ) ;
#368 = LOCAL_TIME ( 8, 32, 38.00000000000000000, #63 ) ;
#369 = APPROVAL_DATE_TIME ( #265, #191 ) ;
#370 = CARTESIAN_POINT ( 'NONE',  ( 9.236488298952508525E-16, 0.000000000000000000, 0.000000000000000000 ) ) ;
#371 = DIRECTION ( 'NONE',  ( -1.000000000000000000, 4.336808689942016966E-18, 0.000000000000000000 ) ) ;
#372 = EDGE_CURVE ( 'NONE', #11, #364, #126, .T. ) ;
#373 = FACE_OUTER_BOUND ( 'NONE', #156, .T. ) ;
#374 = CARTESIAN_POINT ( 'NONE',  ( 1.387778780781445676E-14, 2817.965330118411202, 0.000000000000000000 ) ) ;
#375 = CYLINDRICAL_SURFACE ( 'NONE', #56, 25.00000000000000000 ) ;
#376 = FACE_OUTER_BOUND ( 'NONE', #173, .T. ) ;
#377 = AXIS2_PLACEMENT_3D ( 'NONE', #160, #283, #85 ) ;
#378 = DIRECTION ( 'NONE',  ( 4.596983092540343816E-18, 1.000000000000000000, -0.000000000000000000 ) ) ;
#379 = CIRCLE ( 'NONE', #269, 24.53219373219373622 ) ;
#380 = CLOSED_SHELL ( 'NONE', ( #154, #135, #339, #122, #362, #33, #331, #14, #161, #222, #66, #280, #257 ) ) ;
#381 = CIRCLE ( 'NONE', #7, 23.34131054131056615 ) ;
#382 = DIRECTION ( 'NONE',  ( 1.000000000000000000, 0.000000000000000000, 1.224646799147353454E-16 ) ) ;
#383 = DIRECTION ( 'NONE',  ( 1.000000000000000000, -4.596983092540343816E-18, 0.000000000000000000 ) ) ;
#384 = EDGE_CURVE ( 'NONE', #184, #46, #226, .T. ) ;
#385 = DIRECTION ( 'NONE',  ( 4.596983092540343816E-18, 1.000000000000000000, -0.000000000000000000 ) ) ;
#386 = APPLICATION_PROTOCOL_DEFINITION ( 'international standard', 'config_control_design', 1994, #50 ) ;
#387 = CC_DESIGN_SECURITY_CLASSIFICATION ( #95, ( #169 ) ) ;
#388 = APPLICATION_PROTOCOL_DEFINITION ( 'international standard', 'config_control_design', 1994, #354 ) ;
#389 = VERTEX_POINT ( 'NONE', #129 ) ;
#390 = DIRECTION ( 'NONE',  ( 4.596983092540343816E-18, 1.000000000000000000, -0.000000000000000000 ) ) ;
#391 = APPROVAL_ROLE ( '' ) ;
#392 = CC_DESIGN_PERSON_AND_ORGANIZATION_ASSIGNMENT ( #78, #149, ( #95 ) ) ;
#393 = ORIENTED_EDGE ( 'NONE', *, *, #42, .F. ) ;
#394 = CC_DESIGN_DATE_AND_TIME_ASSIGNMENT ( #12, #137, ( #202 ) ) ;
#395 = PERSON_AND_ORGANIZATION ( #225, #39 ) ;
#396 = ORIENTED_EDGE ( 'NONE', *, *, #29, .F. ) ;
#397 = AXIS2_PLACEMENT_3D ( 'NONE', #192, #390, #69 ) ;
#398 = CIRCLE ( 'NONE', #165, 25.00000000000000355 ) ;
#399 = CARTESIAN_POINT ( 'NONE',  ( 9.484726407206024727E-16, 5.400022215794830771, 0.000000000000000000 ) ) ;
#400 = ORIENTED_EDGE ( 'NONE', *, *, #372, .F. ) ;
#401 = EDGE_CURVE ( 'NONE', #200, #359, #216, .T. ) ;
#402 = CARTESIAN_POINT ( 'NONE',  ( 7.066212031080206689E-15, -27.69999999999999929, 0.000000000000000000 ) ) ;
#403 = LOCAL_TIME ( 8, 32, 38.00000000000000000, #201 ) ;
#404 = DIRECTION ( 'NONE',  ( -1.000000000000000000, 0.000000000000000000, 0.000000000000000000 ) ) ;
#405 = ORIENTED_EDGE ( 'NONE', *, *, #215, .F. ) ;
#406 = AXIS2_PLACEMENT_3D ( 'NONE', #87, #309, #213 ) ;
#407 = DIRECTION ( 'NONE',  ( -1.000000000000000000, 0.000000000000000000, 0.000000000000000000 ) ) ;
#408 = EDGE_CURVE ( 'NONE', #361, #229, #349, .T. ) ;
#409 = DIRECTION ( 'NONE',  ( 4.596983092540343816E-18, 1.000000000000000000, -0.000000000000000000 ) ) ;
#410 = DIRECTION ( 'NONE',  ( 4.596983092540343816E-18, 1.000000000000000000, -0.000000000000000000 ) ) ;
#411 = CIRCLE ( 'NONE', #267, 25.00000000000000000 ) ;
ENDSEC;
END-ISO-10303-21;
