ISO-10303-21;
HEADER;
FILE_DESCRIPTION (( 'STEP AP203' ),
    '1' );
FILE_NAME ('OT200-32-42_4x2_OSTP.step',
    '2020-12-16T02:16:23',
    ( '' ),
    ( '' ),
    'SwSTEP 2.0',
    'SolidWorks 2014',
    '' );
FILE_SCHEMA (( 'CONFIG_CONTROL_DESIGN' ));
ENDSEC;

DATA;
#1 = EDGE_CURVE ( 'NONE', #151, #128, #157, .T. ) ;
#2 = CARTESIAN_POINT ( 'NONE',  ( 47.50000000000000000, 0.0000000000000000000, 0.0000000000000000000 ) ) ;
#3 = DATE_AND_TIME ( #49, #30 ) ;
#4 = SHAPE_DEFINITION_REPRESENTATION ( #14, #127 ) ;
#5 = EDGE_CURVE ( 'NONE', #43, #191, #44, .T. ) ;
#6 = PERSON_AND_ORGANIZATION ( #61, #205 ) ;
#7 = PRODUCT_DEFINITION_FORMATION_WITH_SPECIFIED_SOURCE ( 'ANY', '', #96, .NOT_KNOWN. ) ;
#8 = FACE_BOUND ( 'NONE', #94, .T. ) ;
#9 = CARTESIAN_POINT ( 'NONE',  ( 0.0000000000000000000, 0.0000000000000000000, 0.0000000000000000000 ) ) ;
#10 = DIRECTION ( 'NONE',  ( 1.000000000000000000, 0.0000000000000000000, 0.0000000000000000000 ) ) ;
#11 = DIRECTION ( 'NONE',  ( 0.0000000000000000000, 0.0000000000000000000, 1.000000000000000000 ) ) ;
#12 = DIRECTION ( 'NONE',  ( 1.000000000000000000, 0.0000000000000000000, 0.0000000000000000000 ) ) ;
#13 = EDGE_CURVE ( 'NONE', #125, #93, #186, .T. ) ;
#14 = PRODUCT_DEFINITION_SHAPE ( 'NONE', 'NONE',  #200 ) ;
#15 = ORIENTED_EDGE ( 'NONE', *, *, #5, .F. ) ;
#16 = CARTESIAN_POINT ( 'NONE',  ( 0.0000000000000000000, 0.0000000000000000000, 0.0000000000000000000 ) ) ;
#17 = EDGE_CURVE ( 'NONE', #36, #240, #73, .T. ) ;
#18 = APPROVAL_ROLE ( '' ) ;
#19 = EDGE_LOOP ( 'NONE', ( #31, #249 ) ) ;
#20 = DIRECTION ( 'NONE',  ( 0.0000000000000000000, 0.0000000000000000000, 1.000000000000000000 ) ) ;
#21 = DIRECTION ( 'NONE',  ( 1.000000000000000000, 0.0000000000000000000, 0.0000000000000000000 ) ) ;
#22 = DIRECTION ( 'NONE',  ( 0.0000000000000000000, 0.0000000000000000000, 1.000000000000000000 ) ) ;
#23 = APPROVAL ( #138, 'UNSPECIFIED' ) ;
#24 = CIRCLE ( 'NONE', #56, 19.20000000000000300 ) ;
#25 = PERSON_AND_ORGANIZATION ( #61, #205 ) ;
#26 = EDGE_CURVE ( 'NONE', #191, #43, #24, .T. ) ;
#27 = ORIENTED_EDGE ( 'NONE', *, *, #203, .T. ) ;
#28 = ORIENTED_EDGE ( 'NONE', *, *, #17, .T. ) ;
#29 = DIRECTION ( 'NONE',  ( 0.0000000000000000000, 0.0000000000000000000, 1.000000000000000000 ) ) ;
#30 = LOCAL_TIME ( 3, 16, 23.00000000000000000, #54 ) ;
#31 = ORIENTED_EDGE ( 'NONE', *, *, #222, .F. ) ;
#32 = CARTESIAN_POINT ( 'NONE',  ( 0.0000000000000000000, 0.0000000000000000000, 0.0000000000000000000 ) ) ;
#33 = PERSON_AND_ORGANIZATION_ROLE ( 'design_owner' ) ;
#34 = DIRECTION ( 'NONE',  ( 0.0000000000000000000, 0.0000000000000000000, 1.000000000000000000 ) ) ;
#35 = ORIENTED_EDGE ( 'NONE', *, *, #218, .F. ) ;
#36 = VERTEX_POINT ( 'NONE', #236 ) ;
#37 = CC_DESIGN_APPROVAL ( #23, ( #7 ) ) ;
#38 = DIRECTION ( 'NONE',  ( 0.0000000000000000000, 0.0000000000000000000, 1.000000000000000000 ) ) ;
#39 = CARTESIAN_POINT ( 'NONE',  ( 47.50000000000000000, 0.0000000000000000000, -2.596251214192388800E-015 ) ) ;
#40 = PERSON_AND_ORGANIZATION_ROLE ( 'design_supplier' ) ;
#41 = APPLICATION_PROTOCOL_DEFINITION ( 'international standard', 'config_control_design', 1994, #176 ) ;
#42 = AXIS2_PLACEMENT_3D ( 'NONE', #216, #100, #123 ) ;
#43 = VERTEX_POINT ( 'NONE', #226 ) ;
#44 = CIRCLE ( 'NONE', #65, 19.20000000000000300 ) ;
#45 = COORDINATED_UNIVERSAL_TIME_OFFSET ( 1, 0, .AHEAD. ) ;
#46 = ORIENTED_EDGE ( 'NONE', *, *, #197, .T. ) ;
#47 = CC_DESIGN_PERSON_AND_ORGANIZATION_ASSIGNMENT ( #6, #162, ( #7 ) ) ;
#48 = ORIENTED_EDGE ( 'NONE', *, *, #246, .F. ) ;
#49 = CALENDAR_DATE ( 2020, 16, 12 ) ;
#50 = DIRECTION ( 'NONE',  ( 1.000000000000000000, 6.123233995736766000E-017, 0.0000000000000000000 ) ) ;
#51 = CARTESIAN_POINT ( 'NONE',  ( 0.0000000000000000000, 0.0000000000000000000, 0.0000000000000000000 ) ) ;
#52 = AXIS2_PLACEMENT_3D ( 'NONE', #253, #139, #20 ) ;
#53 = CARTESIAN_POINT ( 'NONE',  ( 47.50000000000000000, 0.0000000000000000000, 0.0000000000000000000 ) ) ;
#54 = COORDINATED_UNIVERSAL_TIME_OFFSET ( 1, 0, .AHEAD. ) ;
#55 = DIRECTION ( 'NONE',  ( 1.000000000000000000, 0.0000000000000000000, 0.0000000000000000000 ) ) ;
#56 = AXIS2_PLACEMENT_3D ( 'NONE', #78, #217, #101 ) ;
#57 = PERSON_AND_ORGANIZATION_ROLE ( 'classification_officer' ) ;
#58 = LOCAL_TIME ( 3, 16, 23.00000000000000000, #204 ) ;
#59 = MANIFOLD_SOLID_BREP ( 'cut-body', #243 ) ;
#60 = ADVANCED_FACE ( 'NONE', ( #223 ), #82, .T. ) ;
#61 = PERSON ( 'UNSPECIFIED', 'UNSPECIFIED', 'UNSPECIFIED', ('UNSPECIFIED'), ('UNSPECIFIED'), ('UNSPECIFIED') ) ;
#62 = CC_DESIGN_PERSON_AND_ORGANIZATION_ASSIGNMENT ( #132, #40, ( #7 ) ) ;
#63 = CIRCLE ( 'NONE', #173, 28.30000000000000400 ) ;
#64 = TOROIDAL_SURFACE ( 'NONE', #109, 47.50000000000000000, 21.19999999999999900 ) ;
#65 = AXIS2_PLACEMENT_3D ( 'NONE', #16, #161, #38 ) ;
#66 = CIRCLE ( 'NONE', #99, 66.70000000000000300 ) ;
#67 = ORIENTED_EDGE ( 'NONE', *, *, #1, .F. ) ;
#68 = CARTESIAN_POINT ( 'NONE',  ( 47.50000000000000000, 47.50000000000000000, 0.0000000000000000000 ) ) ;
#69 = ORIENTED_EDGE ( 'NONE', *, *, #126, .F. ) ;
#70 = AXIS2_PLACEMENT_3D ( 'NONE', #136, #247, #133 ) ;
#71 =( LENGTH_UNIT ( ) NAMED_UNIT ( * ) SI_UNIT ( .MILLI., .METRE. ) );
#72 = DIRECTION ( 'NONE',  ( 0.0000000000000000000, -0.0000000000000000000, 1.000000000000000000 ) ) ;
#73 = CIRCLE ( 'NONE', #183, 19.20000000000001000 ) ;
#74 = SECURITY_CLASSIFICATION ( '', '', #181 ) ;
#75 = LOCAL_TIME ( 3, 16, 23.00000000000000000, #45 ) ;
#76 = APPROVAL_STATUS ( 'not_yet_approved' ) ;
#77 = DIRECTION ( 'NONE',  ( 0.0000000000000000000, 0.0000000000000000000, 1.000000000000000000 ) ) ;
#78 = CARTESIAN_POINT ( 'NONE',  ( 0.0000000000000000000, 0.0000000000000000000, 0.0000000000000000000 ) ) ;
#79 = ADVANCED_FACE ( 'NONE', ( #244, #149 ), #175, .F. ) ;
#80 = AXIS2_PLACEMENT_3D ( 'NONE', #232, #118, #251 ) ;
#81 = ORIENTED_EDGE ( 'NONE', *, *, #126, .T. ) ;
#82 = TOROIDAL_SURFACE ( 'NONE', #70, 47.50000000000000000, 21.19999999999999900 ) ;
#83 = CALENDAR_DATE ( 2020, 16, 12 ) ;
#84 = AXIS2_PLACEMENT_3D ( 'NONE', #53, #11, #10 ) ;
#85 = ORIENTED_EDGE ( 'NONE', *, *, #26, .T. ) ;
#86 = EDGE_LOOP ( 'NONE', ( #35, #46, #27, #15 ) ) ;
#87 = CC_DESIGN_PERSON_AND_ORGANIZATION_ASSIGNMENT ( #95, #57, ( #74 ) ) ;
#88 = DIRECTION ( 'NONE',  ( 0.0000000000000000000, 1.000000000000000000, 0.0000000000000000000 ) ) ;
#89 = FACE_OUTER_BOUND ( 'NONE', #201, .T. ) ;
#90 = DATE_AND_TIME ( #148, #227 ) ;
#91 =( NAMED_UNIT ( * ) SI_UNIT ( $, .STERADIAN. ) SOLID_ANGLE_UNIT ( ) );
#92 = AXIS2_PLACEMENT_3D ( 'NONE', #174, #50, #192 ) ;
#93 = VERTEX_POINT ( 'NONE', #229 ) ;
#94 = EDGE_LOOP ( 'NONE', ( #228, #142 ) ) ;
#95 = PERSON_AND_ORGANIZATION ( #61, #205 ) ;
#96 = PRODUCT ( 'OT200-32-42_4x2_OSTP', 'OT200-32-42_4x2_OSTP', '', ( #155 ) ) ;
#97 = APPROVAL_STATUS ( 'not_yet_approved' ) ;
#98 = DIRECTION ( 'NONE',  ( 0.0000000000000000000, 0.0000000000000000000, 1.000000000000000000 ) ) ;
#99 = AXIS2_PLACEMENT_3D ( 'NONE', #214, #98, #235 ) ;
#100 = DIRECTION ( 'NONE',  ( 0.0000000000000000000, 1.000000000000000000, 0.0000000000000000000 ) ) ;
#101 = DIRECTION ( 'NONE',  ( 0.0000000000000000000, 0.0000000000000000000, 1.000000000000000000 ) ) ;
#102 = EDGE_LOOP ( 'NONE', ( #85, #171 ) ) ;
#103 = DIRECTION ( 'NONE',  ( 1.000000000000000000, 6.123233995736766000E-017, 0.0000000000000000000 ) ) ;
#104 = CC_DESIGN_DATE_AND_TIME_ASSIGNMENT ( #245, #198, ( #74 ) ) ;
#105 = ORIENTED_EDGE ( 'NONE', *, *, #13, .T. ) ;
#106 = APPROVAL_DATE_TIME ( #110, #211 ) ;
#107 = APPROVAL_DATE_TIME ( #90, #115 ) ;
#108 = UNCERTAINTY_MEASURE_WITH_UNIT (LENGTH_MEASURE( 1.000000000000000100E-005 ), #71, 'distance_accuracy_value', 'NONE');
#109 = AXIS2_PLACEMENT_3D ( 'NONE', #163, #77, #184 ) ;
#110 = DATE_AND_TIME ( #83, #160 ) ;
#111 = DIRECTION ( 'NONE',  ( 0.0000000000000000000, 0.0000000000000000000, 1.000000000000000000 ) ) ;
#112 = AXIS2_PLACEMENT_3D ( 'NONE', #220, #103, #241 ) ;
#113 = PERSON_AND_ORGANIZATION ( #61, #205 ) ;
#114 = APPLICATION_PROTOCOL_DEFINITION ( 'international standard', 'config_control_design', 1994, #134 ) ;
#115 = APPROVAL ( #76, 'UNSPECIFIED' ) ;
#116 = FACE_OUTER_BOUND ( 'NONE', #86, .T. ) ;
#117 = AXIS2_PLACEMENT_3D ( 'NONE', #156, #34, #177 ) ;
#118 = DIRECTION ( 'NONE',  ( 1.000000000000000000, 6.123233995736766000E-017, 0.0000000000000000000 ) ) ;
#119 = PERSON_AND_ORGANIZATION_ROLE ( 'creator' ) ;
#120 = PLANE ( 'NONE',  #52 ) ;
#121 = TOROIDAL_SURFACE ( 'NONE', #147, 47.50000000000000000, 19.20000000000000300 ) ;
#122 =( GEOMETRIC_REPRESENTATION_CONTEXT ( 3 ) GLOBAL_UNCERTAINTY_ASSIGNED_CONTEXT ( ( #108 ) ) GLOBAL_UNIT_ASSIGNED_CONTEXT ( ( #71, #208, #91 ) ) REPRESENTATION_CONTEXT ( 'NONE', 'WORKASPACE' ) );
#123 = DIRECTION ( 'NONE',  ( 0.0000000000000000000, 0.0000000000000000000, 1.000000000000000000 ) ) ;
#124 = FACE_OUTER_BOUND ( 'NONE', #129, .T. ) ;
#125 = VERTEX_POINT ( 'NONE', #210 ) ;
#126 = EDGE_CURVE ( 'NONE', #151, #125, #195, .T. ) ;
#127 = ADVANCED_BREP_SHAPE_REPRESENTATION ( 'OT200-32-42_4x2_OSTP', ( #59, #178 ), #122 ) ;
#128 = VERTEX_POINT ( 'NONE', #154 ) ;
#129 = EDGE_LOOP ( 'NONE', ( #28, #190, #135, #199 ) ) ;
#130 = CC_DESIGN_APPROVAL ( #115, ( #74 ) ) ;
#131 = AXIS2_PLACEMENT_3D ( 'NONE', #39, #180, #55 ) ;
#132 = PERSON_AND_ORGANIZATION ( #61, #205 ) ;
#133 = DIRECTION ( 'NONE',  ( 1.000000000000000000, 0.0000000000000000000, 0.0000000000000000000 ) ) ;
#134 = APPLICATION_CONTEXT ( 'configuration controlled 3d designs of mechanical parts and assemblies' ) ;
#135 = ORIENTED_EDGE ( 'NONE', *, *, #26, .F. ) ;
#136 = CARTESIAN_POINT ( 'NONE',  ( 47.50000000000000000, 0.0000000000000000000, 0.0000000000000000000 ) ) ;
#137 = PERSON_AND_ORGANIZATION ( #61, #205 ) ;
#138 = APPROVAL_STATUS ( 'not_yet_approved' ) ;
#139 = DIRECTION ( 'NONE',  ( 1.000000000000000000, 6.123233995736766000E-017, -0.0000000000000000000 ) ) ;
#140 = ADVANCED_FACE ( 'NONE', ( #116 ), #225, .F. ) ;
#141 = DIRECTION ( 'NONE',  ( 0.0000000000000000000, 0.0000000000000000000, 1.000000000000000000 ) ) ;
#142 = ORIENTED_EDGE ( 'NONE', *, *, #197, .F. ) ;
#143 = ORIENTED_EDGE ( 'NONE', *, *, #1, .T. ) ;
#144 = CARTESIAN_POINT ( 'NONE',  ( 47.50000000000000000, 0.0000000000000000000, -2.351321854362918100E-015 ) ) ;
#145 = CC_DESIGN_SECURITY_CLASSIFICATION ( #74, ( #7 ) ) ;
#146 = CIRCLE ( 'NONE', #131, 26.30000000000000400 ) ;
#147 = AXIS2_PLACEMENT_3D ( 'NONE', #2, #141, #21 ) ;
#148 = CALENDAR_DATE ( 2020, 16, 12 ) ;
#149 = FACE_OUTER_BOUND ( 'NONE', #19, .T. ) ;
#150 = DIRECTION ( 'NONE',  ( 0.0000000000000000000, 1.000000000000000000, 0.0000000000000000000 ) ) ;
#151 = VERTEX_POINT ( 'NONE', #239 ) ;
#152 = APPROVAL_DATE_TIME ( #188, #23 ) ;
#153 = ORIENTED_EDGE ( 'NONE', *, *, #207, .F. ) ;
#154 = CARTESIAN_POINT ( 'NONE',  ( 47.49999999999999300, 26.30000000000000100, -2.596251214192388800E-015 ) ) ;
#155 = MECHANICAL_CONTEXT ( 'NONE', #134, 'mechanical' ) ;
#156 = CARTESIAN_POINT ( 'NONE',  ( 47.50000000000000000, 0.0000000000000000000, 0.0000000000000000000 ) ) ;
#157 = CIRCLE ( 'NONE', #80, 21.19999999999999900 ) ;
#158 = PRODUCT_RELATED_PRODUCT_CATEGORY ( 'detail', '', ( #96 ) ) ;
#159 = EDGE_LOOP ( 'NONE', ( #67, #81, #105, #153 ) ) ;
#160 = LOCAL_TIME ( 3, 16, 23.00000000000000000, #167 ) ;
#161 = DIRECTION ( 'NONE',  ( 0.0000000000000000000, 1.000000000000000000, 0.0000000000000000000 ) ) ;
#162 = PERSON_AND_ORGANIZATION_ROLE ( 'creator' ) ;
#163 = CARTESIAN_POINT ( 'NONE',  ( 47.50000000000000000, 0.0000000000000000000, 0.0000000000000000000 ) ) ;
#164 = COORDINATED_UNIVERSAL_TIME_OFFSET ( 1, 0, .AHEAD. ) ;
#165 = ADVANCED_FACE ( 'NONE', ( #124 ), #121, .F. ) ;
#166 = DIRECTION ( 'NONE',  ( 1.000000000000000000, 0.0000000000000000000, 0.0000000000000000000 ) ) ;
#167 = COORDINATED_UNIVERSAL_TIME_OFFSET ( 1, 0, .AHEAD. ) ;
#168 = APPROVAL_PERSON_ORGANIZATION ( #137, #211, #234 ) ;
#169 = AXIS2_PLACEMENT_3D ( 'NONE', #9, #150, #29 ) ;
#170 = CIRCLE ( 'NONE', #92, 21.19999999999999900 ) ;
#171 = ORIENTED_EDGE ( 'NONE', *, *, #5, .T. ) ;
#172 = CARTESIAN_POINT ( 'NONE',  ( 19.20000000000000300, 0.0000000000000000000, -2.351321854362918100E-015 ) ) ;
#173 = AXIS2_PLACEMENT_3D ( 'NONE', #144, #22, #166 ) ;
#174 = CARTESIAN_POINT ( 'NONE',  ( 47.49999999999999300, 47.50000000000000000, 0.0000000000000000000 ) ) ;
#175 = PLANE ( 'NONE',  #187 ) ;
#176 = APPLICATION_CONTEXT ( 'configuration controlled 3d designs of mechanical parts and assemblies' ) ;
#177 = DIRECTION ( 'NONE',  ( 1.000000000000000000, 0.0000000000000000000, 0.0000000000000000000 ) ) ;
#178 = AXIS2_PLACEMENT_3D ( 'NONE', #32, #111, #12 ) ;
#179 = CIRCLE ( 'NONE', #112, 19.20000000000001000 ) ;
#180 = DIRECTION ( 'NONE',  ( 0.0000000000000000000, 0.0000000000000000000, 1.000000000000000000 ) ) ;
#181 = SECURITY_CLASSIFICATION_LEVEL ( 'unclassified' ) ;
#182 = CARTESIAN_POINT ( 'NONE',  ( 47.50000000000000000, 66.70000000000000300, 0.0000000000000000000 ) ) ;
#183 = AXIS2_PLACEMENT_3D ( 'NONE', #68, #206, #88 ) ;
#184 = DIRECTION ( 'NONE',  ( 1.000000000000000000, 0.0000000000000000000, 0.0000000000000000000 ) ) ;
#185 = ORIENTED_EDGE ( 'NONE', *, *, #246, .T. ) ;
#186 = CIRCLE ( 'NONE', #169, 21.19999999999999900 ) ;
#187 = AXIS2_PLACEMENT_3D ( 'NONE', #51, #193, #72 ) ;
#188 = DATE_AND_TIME ( #202, #58 ) ;
#189 = CC_DESIGN_PERSON_AND_ORGANIZATION_ASSIGNMENT ( #212, #33, ( #96 ) ) ;
#190 = ORIENTED_EDGE ( 'NONE', *, *, #218, .T. ) ;
#191 = VERTEX_POINT ( 'NONE', #172 ) ;
#192 = DIRECTION ( 'NONE',  ( 0.0000000000000000000, 0.0000000000000000000, 1.000000000000000000 ) ) ;
#193 = DIRECTION ( 'NONE',  ( 0.0000000000000000000, 1.000000000000000000, 0.0000000000000000000 ) ) ;
#194 = ORIENTED_EDGE ( 'NONE', *, *, #207, .T. ) ;
#195 = CIRCLE ( 'NONE', #117, 68.70000000000000300 ) ;
#196 = APPROVAL_PERSON_ORGANIZATION ( #25, #115, #215 ) ;
#197 = EDGE_CURVE ( 'NONE', #240, #36, #179, .T. ) ;
#198 = DATE_TIME_ROLE ( 'classification_date' ) ;
#199 = ORIENTED_EDGE ( 'NONE', *, *, #203, .F. ) ;
#200 = PRODUCT_DEFINITION ( 'UNKNOWN', '', #7, #237 ) ;
#201 = EDGE_LOOP ( 'NONE', ( #185, #143 ) ) ;
#202 = CALENDAR_DATE ( 2020, 16, 12 ) ;
#203 = EDGE_CURVE ( 'NONE', #36, #191, #63, .T. ) ;
#204 = COORDINATED_UNIVERSAL_TIME_OFFSET ( 1, 0, .AHEAD. ) ;
#205 = ORGANIZATION ( 'UNSPECIFIED', 'UNSPECIFIED', '' ) ;
#206 = DIRECTION ( 'NONE',  ( 1.000000000000000000, 6.123233995736766000E-017, 0.0000000000000000000 ) ) ;
#207 = EDGE_CURVE ( 'NONE', #128, #93, #146, .T. ) ;
#208 =( NAMED_UNIT ( * ) PLANE_ANGLE_UNIT ( ) SI_UNIT ( $, .RADIAN. ) );
#209 = CALENDAR_DATE ( 2020, 16, 12 ) ;
#210 = CARTESIAN_POINT ( 'NONE',  ( -21.19999999999999600, 0.0000000000000000000, 0.0000000000000000000 ) ) ;
#211 = APPROVAL ( #97, 'UNSPECIFIED' ) ;
#212 = PERSON_AND_ORGANIZATION ( #61, #205 ) ;
#213 = CIRCLE ( 'NONE', #42, 21.19999999999999900 ) ;
#214 = CARTESIAN_POINT ( 'NONE',  ( 47.50000000000000000, 0.0000000000000000000, 0.0000000000000000000 ) ) ;
#215 = APPROVAL_ROLE ( '' ) ;
#216 = CARTESIAN_POINT ( 'NONE',  ( 0.0000000000000000000, 0.0000000000000000000, 0.0000000000000000000 ) ) ;
#217 = DIRECTION ( 'NONE',  ( 0.0000000000000000000, 1.000000000000000000, 0.0000000000000000000 ) ) ;
#218 = EDGE_CURVE ( 'NONE', #240, #43, #66, .T. ) ;
#219 = ADVANCED_FACE ( 'NONE', ( #8, #89 ), #120, .T. ) ;
#220 = CARTESIAN_POINT ( 'NONE',  ( 47.50000000000000000, 47.50000000000000000, 0.0000000000000000000 ) ) ;
#221 = FACE_OUTER_BOUND ( 'NONE', #159, .T. ) ;
#222 = EDGE_CURVE ( 'NONE', #93, #125, #213, .T. ) ;
#223 = FACE_OUTER_BOUND ( 'NONE', #231, .T. ) ;
#224 = CC_DESIGN_APPROVAL ( #211, ( #200 ) ) ;
#225 = TOROIDAL_SURFACE ( 'NONE', #84, 47.50000000000000000, 19.20000000000000300 ) ;
#226 = CARTESIAN_POINT ( 'NONE',  ( -19.20000000000000600, 0.0000000000000000000, 0.0000000000000000000 ) ) ;
#227 = LOCAL_TIME ( 3, 16, 23.00000000000000000, #164 ) ;
#228 = ORIENTED_EDGE ( 'NONE', *, *, #17, .F. ) ;
#229 = CARTESIAN_POINT ( 'NONE',  ( 21.19999999999999900, 0.0000000000000000000, -2.596251214192388800E-015 ) ) ;
#230 = ORIENTED_EDGE ( 'NONE', *, *, #222, .T. ) ;
#231 = EDGE_LOOP ( 'NONE', ( #69, #48, #194, #230 ) ) ;
#232 = CARTESIAN_POINT ( 'NONE',  ( 47.49999999999999300, 47.50000000000000000, 0.0000000000000000000 ) ) ;
#233 = APPROVAL_PERSON_ORGANIZATION ( #250, #23, #18 ) ;
#234 = APPROVAL_ROLE ( '' ) ;
#235 = DIRECTION ( 'NONE',  ( 1.000000000000000000, 0.0000000000000000000, 0.0000000000000000000 ) ) ;
#236 = CARTESIAN_POINT ( 'NONE',  ( 47.50000000000000000, 28.29999999999999700, -2.351321854362918100E-015 ) ) ;
#237 = DESIGN_CONTEXT ( 'detailed design', #176, 'design' ) ;
#238 = ADVANCED_FACE ( 'NONE', ( #221 ), #64, .T. ) ;
#239 = CARTESIAN_POINT ( 'NONE',  ( 47.49999999999998600, 68.70000000000000300, 0.0000000000000000000 ) ) ;
#240 = VERTEX_POINT ( 'NONE', #182 ) ;
#241 = DIRECTION ( 'NONE',  ( 0.0000000000000000000, 1.000000000000000000, 0.0000000000000000000 ) ) ;
#242 = CC_DESIGN_PERSON_AND_ORGANIZATION_ASSIGNMENT ( #113, #119, ( #200 ) ) ;
#243 = CLOSED_SHELL ( 'NONE', ( #165, #238, #60, #219, #79, #140 ) ) ;
#244 = FACE_BOUND ( 'NONE', #102, .T. ) ;
#245 = DATE_AND_TIME ( #209, #75 ) ;
#246 = EDGE_CURVE ( 'NONE', #128, #151, #170, .T. ) ;
#247 = DIRECTION ( 'NONE',  ( 0.0000000000000000000, 0.0000000000000000000, 1.000000000000000000 ) ) ;
#248 = CC_DESIGN_DATE_AND_TIME_ASSIGNMENT ( #3, #252, ( #200 ) ) ;
#249 = ORIENTED_EDGE ( 'NONE', *, *, #13, .F. ) ;
#250 = PERSON_AND_ORGANIZATION ( #61, #205 ) ;
#251 = DIRECTION ( 'NONE',  ( 0.0000000000000000000, 0.0000000000000000000, 1.000000000000000000 ) ) ;
#252 = DATE_TIME_ROLE ( 'creation_date' ) ;
#253 = CARTESIAN_POINT ( 'NONE',  ( 47.49999999999999300, 47.50000000000000000, 0.0000000000000000000 ) ) ;
ENDSEC;
END-ISO-10303-21;
