ISO-10303-21;
HEADER;
/* Generated by software containing ST-Developer
 * from STEP Tools, Inc. (www.steptools.com) 
 */

FILE_DESCRIPTION(
/* description */ (''),
/* implementation_level */ '2;1');

FILE_NAME(
/* name */ 
'C:\\Users\\cad\\Desktop\\Zeichnungen neu von Ralph\\3D_Kupplung_R666-
PE\\3D_R666-PE-22-DN25_17113474.stp',
/* time_stamp */ '2021-06-18T13:22:01+02:00',
/* author */ ('cad'),
/* organization */ (''),
/* preprocessor_version */ 'ST-DEVELOPER v18.1',
/* originating_system */ 'Autodesk Inventor 2022',
/* authorisation */ '');

FILE_SCHEMA (('AUTOMOTIVE_DESIGN { 1 0 10303 214 3 1 1 }'));
ENDSEC;

DATA;
#10=MECHANICAL_DESIGN_GEOMETRIC_PRESENTATION_REPRESENTATION('',(#13),#493);
#11=SHAPE_REPRESENTATION_RELATIONSHIP('SRR','None',#500,#12);
#12=ADVANCED_BREP_SHAPE_REPRESENTATION('',(#14),#492);
#13=STYLED_ITEM('',(#509),#14);
#14=MANIFOLD_SOLID_BREP('Volumenk\X\F6rper1',#260);
#15=TOROIDAL_SURFACE('',#316,11.8,0.8);
#16=TOROIDAL_SURFACE('',#318,13.8,0.8);
#17=CYLINDRICAL_SURFACE('',#286,11.);
#18=CYLINDRICAL_SURFACE('',#292,9.8);
#19=CYLINDRICAL_SURFACE('',#300,13.);
#20=CYLINDRICAL_SURFACE('',#307,14.75);
#21=FACE_BOUND('',#47,.T.);
#22=FACE_BOUND('',#53,.T.);
#23=FACE_BOUND('',#58,.T.);
#24=FACE_BOUND('',#61,.T.);
#25=PLANE('',#284);
#26=PLANE('',#298);
#27=PLANE('',#310);
#28=PLANE('',#314);
#29=FACE_OUTER_BOUND('',#45,.T.);
#30=FACE_OUTER_BOUND('',#46,.T.);
#31=FACE_OUTER_BOUND('',#48,.T.);
#32=FACE_OUTER_BOUND('',#49,.T.);
#33=FACE_OUTER_BOUND('',#50,.T.);
#34=FACE_OUTER_BOUND('',#51,.T.);
#35=FACE_OUTER_BOUND('',#52,.T.);
#36=FACE_OUTER_BOUND('',#54,.T.);
#37=FACE_OUTER_BOUND('',#55,.T.);
#38=FACE_OUTER_BOUND('',#56,.T.);
#39=FACE_OUTER_BOUND('',#57,.T.);
#40=FACE_OUTER_BOUND('',#59,.T.);
#41=FACE_OUTER_BOUND('',#60,.T.);
#42=FACE_OUTER_BOUND('',#62,.T.);
#43=FACE_OUTER_BOUND('',#63,.T.);
#44=FACE_OUTER_BOUND('',#64,.T.);
#45=EDGE_LOOP('',(#168,#169,#170,#171,#172));
#46=EDGE_LOOP('',(#173));
#47=EDGE_LOOP('',(#174));
#48=EDGE_LOOP('',(#175,#176,#177,#178,#179,#180));
#49=EDGE_LOOP('',(#181,#182,#183,#184,#185));
#50=EDGE_LOOP('',(#186,#187,#188,#189,#190));
#51=EDGE_LOOP('',(#191,#192,#193,#194,#195));
#52=EDGE_LOOP('',(#196));
#53=EDGE_LOOP('',(#197));
#54=EDGE_LOOP('',(#198,#199,#200,#201,#202,#203));
#55=EDGE_LOOP('',(#204,#205,#206,#207,#208));
#56=EDGE_LOOP('',(#209,#210,#211,#212,#213,#214));
#57=EDGE_LOOP('',(#215));
#58=EDGE_LOOP('',(#216));
#59=EDGE_LOOP('',(#217,#218,#219,#220,#221));
#60=EDGE_LOOP('',(#222));
#61=EDGE_LOOP('',(#223));
#62=EDGE_LOOP('',(#224,#225,#226,#227,#228));
#63=EDGE_LOOP('',(#229,#230,#231,#232,#233));
#64=EDGE_LOOP('',(#234,#235,#236,#237));
#65=LINE('',#422,#75);
#66=LINE('',#431,#76);
#67=LINE('',#435,#77);
#68=LINE('',#442,#78);
#69=LINE('',#449,#79);
#70=LINE('',#458,#80);
#71=LINE('',#466,#81);
#72=LINE('',#473,#82);
#73=LINE('',#480,#83);
#74=LINE('',#489,#84);
#75=VECTOR('',#329,10.85);
#76=VECTOR('',#340,11.);
#77=VECTOR('',#345,9.95);
#78=VECTOR('',#354,9.8);
#79=VECTOR('',#361,12.85);
#80=VECTOR('',#372,13.);
#81=VECTOR('',#381,14.6);
#82=VECTOR('',#390,14.75);
#83=VECTOR('',#399,14.6);
#84=VECTOR('',#414,10.275);
#85=CIRCLE('',#281,11.);
#86=CIRCLE('',#282,11.);
#87=CIRCLE('',#283,10.7);
#88=CIRCLE('',#285,10.1);
#89=CIRCLE('',#287,11.);
#90=CIRCLE('',#288,11.);
#91=CIRCLE('',#290,9.8);
#92=CIRCLE('',#291,9.8);
#93=CIRCLE('',#293,9.8);
#94=CIRCLE('',#295,13.);
#95=CIRCLE('',#296,13.);
#96=CIRCLE('',#297,12.7);
#97=CIRCLE('',#299,11.8);
#98=CIRCLE('',#301,13.);
#99=CIRCLE('',#302,13.);
#100=CIRCLE('',#304,14.75);
#101=CIRCLE('',#305,14.75);
#102=CIRCLE('',#306,14.45);
#103=CIRCLE('',#308,14.75);
#104=CIRCLE('',#309,14.75);
#105=CIRCLE('',#311,13.8);
#106=CIRCLE('',#313,14.45);
#107=CIRCLE('',#315,10.75);
#108=CIRCLE('',#317,0.8);
#109=CIRCLE('',#319,0.8);
#110=VERTEX_POINT('',#417);
#111=VERTEX_POINT('',#418);
#112=VERTEX_POINT('',#421);
#113=VERTEX_POINT('',#425);
#114=VERTEX_POINT('',#428);
#115=VERTEX_POINT('',#429);
#116=VERTEX_POINT('',#434);
#117=VERTEX_POINT('',#436);
#118=VERTEX_POINT('',#440);
#119=VERTEX_POINT('',#444);
#120=VERTEX_POINT('',#445);
#121=VERTEX_POINT('',#448);
#122=VERTEX_POINT('',#452);
#123=VERTEX_POINT('',#455);
#124=VERTEX_POINT('',#456);
#125=VERTEX_POINT('',#461);
#126=VERTEX_POINT('',#462);
#127=VERTEX_POINT('',#465);
#128=VERTEX_POINT('',#469);
#129=VERTEX_POINT('',#470);
#130=VERTEX_POINT('',#475);
#131=VERTEX_POINT('',#478);
#132=VERTEX_POINT('',#482);
#133=EDGE_CURVE('',#110,#111,#85,.T.);
#134=EDGE_CURVE('',#111,#110,#86,.T.);
#135=EDGE_CURVE('',#110,#112,#65,.T.);
#136=EDGE_CURVE('',#112,#112,#87,.T.);
#137=EDGE_CURVE('',#113,#113,#88,.T.);
#138=EDGE_CURVE('',#114,#115,#89,.T.);
#139=EDGE_CURVE('',#114,#111,#66,.T.);
#140=EDGE_CURVE('',#115,#114,#90,.T.);
#141=EDGE_CURVE('',#113,#116,#67,.T.);
#142=EDGE_CURVE('',#116,#117,#91,.T.);
#143=EDGE_CURVE('',#117,#116,#92,.T.);
#144=EDGE_CURVE('',#118,#118,#93,.T.);
#145=EDGE_CURVE('',#118,#117,#68,.T.);
#146=EDGE_CURVE('',#119,#120,#94,.T.);
#147=EDGE_CURVE('',#120,#119,#95,.T.);
#148=EDGE_CURVE('',#119,#121,#69,.T.);
#149=EDGE_CURVE('',#121,#121,#96,.T.);
#150=EDGE_CURVE('',#122,#122,#97,.T.);
#151=EDGE_CURVE('',#123,#124,#98,.T.);
#152=EDGE_CURVE('',#123,#120,#70,.T.);
#153=EDGE_CURVE('',#124,#123,#99,.T.);
#154=EDGE_CURVE('',#125,#126,#100,.T.);
#155=EDGE_CURVE('',#126,#125,#101,.T.);
#156=EDGE_CURVE('',#125,#127,#71,.T.);
#157=EDGE_CURVE('',#127,#127,#102,.T.);
#158=EDGE_CURVE('',#128,#129,#103,.T.);
#159=EDGE_CURVE('',#129,#128,#104,.T.);
#160=EDGE_CURVE('',#129,#126,#72,.T.);
#161=EDGE_CURVE('',#130,#130,#105,.T.);
#162=EDGE_CURVE('',#131,#131,#106,.T.);
#163=EDGE_CURVE('',#131,#128,#73,.T.);
#164=EDGE_CURVE('',#132,#132,#107,.T.);
#165=EDGE_CURVE('',#115,#122,#108,.T.);
#166=EDGE_CURVE('',#124,#130,#109,.T.);
#167=EDGE_CURVE('',#132,#118,#74,.T.);
#168=ORIENTED_EDGE('',*,*,#133,.T.);
#169=ORIENTED_EDGE('',*,*,#134,.T.);
#170=ORIENTED_EDGE('',*,*,#135,.T.);
#171=ORIENTED_EDGE('',*,*,#136,.T.);
#172=ORIENTED_EDGE('',*,*,#135,.F.);
#173=ORIENTED_EDGE('',*,*,#136,.F.);
#174=ORIENTED_EDGE('',*,*,#137,.F.);
#175=ORIENTED_EDGE('',*,*,#138,.F.);
#176=ORIENTED_EDGE('',*,*,#139,.T.);
#177=ORIENTED_EDGE('',*,*,#133,.F.);
#178=ORIENTED_EDGE('',*,*,#134,.F.);
#179=ORIENTED_EDGE('',*,*,#139,.F.);
#180=ORIENTED_EDGE('',*,*,#140,.F.);
#181=ORIENTED_EDGE('',*,*,#137,.T.);
#182=ORIENTED_EDGE('',*,*,#141,.T.);
#183=ORIENTED_EDGE('',*,*,#142,.T.);
#184=ORIENTED_EDGE('',*,*,#143,.T.);
#185=ORIENTED_EDGE('',*,*,#141,.F.);
#186=ORIENTED_EDGE('',*,*,#144,.T.);
#187=ORIENTED_EDGE('',*,*,#145,.T.);
#188=ORIENTED_EDGE('',*,*,#142,.F.);
#189=ORIENTED_EDGE('',*,*,#143,.F.);
#190=ORIENTED_EDGE('',*,*,#145,.F.);
#191=ORIENTED_EDGE('',*,*,#146,.T.);
#192=ORIENTED_EDGE('',*,*,#147,.T.);
#193=ORIENTED_EDGE('',*,*,#148,.T.);
#194=ORIENTED_EDGE('',*,*,#149,.T.);
#195=ORIENTED_EDGE('',*,*,#148,.F.);
#196=ORIENTED_EDGE('',*,*,#149,.F.);
#197=ORIENTED_EDGE('',*,*,#150,.F.);
#198=ORIENTED_EDGE('',*,*,#151,.F.);
#199=ORIENTED_EDGE('',*,*,#152,.T.);
#200=ORIENTED_EDGE('',*,*,#146,.F.);
#201=ORIENTED_EDGE('',*,*,#147,.F.);
#202=ORIENTED_EDGE('',*,*,#152,.F.);
#203=ORIENTED_EDGE('',*,*,#153,.F.);
#204=ORIENTED_EDGE('',*,*,#154,.T.);
#205=ORIENTED_EDGE('',*,*,#155,.T.);
#206=ORIENTED_EDGE('',*,*,#156,.T.);
#207=ORIENTED_EDGE('',*,*,#157,.T.);
#208=ORIENTED_EDGE('',*,*,#156,.F.);
#209=ORIENTED_EDGE('',*,*,#158,.F.);
#210=ORIENTED_EDGE('',*,*,#159,.F.);
#211=ORIENTED_EDGE('',*,*,#160,.T.);
#212=ORIENTED_EDGE('',*,*,#154,.F.);
#213=ORIENTED_EDGE('',*,*,#155,.F.);
#214=ORIENTED_EDGE('',*,*,#160,.F.);
#215=ORIENTED_EDGE('',*,*,#157,.F.);
#216=ORIENTED_EDGE('',*,*,#161,.F.);
#217=ORIENTED_EDGE('',*,*,#162,.T.);
#218=ORIENTED_EDGE('',*,*,#163,.T.);
#219=ORIENTED_EDGE('',*,*,#158,.T.);
#220=ORIENTED_EDGE('',*,*,#159,.T.);
#221=ORIENTED_EDGE('',*,*,#163,.F.);
#222=ORIENTED_EDGE('',*,*,#162,.F.);
#223=ORIENTED_EDGE('',*,*,#164,.F.);
#224=ORIENTED_EDGE('',*,*,#138,.T.);
#225=ORIENTED_EDGE('',*,*,#165,.T.);
#226=ORIENTED_EDGE('',*,*,#150,.T.);
#227=ORIENTED_EDGE('',*,*,#165,.F.);
#228=ORIENTED_EDGE('',*,*,#140,.T.);
#229=ORIENTED_EDGE('',*,*,#151,.T.);
#230=ORIENTED_EDGE('',*,*,#166,.T.);
#231=ORIENTED_EDGE('',*,*,#161,.T.);
#232=ORIENTED_EDGE('',*,*,#166,.F.);
#233=ORIENTED_EDGE('',*,*,#153,.T.);
#234=ORIENTED_EDGE('',*,*,#164,.T.);
#235=ORIENTED_EDGE('',*,*,#167,.T.);
#236=ORIENTED_EDGE('',*,*,#144,.F.);
#237=ORIENTED_EDGE('',*,*,#167,.F.);
#238=CONICAL_SURFACE('',#280,10.85,0.785398163397452);
#239=CONICAL_SURFACE('',#289,9.95,0.785398163397441);
#240=CONICAL_SURFACE('',#294,12.85,0.785398163397448);
#241=CONICAL_SURFACE('',#303,14.6,0.785398163397449);
#242=CONICAL_SURFACE('',#312,14.6,0.785398163397433);
#243=CONICAL_SURFACE('',#320,10.275,0.523598775598299);
#244=ADVANCED_FACE('',(#29),#238,.T.);
#245=ADVANCED_FACE('',(#30,#21),#25,.T.);
#246=ADVANCED_FACE('',(#31),#17,.T.);
#247=ADVANCED_FACE('',(#32),#239,.F.);
#248=ADVANCED_FACE('',(#33),#18,.F.);
#249=ADVANCED_FACE('',(#34),#240,.T.);
#250=ADVANCED_FACE('',(#35,#22),#26,.T.);
#251=ADVANCED_FACE('',(#36),#19,.T.);
#252=ADVANCED_FACE('',(#37),#241,.T.);
#253=ADVANCED_FACE('',(#38),#20,.T.);
#254=ADVANCED_FACE('',(#39,#23),#27,.T.);
#255=ADVANCED_FACE('',(#40),#242,.T.);
#256=ADVANCED_FACE('',(#41,#24),#28,.T.);
#257=ADVANCED_FACE('',(#42),#15,.F.);
#258=ADVANCED_FACE('',(#43),#16,.F.);
#259=ADVANCED_FACE('',(#44),#243,.F.);
#260=CLOSED_SHELL('',(#244,#245,#246,#247,#248,#249,#250,#251,#252,#253,
#254,#255,#256,#257,#258,#259));
#261=DERIVED_UNIT_ELEMENT(#263,1.);
#262=DERIVED_UNIT_ELEMENT(#495,-3.);
#263=(
MASS_UNIT()
NAMED_UNIT(*)
SI_UNIT($,.GRAM.)
);
#264=DERIVED_UNIT((#261,#262));
#265=MEASURE_REPRESENTATION_ITEM('density measure',
POSITIVE_RATIO_MEASURE(1.),#264);
#266=PROPERTY_DEFINITION_REPRESENTATION(#271,#268);
#267=PROPERTY_DEFINITION_REPRESENTATION(#272,#269);
#268=REPRESENTATION('material name',(#270),#492);
#269=REPRESENTATION('density',(#265),#492);
#270=DESCRIPTIVE_REPRESENTATION_ITEM('Generisch','Generisch');
#271=PROPERTY_DEFINITION('material property','material name',#502);
#272=PROPERTY_DEFINITION('material property','density of part',#502);
#273=DATE_TIME_ROLE('creation_date');
#274=APPLIED_DATE_AND_TIME_ASSIGNMENT(#275,#273,(#502));
#275=DATE_AND_TIME(#276,#277);
#276=CALENDAR_DATE(2021,18,6);
#277=LOCAL_TIME(0,0,0.,#278);
#278=COORDINATED_UNIVERSAL_TIME_OFFSET(0,0,.BEHIND.);
#279=AXIS2_PLACEMENT_3D('placement',#415,#321,#322);
#280=AXIS2_PLACEMENT_3D('',#416,#323,#324);
#281=AXIS2_PLACEMENT_3D('',#419,#325,#326);
#282=AXIS2_PLACEMENT_3D('',#420,#327,#328);
#283=AXIS2_PLACEMENT_3D('',#423,#330,#331);
#284=AXIS2_PLACEMENT_3D('',#424,#332,#333);
#285=AXIS2_PLACEMENT_3D('',#426,#334,#335);
#286=AXIS2_PLACEMENT_3D('',#427,#336,#337);
#287=AXIS2_PLACEMENT_3D('',#430,#338,#339);
#288=AXIS2_PLACEMENT_3D('',#432,#341,#342);
#289=AXIS2_PLACEMENT_3D('',#433,#343,#344);
#290=AXIS2_PLACEMENT_3D('',#437,#346,#347);
#291=AXIS2_PLACEMENT_3D('',#438,#348,#349);
#292=AXIS2_PLACEMENT_3D('',#439,#350,#351);
#293=AXIS2_PLACEMENT_3D('',#441,#352,#353);
#294=AXIS2_PLACEMENT_3D('',#443,#355,#356);
#295=AXIS2_PLACEMENT_3D('',#446,#357,#358);
#296=AXIS2_PLACEMENT_3D('',#447,#359,#360);
#297=AXIS2_PLACEMENT_3D('',#450,#362,#363);
#298=AXIS2_PLACEMENT_3D('',#451,#364,#365);
#299=AXIS2_PLACEMENT_3D('',#453,#366,#367);
#300=AXIS2_PLACEMENT_3D('',#454,#368,#369);
#301=AXIS2_PLACEMENT_3D('',#457,#370,#371);
#302=AXIS2_PLACEMENT_3D('',#459,#373,#374);
#303=AXIS2_PLACEMENT_3D('',#460,#375,#376);
#304=AXIS2_PLACEMENT_3D('',#463,#377,#378);
#305=AXIS2_PLACEMENT_3D('',#464,#379,#380);
#306=AXIS2_PLACEMENT_3D('',#467,#382,#383);
#307=AXIS2_PLACEMENT_3D('',#468,#384,#385);
#308=AXIS2_PLACEMENT_3D('',#471,#386,#387);
#309=AXIS2_PLACEMENT_3D('',#472,#388,#389);
#310=AXIS2_PLACEMENT_3D('',#474,#391,#392);
#311=AXIS2_PLACEMENT_3D('',#476,#393,#394);
#312=AXIS2_PLACEMENT_3D('',#477,#395,#396);
#313=AXIS2_PLACEMENT_3D('',#479,#397,#398);
#314=AXIS2_PLACEMENT_3D('',#481,#400,#401);
#315=AXIS2_PLACEMENT_3D('',#483,#402,#403);
#316=AXIS2_PLACEMENT_3D('',#484,#404,#405);
#317=AXIS2_PLACEMENT_3D('',#485,#406,#407);
#318=AXIS2_PLACEMENT_3D('',#486,#408,#409);
#319=AXIS2_PLACEMENT_3D('',#487,#410,#411);
#320=AXIS2_PLACEMENT_3D('',#488,#412,#413);
#321=DIRECTION('axis',(0.,0.,1.));
#322=DIRECTION('refdir',(1.,0.,0.));
#323=DIRECTION('center_axis',(1.,0.,0.));
#324=DIRECTION('ref_axis',(0.,-1.,0.));
#325=DIRECTION('center_axis',(-1.,0.,0.));
#326=DIRECTION('ref_axis',(0.,-1.,0.));
#327=DIRECTION('center_axis',(-1.,0.,0.));
#328=DIRECTION('ref_axis',(0.,-1.,0.));
#329=DIRECTION('',(-0.707106781186545,-0.70710678118655,-8.65956056235496E-17));
#330=DIRECTION('center_axis',(1.,0.,0.));
#331=DIRECTION('ref_axis',(0.,-1.,0.));
#332=DIRECTION('center_axis',(-1.,0.,0.));
#333=DIRECTION('ref_axis',(0.,0.,1.));
#334=DIRECTION('center_axis',(-1.,0.,0.));
#335=DIRECTION('ref_axis',(0.,-1.,0.));
#336=DIRECTION('center_axis',(1.,0.,0.));
#337=DIRECTION('ref_axis',(0.,1.,0.));
#338=DIRECTION('center_axis',(1.,0.,0.));
#339=DIRECTION('ref_axis',(0.,-1.,1.83697019872103E-16));
#340=DIRECTION('',(-1.,0.,0.));
#341=DIRECTION('center_axis',(1.,0.,0.));
#342=DIRECTION('ref_axis',(0.,-1.,1.83697019872103E-16));
#343=DIRECTION('center_axis',(-1.,0.,0.));
#344=DIRECTION('ref_axis',(0.,-1.,0.));
#345=DIRECTION('',(0.707106781186553,-0.707106781186542,8.65956056235487E-17));
#346=DIRECTION('center_axis',(1.,0.,0.));
#347=DIRECTION('ref_axis',(0.,-1.,0.));
#348=DIRECTION('center_axis',(1.,0.,0.));
#349=DIRECTION('ref_axis',(0.,-1.,0.));
#350=DIRECTION('center_axis',(1.,0.,0.));
#351=DIRECTION('ref_axis',(0.,1.,0.));
#352=DIRECTION('center_axis',(1.,0.,0.));
#353=DIRECTION('ref_axis',(0.,0.,-1.));
#354=DIRECTION('',(-1.,0.,0.));
#355=DIRECTION('center_axis',(1.,0.,0.));
#356=DIRECTION('ref_axis',(0.,-1.,0.));
#357=DIRECTION('center_axis',(-1.,0.,0.));
#358=DIRECTION('ref_axis',(0.,-1.,0.));
#359=DIRECTION('center_axis',(-1.,0.,0.));
#360=DIRECTION('ref_axis',(0.,-1.,0.));
#361=DIRECTION('',(-0.707106781186548,-0.707106781186548,-8.65956056235494E-17));
#362=DIRECTION('center_axis',(1.,0.,0.));
#363=DIRECTION('ref_axis',(0.,-1.,0.));
#364=DIRECTION('center_axis',(-1.,0.,0.));
#365=DIRECTION('ref_axis',(0.,0.,1.));
#366=DIRECTION('center_axis',(-1.,0.,0.));
#367=DIRECTION('ref_axis',(0.,-1.,1.83697019872103E-16));
#368=DIRECTION('center_axis',(1.,0.,0.));
#369=DIRECTION('ref_axis',(0.,1.,0.));
#370=DIRECTION('center_axis',(1.,0.,0.));
#371=DIRECTION('ref_axis',(0.,-1.,1.83697019872103E-16));
#372=DIRECTION('',(-1.,0.,0.));
#373=DIRECTION('center_axis',(1.,0.,0.));
#374=DIRECTION('ref_axis',(0.,-1.,1.83697019872103E-16));
#375=DIRECTION('center_axis',(1.,0.,0.));
#376=DIRECTION('ref_axis',(0.,-1.,0.));
#377=DIRECTION('center_axis',(-1.,0.,0.));
#378=DIRECTION('ref_axis',(0.,-1.,0.));
#379=DIRECTION('center_axis',(-1.,0.,0.));
#380=DIRECTION('ref_axis',(0.,-1.,0.));
#381=DIRECTION('',(-0.707106781186547,-0.707106781186548,-8.65956056235494E-17));
#382=DIRECTION('center_axis',(1.,0.,0.));
#383=DIRECTION('ref_axis',(0.,-1.,0.));
#384=DIRECTION('center_axis',(1.,0.,0.));
#385=DIRECTION('ref_axis',(0.,1.,0.));
#386=DIRECTION('center_axis',(1.,0.,0.));
#387=DIRECTION('ref_axis',(0.,-1.,0.));
#388=DIRECTION('center_axis',(1.,0.,0.));
#389=DIRECTION('ref_axis',(0.,-1.,0.));
#390=DIRECTION('',(-1.,0.,0.));
#391=DIRECTION('center_axis',(-1.,0.,0.));
#392=DIRECTION('ref_axis',(0.,0.,1.));
#393=DIRECTION('center_axis',(-1.,0.,0.));
#394=DIRECTION('ref_axis',(0.,-1.,1.83697019872103E-16));
#395=DIRECTION('center_axis',(-1.,0.,0.));
#396=DIRECTION('ref_axis',(0.,-1.,0.));
#397=DIRECTION('center_axis',(-1.,0.,0.));
#398=DIRECTION('ref_axis',(0.,-1.,0.));
#399=DIRECTION('',(-0.707106781186558,0.707106781186537,8.6595605623548E-17));
#400=DIRECTION('center_axis',(1.,0.,0.));
#401=DIRECTION('ref_axis',(0.,0.,-1.));
#402=DIRECTION('center_axis',(1.,0.,0.));
#403=DIRECTION('ref_axis',(0.,0.,-1.));
#404=DIRECTION('center_axis',(1.,0.,0.));
#405=DIRECTION('ref_axis',(0.,0.,-1.));
#406=DIRECTION('center_axis',(0.,-1.,-1.22464679914735E-16));
#407=DIRECTION('ref_axis',(0.,-1.22464679914735E-16,1.));
#408=DIRECTION('center_axis',(1.,0.,0.));
#409=DIRECTION('ref_axis',(0.,0.,-1.));
#410=DIRECTION('center_axis',(0.,-1.,-1.22464679914735E-16));
#411=DIRECTION('ref_axis',(0.,-1.22464679914735E-16,1.));
#412=DIRECTION('center_axis',(1.,0.,0.));
#413=DIRECTION('ref_axis',(0.,1.,0.));
#414=DIRECTION('',(-0.866025403784439,0.5,6.12323399573676E-17));
#415=CARTESIAN_POINT('',(0.,0.,0.));
#416=CARTESIAN_POINT('Origin',(-41.85,0.,0.));
#417=CARTESIAN_POINT('',(-41.7,11.,-1.34711147906209E-15));
#418=CARTESIAN_POINT('',(-41.7,-11.,-1.34711147906209E-15));
#419=CARTESIAN_POINT('Origin',(-41.7,0.,0.));
#420=CARTESIAN_POINT('Origin',(-41.7,0.,0.));
#421=CARTESIAN_POINT('',(-42.,10.7,1.31037207508767E-15));
#422=CARTESIAN_POINT('',(-41.85,10.85,1.32874177707488E-15));
#423=CARTESIAN_POINT('Origin',(-42.,0.,0.));
#424=CARTESIAN_POINT('Origin',(-42.,11.,0.));
#425=CARTESIAN_POINT('',(-42.,10.1,-1.23689326713883E-15));
#426=CARTESIAN_POINT('Origin',(-42.,0.,0.));
#427=CARTESIAN_POINT('Origin',(-24.5,0.,0.));
#428=CARTESIAN_POINT('',(-7.80000000000001,-11.,-1.34711147906209E-15));
#429=CARTESIAN_POINT('',(-7.80000000000001,-1.34711147906209E-15,11.));
#430=CARTESIAN_POINT('Origin',(-7.80000000000001,0.,0.));
#431=CARTESIAN_POINT('',(-24.5,-11.,-1.34711147906209E-15));
#432=CARTESIAN_POINT('Origin',(-7.80000000000001,0.,0.));
#433=CARTESIAN_POINT('Origin',(-41.85,0.,0.));
#434=CARTESIAN_POINT('',(-41.7,9.8,1.20015386316441E-15));
#435=CARTESIAN_POINT('',(-41.85,9.95,-1.21852356515162E-15));
#436=CARTESIAN_POINT('',(-41.7,-9.8,-1.20015386316441E-15));
#437=CARTESIAN_POINT('Origin',(-41.7,0.,0.));
#438=CARTESIAN_POINT('Origin',(-41.7,0.,0.));
#439=CARTESIAN_POINT('Origin',(-21.8227241335952,0.,0.));
#440=CARTESIAN_POINT('',(-1.64544826719044,-9.8,-1.20015386316441E-15));
#441=CARTESIAN_POINT('Origin',(-1.64544826719044,0.,0.));
#442=CARTESIAN_POINT('',(-21.8227241335952,-9.8,-1.20015386316441E-15));
#443=CARTESIAN_POINT('Origin',(-6.85000000000001,0.,0.));
#444=CARTESIAN_POINT('',(-6.70000000000001,13.,-1.59204083889156E-15));
#445=CARTESIAN_POINT('',(-6.70000000000001,-13.,-1.59204083889156E-15));
#446=CARTESIAN_POINT('Origin',(-6.70000000000001,0.,0.));
#447=CARTESIAN_POINT('Origin',(-6.70000000000001,0.,0.));
#448=CARTESIAN_POINT('',(-7.00000000000001,12.7,1.55530143491714E-15));
#449=CARTESIAN_POINT('',(-6.85000000000001,12.85,1.57367113690435E-15));
#450=CARTESIAN_POINT('Origin',(-7.00000000000001,0.,0.));
#451=CARTESIAN_POINT('Origin',(-7.00000000000001,13.,0.));
#452=CARTESIAN_POINT('',(-7.00000000000001,-1.44508322299388E-15,11.8));
#453=CARTESIAN_POINT('Origin',(-7.00000000000001,0.,0.));
#454=CARTESIAN_POINT('Origin',(-5.25000000000001,0.,0.));
#455=CARTESIAN_POINT('',(-4.30000000000001,-13.,-1.59204083889156E-15));
#456=CARTESIAN_POINT('',(-4.30000000000001,-1.59204083889156E-15,13.));
#457=CARTESIAN_POINT('Origin',(-4.30000000000001,0.,0.));
#458=CARTESIAN_POINT('',(-5.25000000000001,-13.,-1.59204083889156E-15));
#459=CARTESIAN_POINT('Origin',(-4.30000000000001,0.,0.));
#460=CARTESIAN_POINT('Origin',(-3.35000000000001,0.,0.));
#461=CARTESIAN_POINT('',(-3.20000000000001,14.75,-1.80635402874235E-15));
#462=CARTESIAN_POINT('',(-3.20000000000001,-14.75,-1.80635402874235E-15));
#463=CARTESIAN_POINT('Origin',(-3.20000000000001,0.,0.));
#464=CARTESIAN_POINT('Origin',(-3.20000000000001,0.,0.));
#465=CARTESIAN_POINT('',(-3.50000000000001,14.45,1.76961462476793E-15));
#466=CARTESIAN_POINT('',(-3.35000000000001,14.6,1.78798432675514E-15));
#467=CARTESIAN_POINT('Origin',(-3.50000000000001,0.,0.));
#468=CARTESIAN_POINT('Origin',(-1.75000000000001,0.,0.));
#469=CARTESIAN_POINT('',(-0.300000000000012,14.75,1.80635402874235E-15));
#470=CARTESIAN_POINT('',(-0.300000000000012,-14.75,-1.80635402874235E-15));
#471=CARTESIAN_POINT('Origin',(-0.300000000000012,0.,0.));
#472=CARTESIAN_POINT('Origin',(-0.300000000000012,0.,0.));
#473=CARTESIAN_POINT('',(-1.75000000000001,-14.75,-1.80635402874235E-15));
#474=CARTESIAN_POINT('Origin',(-3.50000000000001,14.75,0.));
#475=CARTESIAN_POINT('',(-3.50000000000001,-1.69001258282335E-15,13.8));
#476=CARTESIAN_POINT('Origin',(-3.50000000000001,0.,0.));
#477=CARTESIAN_POINT('Origin',(-0.150000000000008,0.,0.));
#478=CARTESIAN_POINT('',(-4.44089209850063E-15,14.45,-1.76961462476793E-15));
#479=CARTESIAN_POINT('Origin',(-4.44089209850063E-15,0.,0.));
#480=CARTESIAN_POINT('',(-0.150000000000008,14.6,1.78798432675514E-15));
#481=CARTESIAN_POINT('Origin',(-4.44089209850063E-15,10.75,0.));
#482=CARTESIAN_POINT('',(-4.02455846426619E-15,-10.75,-1.3164953090834E-15));
#483=CARTESIAN_POINT('Origin',(-4.44089209850063E-15,0.,0.));
#484=CARTESIAN_POINT('Origin',(-7.80000000000001,0.,0.));
#485=CARTESIAN_POINT('Origin',(-7.80000000000001,-1.44508322299388E-15,
11.8));
#486=CARTESIAN_POINT('Origin',(-4.30000000000001,0.,0.));
#487=CARTESIAN_POINT('Origin',(-4.30000000000001,-1.69001258282335E-15,
13.8));
#488=CARTESIAN_POINT('Origin',(-0.822724133595222,0.,0.));
#489=CARTESIAN_POINT('',(-0.822724133595222,-10.275,-1.25832458612391E-15));
#490=UNCERTAINTY_MEASURE_WITH_UNIT(LENGTH_MEASURE(0.01),#494,
'DISTANCE_ACCURACY_VALUE',
'Maximum model space distance between geometric entities at asserted c
onnectivities');
#491=UNCERTAINTY_MEASURE_WITH_UNIT(LENGTH_MEASURE(0.01),#494,
'DISTANCE_ACCURACY_VALUE',
'Maximum model space distance between geometric entities at asserted c
onnectivities');
#492=(
GEOMETRIC_REPRESENTATION_CONTEXT(3)
GLOBAL_UNCERTAINTY_ASSIGNED_CONTEXT((#490))
GLOBAL_UNIT_ASSIGNED_CONTEXT((#494,#496,#497))
REPRESENTATION_CONTEXT('','3D')
);
#493=(
GEOMETRIC_REPRESENTATION_CONTEXT(3)
GLOBAL_UNCERTAINTY_ASSIGNED_CONTEXT((#491))
GLOBAL_UNIT_ASSIGNED_CONTEXT((#494,#496,#497))
REPRESENTATION_CONTEXT('','3D')
);
#494=(
LENGTH_UNIT()
NAMED_UNIT(*)
SI_UNIT(.MILLI.,.METRE.)
);
#495=(
LENGTH_UNIT()
NAMED_UNIT(*)
SI_UNIT(.CENTI.,.METRE.)
);
#496=(
NAMED_UNIT(*)
PLANE_ANGLE_UNIT()
SI_UNIT($,.RADIAN.)
);
#497=(
NAMED_UNIT(*)
SI_UNIT($,.STERADIAN.)
SOLID_ANGLE_UNIT()
);
#498=SHAPE_DEFINITION_REPRESENTATION(#499,#500);
#499=PRODUCT_DEFINITION_SHAPE('',$,#502);
#500=SHAPE_REPRESENTATION('',(#279),#492);
#501=PRODUCT_DEFINITION_CONTEXT('part definition',#506,'design');
#502=PRODUCT_DEFINITION('3D_R666-PE-22-DN25_17113474',
'3D_R666-PE-22-DN25_17113474',#503,#501);
#503=PRODUCT_DEFINITION_FORMATION('',$,#508);
#504=PRODUCT_RELATED_PRODUCT_CATEGORY('3D_R666-PE-22-DN25_17113474',
'3D_R666-PE-22-DN25_17113474',(#508));
#505=APPLICATION_PROTOCOL_DEFINITION('international standard',
'automotive_design',2009,#506);
#506=APPLICATION_CONTEXT(
'Core Data for Automotive Mechanical Design Process');
#507=PRODUCT_CONTEXT('part definition',#506,'mechanical');
#508=PRODUCT('3D_R666-PE-22-DN25_17113474',
'3D_R666-PE-22-DN25_17113474',$,(#507));
#509=PRESENTATION_STYLE_ASSIGNMENT((#510));
#510=SURFACE_STYLE_USAGE(.BOTH.,#513);
#511=SURFACE_STYLE_RENDERING_WITH_PROPERTIES($,#517,(#512));
#512=SURFACE_STYLE_TRANSPARENT(0.);
#513=SURFACE_SIDE_STYLE('',(#514,#511));
#514=SURFACE_STYLE_FILL_AREA(#515);
#515=FILL_AREA_STYLE('',(#516));
#516=FILL_AREA_STYLE_COLOUR('',#517);
#517=COLOUR_RGB('',0.749019607843137,0.749019607843137,0.749019607843137);
ENDSEC;
END-ISO-10303-21;
