ISO-10303-21;
HEADER;
/****************************************************************
 * Generated by software with PDElib inside                    *
 * PDElib Version v51a, created Wed 07/06/2011                  *
 * ITI Transcendata (http://www.transcendata.com/)              *
 ****************************************************************/
FILE_DESCRIPTION(('RE_33,7x2-21,3x1,6_L70_V10'),'2;1');
FILE_NAME('RE_33,7x2-21,3x1,6_L70_V10.stp','2013-11-02T16:28:41',('DOCKWEILER AG'),('DOCKWEILER AG'),'Autodesk Inventor 2012','Autodesk Inventor 2012','');
FILE_SCHEMA(('CONFIG_CONTROL_DESIGN'));
ENDSEC;
DATA;
#5=APPLICATION_CONTEXT('configuration controlled 3D designs of mechanical parts and assemblies');
#6=APPLICATION_PROTOCOL_DEFINITION('International Standard','ap203_configuration_controlled_3d_design_of_mechanical_parts_and_assemblies_mim_lf',2004,#5);
#7=PRODUCT_CONTEXT('',#5,'mechanical');
#8=PRODUCT('N0006_002_001_009','N0006_002_001_009',$,(#7));
#9=PRODUCT_RELATED_PRODUCT_CATEGORY('part',$,(#8));
#10=PRODUCT_DEFINITION_FORMATION('',$,#8);
#11=PRODUCT_DEFINITION_CONTEXT('part definition',#5,'design');
#12=PRODUCT_DEFINITION('',$,#10,#11);
#18=(NAMED_UNIT(*)PLANE_ANGLE_UNIT()SI_UNIT($,.RADIAN.));
#19=DIMENSIONAL_EXPONENTS(0.0,0.0,0.0,0.0,0.0,0.0,0.0);
#20=PLANE_ANGLE_MEASURE_WITH_UNIT(PLANE_ANGLE_MEASURE(0.0174532925),#18);
#24=(CONVERSION_BASED_UNIT('DEGREE',#20)NAMED_UNIT(#19)PLANE_ANGLE_UNIT());
#28=(NAMED_UNIT(*)SI_UNIT($,.STERADIAN.)SOLID_ANGLE_UNIT());
#32=(LENGTH_UNIT()NAMED_UNIT(*)SI_UNIT(.MILLI.,.METRE.));
#34=UNCERTAINTY_MEASURE_WITH_UNIT(LENGTH_MEASURE(0.01),#32,'DISTANCE_ACCURACY_VALUE','');
#36=(GEOMETRIC_REPRESENTATION_CONTEXT(3)GLOBAL_UNCERTAINTY_ASSIGNED_CONTEXT((#34))GLOBAL_UNIT_ASSIGNED_CONTEXT((#24,#28,#32))REPRESENTATION_CONTEXT('None','None'));
#37=AXIS2_PLACEMENT_3D('',#38,#39,#40);
#38=CARTESIAN_POINT('',(0.0,0.0,0.0));
#39=DIRECTION('',(0.0,0.0,1.0));
#40=DIRECTION('',(1.0,0.0,0.0));
#41=SHAPE_REPRESENTATION('',(#37),#36);
#42=PRODUCT_DEFINITION_SHAPE('','',#12);
#43=SHAPE_DEFINITION_REPRESENTATION(#42,#41);
#49=(NAMED_UNIT(*)PLANE_ANGLE_UNIT()SI_UNIT($,.RADIAN.));
#50=DIMENSIONAL_EXPONENTS(0.0,0.0,0.0,0.0,0.0,0.0,0.0);
#51=PLANE_ANGLE_MEASURE_WITH_UNIT(PLANE_ANGLE_MEASURE(0.0174532925),#49);
#55=(CONVERSION_BASED_UNIT('DEGREE',#51)NAMED_UNIT(#50)PLANE_ANGLE_UNIT());
#59=(NAMED_UNIT(*)SI_UNIT($,.STERADIAN.)SOLID_ANGLE_UNIT());
#63=(LENGTH_UNIT()NAMED_UNIT(*)SI_UNIT(.MILLI.,.METRE.));
#65=UNCERTAINTY_MEASURE_WITH_UNIT(LENGTH_MEASURE(0.000001),#63,'DISTANCE_ACCURACY_VALUE','');
#67=(GEOMETRIC_REPRESENTATION_CONTEXT(3)GLOBAL_UNCERTAINTY_ASSIGNED_CONTEXT((#65))GLOBAL_UNIT_ASSIGNED_CONTEXT((#55,#59,#63))REPRESENTATION_CONTEXT('','3D'));
#68=CARTESIAN_POINT('',(6.312123200895574,44.456902209444181,8.790209612511813));
#69=CARTESIAN_POINT('',(7.802365E-014,7.46599789159344,15.288884557281525));
#70=CARTESIAN_POINT('',(14.850000000000049,43.0,8.790209612511765));
#71=CARTESIAN_POINT('',(14.850000000000103,4.931995783186888,15.288884557281445));
#72=CARTESIAN_POINT('',(14.850000000000009,43.000000000000014,-4.774018E-014));
#73=CARTESIAN_POINT('',(14.850000000000028,4.931995783186901,-7.956166E-014));
#74=CARTESIAN_POINT('',(14.849999999999962,43.000000000000028,-8.790209612511861));
#75=CARTESIAN_POINT('',(14.849999999999946,4.931995783186915,-15.2888845572816));
#76=CARTESIAN_POINT('',(6.312123200895485,44.456902209444209,-8.790209612511816));
#77=CARTESIAN_POINT('',(-7.657955E-014,7.465997891593466,-15.288884557281529));
#78=CARTESIAN_POINT('',(-2.225753598208992,45.91380441888839,-8.790209612511768));
#79=CARTESIAN_POINT('',(-14.850000000000103,10.000000000000016,-15.288884557281449));
#80=CARTESIAN_POINT('',(-2.22575359820895,45.913804418888375,4.329928E-014));
#81=CARTESIAN_POINT('',(-14.850000000000028,10.000000000000005,7.512077E-014));
#82=CARTESIAN_POINT('',(-2.225753598208903,45.913804418888361,8.790209612511857));
#83=CARTESIAN_POINT('',(-14.849999999999946,9.999999999999991,15.288884557281598));
#84=CARTESIAN_POINT('',(6.312123200895574,44.456902209444181,8.790209612511813));
#85=CARTESIAN_POINT('',(7.802365E-014,7.46599789159344,15.288884557281525));
#93=(BOUNDED_SURFACE()B_SPLINE_SURFACE(1,2,((#68,#70,#72,#74,#76,#78,#80,#82,#84),(#69,#71,#73,#75,#77,#79,#81,#83,#85)),.UNSPECIFIED.,.F.,.T.,.U.)B_SPLINE_SURFACE_WITH_KNOTS((2,2),(3,2,2,2,3),(-2.392862094842196,0.17063987261997),(0.0,23.336220427413682,46.672440854827364,70.00866128224105,93.344881709654729),.UNSPECIFIED.)GEOMETRIC_REPRESENTATION_ITEM()RATIONAL_B_SPLINE_SURFACE(((1.0,0.707106781186548,1.0,0.707106781186548,1.0,0.707106781186548,1.0,0.707106781186548,1.0),(1.0,0.707106781186548,1.0,0.707106781186548,1.0,0.707106781186548,1.0,0.707106781186548,1.0)))REPRESENTATION_ITEM('')SURFACE());
#94=CARTESIAN_POINT('',(14.850000000000003,10.0,-1.818600E-015));
#95=VERTEX_POINT('',#94);
#96=CARTESIAN_POINT('',(0.0,10.0,0.0));
#97=DIRECTION('',(0.0,1.0,0.0));
#98=DIRECTION('',(-1.0,0.0,0.0));
#99=AXIS2_PLACEMENT_3D('',#96,#97,#98);
#100=CIRCLE('',#99,14.850000000000003);
#101=EDGE_CURVE('',#95,#95,#100,.T.);
#102=ORIENTED_EDGE('',*,*,#101,.F.);
#103=EDGE_LOOP('',(#102));
#104=FACE_OUTER_BOUND('',#103,.T.);
#105=CARTESIAN_POINT('',(14.849999999999998,43.000000000000014,-1.108305E-015));
#106=VERTEX_POINT('',#105);
#107=CARTESIAN_POINT('',(5.799999999999996,43.000000000000007,0.0));
#108=DIRECTION('',(0.0,1.0,0.0));
#109=DIRECTION('',(-1.0,0.0,0.0));
#110=AXIS2_PLACEMENT_3D('',#107,#108,#109);
#111=CIRCLE('',#110,9.050000000000004);
#112=EDGE_CURVE('',#106,#106,#111,.T.);
#113=ORIENTED_EDGE('',*,*,#112,.T.);
#114=EDGE_LOOP('',(#113));
#115=FACE_BOUND('',#114,.T.);
#116=ADVANCED_FACE('',(#104,#115),#93,.F.);
#117=CARTESIAN_POINT('',(5.799999999999983,69.999999999999986,0.0));
#118=DIRECTION('',(4.934325E-016,-1.0,0.0));
#119=DIRECTION('',(-1.0,0.0,0.0));
#120=AXIS2_PLACEMENT_3D('',#117,#118,#119);
#121=CYLINDRICAL_SURFACE('',#120,9.050000000000004);
#122=ORIENTED_EDGE('',*,*,#112,.F.);
#123=EDGE_LOOP('',(#122));
#124=FACE_OUTER_BOUND('',#123,.T.);
#125=CARTESIAN_POINT('',(14.849999999999985,70.0,1.108305E-015));
#126=VERTEX_POINT('',#125);
#127=CARTESIAN_POINT('',(5.799999999999983,70.0,0.0));
#128=DIRECTION('',(0.0,-1.0,0.0));
#129=DIRECTION('',(-1.0,0.0,0.0));
#130=AXIS2_PLACEMENT_3D('',#127,#128,#129);
#131=CIRCLE('',#130,9.050000000000004);
#132=EDGE_CURVE('',#126,#126,#131,.T.);
#133=ORIENTED_EDGE('',*,*,#132,.F.);
#134=EDGE_LOOP('',(#133));
#135=FACE_BOUND('',#134,.T.);
#136=ADVANCED_FACE('',(#124,#135),#121,.F.);
#137=CARTESIAN_POINT('',(0.0,4.440892E-015,0.0));
#138=DIRECTION('',(0.0,1.0,0.0));
#139=DIRECTION('',(-1.0,0.0,0.0));
#140=AXIS2_PLACEMENT_3D('',#137,#138,#139);
#141=CYLINDRICAL_SURFACE('',#140,14.850000000000003);
#142=CARTESIAN_POINT('',(14.850000000000003,4.440892E-015,1.818600E-015));
#143=VERTEX_POINT('',#142);
#144=CARTESIAN_POINT('',(0.0,4.440892E-015,0.0));
#145=DIRECTION('',(0.0,1.0,0.0));
#146=DIRECTION('',(-1.0,0.0,0.0));
#147=AXIS2_PLACEMENT_3D('',#144,#145,#146);
#148=CIRCLE('',#147,14.850000000000003);
#149=EDGE_CURVE('',#143,#143,#148,.T.);
#150=ORIENTED_EDGE('',*,*,#149,.F.);
#151=EDGE_LOOP('',(#150));
#152=FACE_OUTER_BOUND('',#151,.T.);
#153=ORIENTED_EDGE('',*,*,#101,.T.);
#154=EDGE_LOOP('',(#153));
#155=FACE_BOUND('',#154,.T.);
#156=ADVANCED_FACE('',(#152,#155),#141,.F.);
#157=CARTESIAN_POINT('',(5.79999999999999,57.5,0.0));
#158=DIRECTION('',(-5.551115E-016,1.0,0.0));
#159=DIRECTION('',(-1.0,0.0,0.0));
#160=AXIS2_PLACEMENT_3D('',#157,#158,#159);
#161=CYLINDRICAL_SURFACE('',#160,10.649999999999798);
#162=CARTESIAN_POINT('',(-4.84999999999982,70.0,0.0));
#163=VERTEX_POINT('',#162);
#164=CARTESIAN_POINT('',(5.799999999999983,70.0,0.0));
#165=DIRECTION('',(0.0,1.0,0.0));
#166=DIRECTION('',(-1.0,0.0,0.0));
#167=AXIS2_PLACEMENT_3D('',#164,#165,#166);
#168=CIRCLE('',#167,10.649999999999803);
#169=EDGE_CURVE('',#163,#163,#168,.T.);
#170=ORIENTED_EDGE('',*,*,#169,.F.);
#171=EDGE_LOOP('',(#170));
#172=FACE_OUTER_BOUND('',#171,.T.);
#173=CARTESIAN_POINT('',(-4.849999999999795,45.0,0.0));
#174=VERTEX_POINT('',#173);
#175=CARTESIAN_POINT('',(5.799999999999997,45.000000000000007,0.0));
#176=DIRECTION('',(0.0,1.0,0.0));
#177=DIRECTION('',(-1.0,0.0,0.0));
#178=AXIS2_PLACEMENT_3D('',#175,#176,#177);
#179=CIRCLE('',#178,10.649999999999791);
#180=EDGE_CURVE('',#174,#174,#179,.T.);
#181=ORIENTED_EDGE('',*,*,#180,.T.);
#182=EDGE_LOOP('',(#181));
#183=FACE_BOUND('',#182,.T.);
#184=ADVANCED_FACE('',(#172,#183),#161,.T.);
#185=CARTESIAN_POINT('',(0.475000000000081,70.0,0.0));
#186=DIRECTION('',(0.0,1.0,0.0));
#187=DIRECTION('',(0.0,0.0,1.0));
#188=AXIS2_PLACEMENT_3D('',#185,#186,#187);
#189=PLANE('',#188);
#190=ORIENTED_EDGE('',*,*,#169,.T.);
#191=EDGE_LOOP('',(#190));
#192=FACE_OUTER_BOUND('',#191,.T.);
#193=ORIENTED_EDGE('',*,*,#132,.T.);
#194=EDGE_LOOP('',(#193));
#195=FACE_BOUND('',#194,.T.);
#196=ADVANCED_FACE('',(#192,#195),#189,.T.);
#197=CARTESIAN_POINT('',(5.800000000000001,37.500000000000007,0.0));
#198=DIRECTION('',(5.551115E-016,-1.0,0.0));
#199=DIRECTION('',(-1.0,0.0,0.0));
#200=AXIS2_PLACEMENT_3D('',#197,#198,#199);
#201=CONICAL_SURFACE('',#200,16.649999999999899,38.659808254090606);
#202=CARTESIAN_POINT('',(-16.850000000000001,30.0,0.0));
#203=VERTEX_POINT('',#202);
#204=CARTESIAN_POINT('',(-16.850000000000016,29.999999999999982,5.551115E-016));
#205=CARTESIAN_POINT('',(-16.850000000000016,29.999999999999982,1.414372766590574));
#206=CARTESIAN_POINT('',(-16.66933955680501,30.057642418867232,2.853686647583866));
#207=CARTESIAN_POINT('',(-15.940104548355841,30.292514411097329,5.650086347527915));
#208=CARTESIAN_POINT('',(-15.39170324515273,30.469726750499731,7.007218793720542));
#209=CARTESIAN_POINT('',(-13.975805988780207,30.934463451652533,9.522735876358638));
#210=CARTESIAN_POINT('',(-13.106368907927708,31.222728639081936,10.684447311978094));
#211=CARTESIAN_POINT('',(-11.135818790454648,31.890170588603326,12.725087830702567));
#212=CARTESIAN_POINT('',(-10.034593744961921,32.269574231785143,13.603834533142967));
#213=CARTESIAN_POINT('',(-7.8135137117714,33.054740199660728,14.981898663034531));
#214=CARTESIAN_POINT('',(-6.646366026412288,33.475769399188749,15.537537148369667));
#215=CARTESIAN_POINT('',(-4.201753948788837,34.384386972424046,16.368705077935271));
#216=CARTESIAN_POINT('',(-2.924386352940393,34.872073091556679,16.644412348853219));
#217=CARTESIAN_POINT('',(-0.35514666027107,35.887376691215479,16.895633316228007));
#218=CARTESIAN_POINT('',(0.938876248178399,36.415974701876458,16.871394906151586));
#219=CARTESIAN_POINT('',(3.449472945800115,37.480955288839255,16.541662292370518));
#220=CARTESIAN_POINT('',(4.665998055460828,38.01742031318458,16.236063749452228));
#221=CARTESIAN_POINT('',(7.530343659889956,39.330068013434321,15.185945589252414));
#222=CARTESIAN_POINT('',(9.286691781772348,40.187607983460779,14.200998031070629));
#223=CARTESIAN_POINT('',(12.349065354816322,41.789600906589698,11.636649174636979));
#224=CARTESIAN_POINT('',(13.655706123008002,42.53253455346686,10.057033824374816));
#225=CARTESIAN_POINT('',(15.287341339091743,43.50474392616222,7.214748751217181));
#226=CARTESIAN_POINT('',(15.878392496471266,43.874428873456594,5.835726136060606));
#227=CARTESIAN_POINT('',(16.66029519684265,44.37385186378507,2.934895460894961));
#228=CARTESIAN_POINT('',(16.850000000000016,44.499999999999744,1.412161543309608));
#229=CARTESIAN_POINT('',(16.850000000000016,44.499999999999744,-1.412161543309606));
#230=CARTESIAN_POINT('',(16.66029519684265,44.373851863785077,-2.934895460894954));
#231=CARTESIAN_POINT('',(15.878392496471266,43.874428873456601,-5.835726136060599));
#232=CARTESIAN_POINT('',(15.287341339091739,43.50474392616222,-7.214748751217175));
#233=CARTESIAN_POINT('',(13.655706123008002,42.53253455346686,-10.057033824374813));
#234=CARTESIAN_POINT('',(12.349065354816327,41.789600906589698,-11.636649174636975));
#235=CARTESIAN_POINT('',(9.286691781772355,40.187607983460779,-14.200998031070624));
#236=CARTESIAN_POINT('',(7.530343659889959,39.330068013434328,-15.185945589252409));
#237=CARTESIAN_POINT('',(4.665998055460832,38.017420313184587,-16.236063749452224));
#238=CARTESIAN_POINT('',(3.449472945800126,37.480955288839255,-16.541662292370518));
#239=CARTESIAN_POINT('',(0.938876248178406,36.415974701876458,-16.871394906151586));
#240=CARTESIAN_POINT('',(-0.355146660271067,35.887376691215479,-16.895633316228007));
#241=CARTESIAN_POINT('',(-2.924386352940393,34.872073091556679,-16.644412348853219));
#242=CARTESIAN_POINT('',(-4.201753948788842,34.384386972424046,-16.368705077935271));
#243=CARTESIAN_POINT('',(-6.646366026412295,33.475769399188749,-15.537537148369667));
#244=CARTESIAN_POINT('',(-7.813513711771406,33.054740199660728,-14.981898663034524));
#245=CARTESIAN_POINT('',(-10.034593744961926,32.269574231785143,-13.60383453314296));
#246=CARTESIAN_POINT('',(-11.135818790454655,31.890170588603315,-12.725087830702563));
#247=CARTESIAN_POINT('',(-13.106368907927715,31.222728639081929,-10.684447311978092));
#248=CARTESIAN_POINT('',(-13.975805988780213,30.93446345165254,-9.522735876358631));
#249=CARTESIAN_POINT('',(-15.391703245152733,30.469726750499735,-7.007218793720542));
#250=CARTESIAN_POINT('',(-15.940104548355842,30.292514411097329,-5.650086347527919));
#251=CARTESIAN_POINT('',(-16.66933955680501,30.057642418867232,-2.853686647583872));
#252=CARTESIAN_POINT('',(-16.850000000000016,29.999999999999982,-1.414372766590577));
#253=CARTESIAN_POINT('',(-16.850000000000016,29.999999999999982,-5.551115E-016));
#254=B_SPLINE_CURVE_WITH_KNOTS('',3,(#204,#205,#206,#207,#208,#209,#210,#211,#212,#213,#214,#215,#216,#217,#218,#219,#220,#221,#222,#223,#224,#225,#226,#227,#228,#229,#230,#231,#232,#233,#234,#235,#236,#237,#238,#239,#240,#241,#242,#243,#244,#245,#246,#247,#248,#249,#250,#251,#252,#253),.UNSPECIFIED.,.T.,.U.,(4,2,2,2,2,2,2,2,2,2,2,2,2,2,2,2,2,2,2,2,2,2,2,2,4),(0.0,0.424311829977172,0.848623659954344,1.272935489931516,1.697247319908688,2.091707043622609,2.486166767336529,2.88062649105045,3.275086214764371,3.876981904006508,4.478877593248644,4.902526056241527,5.326174519234409,5.749822982227292,6.173471445220175,6.775367134462311,7.377262823704447,7.771722547418368,8.166182271132289,8.560641994846211,8.955101718560131,9.379413548537304,9.803725378514475,10.228037208491646,10.652349038468818),.UNSPECIFIED.);
#255=EDGE_CURVE('',#203,#203,#254,.T.);
#256=ORIENTED_EDGE('',*,*,#255,.T.);
#257=EDGE_LOOP('',(#256));
#258=FACE_OUTER_BOUND('',#257,.T.);
#259=ORIENTED_EDGE('',*,*,#180,.F.);
#260=EDGE_LOOP('',(#259));
#261=FACE_BOUND('',#260,.T.);
#262=ADVANCED_FACE('',(#258,#261),#201,.T.);
#263=CARTESIAN_POINT('',(0.0,15.000000000000004,0.0));
#264=DIRECTION('',(0.0,-1.0,0.0));
#265=DIRECTION('',(1.0,0.0,0.0));
#266=AXIS2_PLACEMENT_3D('',#263,#264,#265);
#267=CYLINDRICAL_SURFACE('',#266,16.850000000000016);
#268=CARTESIAN_POINT('',(16.850000000000016,6.661338E-015,0.0));
#269=VERTEX_POINT('',#268);
#270=CARTESIAN_POINT('',(0.0,8.881784E-015,0.0));
#271=DIRECTION('',(0.0,-1.0,0.0));
#272=DIRECTION('',(1.0,0.0,0.0));
#273=AXIS2_PLACEMENT_3D('',#270,#271,#272);
#274=CIRCLE('',#273,16.850000000000016);
#275=EDGE_CURVE('',#269,#269,#274,.T.);
#276=ORIENTED_EDGE('',*,*,#275,.F.);
#277=EDGE_LOOP('',(#276));
#278=FACE_OUTER_BOUND('',#277,.T.);
#279=ORIENTED_EDGE('',*,*,#255,.F.);
#280=EDGE_LOOP('',(#279));
#281=FACE_BOUND('',#280,.T.);
#282=ADVANCED_FACE('',(#278,#281),#267,.T.);
#283=CARTESIAN_POINT('',(8.425000000000008,4.440892E-015,0.0));
#284=DIRECTION('',(0.0,-1.0,0.0));
#285=DIRECTION('',(0.0,0.0,-1.0));
#286=AXIS2_PLACEMENT_3D('',#283,#284,#285);
#287=PLANE('',#286);
#288=ORIENTED_EDGE('',*,*,#275,.T.);
#289=EDGE_LOOP('',(#288));
#290=FACE_OUTER_BOUND('',#289,.T.);
#291=ORIENTED_EDGE('',*,*,#149,.T.);
#292=EDGE_LOOP('',(#291));
#293=FACE_BOUND('',#292,.T.);
#294=ADVANCED_FACE('',(#290,#293),#287,.T.);
#295=CLOSED_SHELL('',(#116,#136,#156,#184,#196,#262,#282,#294));
#296=MANIFOLD_SOLID_BREP('Volumenk\S\vrper2',#295);
#297=COLOUR_RGB('Metall - Stahl',0.639216005802155,0.639216005802155,0.686275005340576);
#298=FILL_AREA_STYLE_COLOUR('Metall - Stahl',#297);
#299=FILL_AREA_STYLE('Metall - Stahl',(#298));
#300=SURFACE_STYLE_FILL_AREA(#299);
#301=SURFACE_SIDE_STYLE('Metall - Stahl',(#300));
#302=SURFACE_STYLE_USAGE(.BOTH.,#301);
#303=PRESENTATION_STYLE_ASSIGNMENT((#302));
#304=STYLED_ITEM('',(#303),#296);
#305=MECHANICAL_DESIGN_GEOMETRIC_PRESENTATION_REPRESENTATION('',(#304),#36);
#306=ADVANCED_BREP_SHAPE_REPRESENTATION('ABSR',(#296),#36);
#307=SHAPE_REPRESENTATION_RELATIONSHIP('SRR','None',#306,#41);
ENDSEC;
END-ISO-10303-21;
