ISO-10303-21;
HEADER;
FILE_DESCRIPTION (( 'STEP AP203' ),
    '1' );
FILE_NAME ('3D_R152_DN80_17305250.STEP',
    '2024-08-13T07:48:37',
    ( '' ),
    ( '' ),
    'SwSTEP 2.0',
    'SolidWorks 2024',
    '' );
FILE_SCHEMA (( 'CONFIG_CONTROL_DESIGN' ));
ENDSEC;

DATA;
#1 = CARTESIAN_POINT ( 'NONE',  ( 0.000000000000000000, 10.00000000000000000, 0.000000000000000000 ) ) ;
#2 = DIRECTION ( 'NONE',  ( 0.000000000000000000, 1.000000000000000000, 0.000000000000000000 ) ) ;
#3 = ADVANCED_FACE ( 'NONE', ( #15 ), #228, .T. ) ;
#4 = CARTESIAN_POINT ( 'NONE',  ( 0.000000000000000000, 10.00000000000000000, 0.000000000000000000 ) ) ;
#5 = CIRCLE ( 'NONE', #201, 68.99999999999998579 ) ;
#6 = LINE ( 'NONE', #7, #114 ) ;
#7 = CARTESIAN_POINT ( 'NONE',  ( 8.450062914116734689E-15, 10.00000000000000000, 68.99999999999998579 ) ) ;
#8 = DIRECTION ( 'NONE',  ( -0.000000000000000000, -1.000000000000000000, -0.000000000000000000 ) ) ;
#9 = VECTOR ( 'NONE', #194, 1000.000000000000000 ) ;
#10 = DATE_AND_TIME ( #108, #246 ) ;
#11 = APPROVAL_DATE_TIME ( #46, #47 ) ;
#12 = APPLICATION_PROTOCOL_DEFINITION ( 'international standard', 'config_control_design', 1994, #13 ) ;
#13 = APPLICATION_CONTEXT ( 'configuration controlled 3d designs of mechanical parts and assemblies' ) ;
#14 = AXIS2_PLACEMENT_3D ( 'NONE', #182, #74, #32 ) ;
#15 = FACE_OUTER_BOUND ( 'NONE', #80, .T. ) ;
#16 = CIRCLE ( 'NONE', #157, 68.99999999999998579 ) ;
#17 = SECURITY_CLASSIFICATION ( '', '', #29 ) ;
#18 = ORIENTED_EDGE ( 'NONE', *, *, #238, .F. ) ;
#19 = ORIENTED_EDGE ( 'NONE', *, *, #171, .F. ) ;
#20 = LINE ( 'NONE', #231, #126 ) ;
#21 = EDGE_LOOP ( 'NONE', ( #18, #36, #153, #38 ) ) ;
#22 = CC_DESIGN_PERSON_AND_ORGANIZATION_ASSIGNMENT ( #150, #223, ( #164 ) ) ;
#23 = CARTESIAN_POINT ( 'NONE',  ( 0.000000000000000000, 10.00000000000000000, -154.0000000000000284 ) ) ;
#24 = DIRECTION ( 'NONE',  ( 0.000000000000000000, 0.000000000000000000, -1.000000000000000000 ) ) ;
#25 = PLANE ( 'NONE',  #244 ) ;
#26 = DIRECTION ( 'NONE',  ( -0.000000000000000000, -1.000000000000000000, -0.000000000000000000 ) ) ;
#27 = DIRECTION ( 'NONE',  ( 0.000000000000000000, 1.000000000000000000, 0.000000000000000000 ) ) ;
#28 = AXIS2_PLACEMENT_3D ( 'NONE', #196, #26, #24 ) ;
#29 = SECURITY_CLASSIFICATION_LEVEL ( 'unclassified' ) ;
#30 = PRODUCT_DEFINITION_FORMATION_WITH_SPECIFIED_SOURCE ( 'ANY', '', #68, .NOT_KNOWN. ) ;
#31 = ADVANCED_FACE ( 'NONE', ( #249, #170 ), #76, .F. ) ;
#32 = DIRECTION ( 'NONE',  ( 1.000000000000000000, 0.000000000000000000, 0.000000000000000000 ) ) ;
#33 = CC_DESIGN_PERSON_AND_ORGANIZATION_ASSIGNMENT ( #162, #240, ( #30 ) ) ;
#34 = MECHANICAL_CONTEXT ( 'NONE', #13, 'mechanical' ) ;
#35 = ORIENTED_EDGE ( 'NONE', *, *, #142, .T. ) ;
#36 = ORIENTED_EDGE ( 'NONE', *, *, #186, .T. ) ;
#37 = CARTESIAN_POINT ( 'NONE',  ( 0.000000000000000000, 0.000000000000000000, 0.000000000000000000 ) ) ;
#38 = ORIENTED_EDGE ( 'NONE', *, *, #233, .F. ) ;
#39 = EDGE_CURVE ( 'NONE', #99, #113, #167, .T. ) ;
#40 = EDGE_LOOP ( 'NONE', ( #138, #209 ) ) ;
#41 = LOCAL_TIME ( 9, 48, 37.00000000000000000, #219 ) ;
#42 = CARTESIAN_POINT ( 'NONE',  ( 0.000000000000000000, 10.00000000000000000, -68.99999999999998579 ) ) ;
#43 = FACE_OUTER_BOUND ( 'NONE', #191, .T. ) ;
#44 = DIRECTION ( 'NONE',  ( 0.000000000000000000, 0.000000000000000000, 1.000000000000000000 ) ) ;
#45 =( NAMED_UNIT ( * ) SI_UNIT ( $, .STERADIAN. ) SOLID_ANGLE_UNIT ( ) );
#46 = DATE_AND_TIME ( #148, #41 ) ;
#47 = APPROVAL ( #129, 'UNSPECIFIED' ) ;
#48 = AXIS2_PLACEMENT_3D ( 'NONE', #235, #197, #104 ) ;
#49 = PERSON_AND_ORGANIZATION ( #198, #234 ) ;
#50 = APPROVAL_PERSON_ORGANIZATION ( #49, #47, #128 ) ;
#51 = SHAPE_DEFINITION_REPRESENTATION ( #217, #178 ) ;
#52 = APPROVAL_DATE_TIME ( #10, #89 ) ;
#53 = AXIS2_PLACEMENT_3D ( 'NONE', #1, #208, #81 ) ;
#54 = PERSON_AND_ORGANIZATION ( #198, #234 ) ;
#55 = EDGE_LOOP ( 'NONE', ( #78, #226 ) ) ;
#56 = CARTESIAN_POINT ( 'NONE',  ( 0.000000000000000000, 10.00000000000000000, 0.000000000000000000 ) ) ;
#57 = VERTEX_POINT ( 'NONE', #155 ) ;
#58 = DIRECTION ( 'NONE',  ( 0.000000000000000000, 0.000000000000000000, 1.000000000000000000 ) ) ;
#59 = DIRECTION ( 'NONE',  ( 0.000000000000000000, 1.000000000000000000, 0.000000000000000000 ) ) ;
#60 = FACE_BOUND ( 'NONE', #116, .T. ) ;
#61 = AXIS2_PLACEMENT_3D ( 'NONE', #119, #158, #172 ) ;
#62 = CLOSED_SHELL ( 'NONE', ( #225, #3, #183, #31, #243, #199 ) ) ;
#63 = LOCAL_TIME ( 9, 48, 37.00000000000000000, #93 ) ;
#64 = FACE_OUTER_BOUND ( 'NONE', #100, .T. ) ;
#65 = CARTESIAN_POINT ( 'NONE',  ( 0.000000000000000000, 10.00000000000000000, 0.000000000000000000 ) ) ;
#66 =( LENGTH_UNIT ( ) NAMED_UNIT ( * ) SI_UNIT ( .MILLI., .METRE. ) );
#67 = DIRECTION ( 'NONE',  ( 0.000000000000000000, 0.000000000000000000, 1.000000000000000000 ) ) ;
#68 = PRODUCT ( '3D_R152_DN80_17305250', '3D_R152_DN80_17305250', '', ( #34 ) ) ;
#69 = EDGE_CURVE ( 'NONE', #210, #169, #185, .T. ) ;
#70 = PERSON_AND_ORGANIZATION ( #198, #234 ) ;
#71 = APPLICATION_CONTEXT ( 'configuration controlled 3d designs of mechanical parts and assemblies' ) ;
#72 = CIRCLE ( 'NONE', #61, 154.0000000000000284 ) ;
#73 = PERSON_AND_ORGANIZATION ( #198, #234 ) ;
#74 = DIRECTION ( 'NONE',  ( 0.000000000000000000, 0.000000000000000000, 1.000000000000000000 ) ) ;
#75 = PERSON_AND_ORGANIZATION_ROLE ( 'design_owner' ) ;
#76 = PLANE ( 'NONE',  #192 ) ;
#77 = APPROVAL_PERSON_ORGANIZATION ( #241, #131, #112 ) ;
#78 = ORIENTED_EDGE ( 'NONE', *, *, #229, .T. ) ;
#79 = CARTESIAN_POINT ( 'NONE',  ( 0.000000000000000000, 10.00000000000000000, -68.99999999999998579 ) ) ;
#80 = EDGE_LOOP ( 'NONE', ( #184, #206, #230, #19 ) ) ;
#81 = DIRECTION ( 'NONE',  ( 0.000000000000000000, 0.000000000000000000, 1.000000000000000000 ) ) ;
#82 = DIRECTION ( 'NONE',  ( -0.000000000000000000, -1.000000000000000000, -0.000000000000000000 ) ) ;
#83 = DIRECTION ( 'NONE',  ( 0.000000000000000000, 1.000000000000000000, 0.000000000000000000 ) ) ;
#84 = CC_DESIGN_APPROVAL ( #47, ( #17 ) ) ;
#85 = FACE_OUTER_BOUND ( 'NONE', #55, .T. ) ;
#86 = CYLINDRICAL_SURFACE ( 'NONE', #156, 154.0000000000000284 ) ;
#87 =( NAMED_UNIT ( * ) PLANE_ANGLE_UNIT ( ) SI_UNIT ( $, .RADIAN. ) );
#88 = AXIS2_PLACEMENT_3D ( 'NONE', #56, #101, #137 ) ;
#89 = APPROVAL ( #111, 'UNSPECIFIED' ) ;
#90 = CALENDAR_DATE ( 2024, 13, 8 ) ;
#91 = DATE_TIME_ROLE ( 'creation_date' ) ;
#92 = DATE_TIME_ROLE ( 'classification_date' ) ;
#93 = COORDINATED_UNIVERSAL_TIME_OFFSET ( 1, 0, .AHEAD. ) ;
#94 = EDGE_CURVE ( 'NONE', #210, #99, #20, .T. ) ;
#95 = VECTOR ( 'NONE', #140, 1000.000000000000000 ) ;
#96 = ORIENTED_EDGE ( 'NONE', *, *, #94, .F. ) ;
#97 = MANIFOLD_SOLID_BREP ( 'Aufsatz-Linear austragen1', #62 ) ;
#98 = VERTEX_POINT ( 'NONE', #79 ) ;
#99 = VERTEX_POINT ( 'NONE', #175 ) ;
#100 = EDGE_LOOP ( 'NONE', ( #96, #211, #248, #227 ) ) ;
#101 = DIRECTION ( 'NONE',  ( -0.000000000000000000, -1.000000000000000000, -0.000000000000000000 ) ) ;
#102 = LINE ( 'NONE', #160, #95 ) ;
#103 = CC_DESIGN_PERSON_AND_ORGANIZATION_ASSIGNMENT ( #73, #165, ( #30 ) ) ;
#104 = DIRECTION ( 'NONE',  ( 0.000000000000000000, 0.000000000000000000, -1.000000000000000000 ) ) ;
#105 = CARTESIAN_POINT ( 'NONE',  ( 0.000000000000000000, 10.00000000000000000, 0.000000000000000000 ) ) ;
#106 = LINE ( 'NONE', #42, #9 ) ;
#107 = CC_DESIGN_DATE_AND_TIME_ASSIGNMENT ( #181, #91, ( #164 ) ) ;
#108 = CALENDAR_DATE ( 2024, 13, 8 ) ;
#109 = LOCAL_TIME ( 9, 48, 37.00000000000000000, #205 ) ;
#110 = APPROVAL_DATE_TIME ( #220, #131 ) ;
#111 = APPROVAL_STATUS ( 'not_yet_approved' ) ;
#112 = APPROVAL_ROLE ( '' ) ;
#113 = VERTEX_POINT ( 'NONE', #173 ) ;
#114 = VECTOR ( 'NONE', #82, 1000.000000000000000 ) ;
#115 = DIRECTION ( 'NONE',  ( -0.000000000000000000, -1.000000000000000000, -0.000000000000000000 ) ) ;
#116 = EDGE_LOOP ( 'NONE', ( #245, #168 ) ) ;
#117 = AXIS2_PLACEMENT_3D ( 'NONE', #65, #83, #44 ) ;
#118 = ORIENTED_EDGE ( 'NONE', *, *, #233, .T. ) ;
#119 = CARTESIAN_POINT ( 'NONE',  ( 0.000000000000000000, 0.000000000000000000, 0.000000000000000000 ) ) ;
#120 = DIRECTION ( 'NONE',  ( 0.000000000000000000, 0.000000000000000000, 1.000000000000000000 ) ) ;
#121 = DIRECTION ( 'NONE',  ( 0.000000000000000000, 0.000000000000000000, -1.000000000000000000 ) ) ;
#122 = PRODUCT_RELATED_PRODUCT_CATEGORY ( 'detail', '', ( #68 ) ) ;
#123 = FACE_OUTER_BOUND ( 'NONE', #21, .T. ) ;
#124 = DIRECTION ( 'NONE',  ( 0.000000000000000000, -0.000000000000000000, 1.000000000000000000 ) ) ;
#125 = CIRCLE ( 'NONE', #135, 68.99999999999998579 ) ;
#126 = VECTOR ( 'NONE', #115, 1000.000000000000000 ) ;
#127 = CC_DESIGN_APPROVAL ( #89, ( #30 ) ) ;
#128 = APPROVAL_ROLE ( '' ) ;
#129 = APPROVAL_STATUS ( 'not_yet_approved' ) ;
#130 = COORDINATED_UNIVERSAL_TIME_OFFSET ( 1, 0, .AHEAD. ) ;
#131 = APPROVAL ( #180, 'UNSPECIFIED' ) ;
#132 = APPLICATION_PROTOCOL_DEFINITION ( 'international standard', 'config_control_design', 1994, #71 ) ;
#133 = ORIENTED_EDGE ( 'NONE', *, *, #139, .T. ) ;
#134 = DIRECTION ( 'NONE',  ( 0.000000000000000000, 1.000000000000000000, 0.000000000000000000 ) ) ;
#135 = AXIS2_PLACEMENT_3D ( 'NONE', #144, #2, #120 ) ;
#136 = VERTEX_POINT ( 'NONE', #216 ) ;
#137 = DIRECTION ( 'NONE',  ( 0.000000000000000000, 0.000000000000000000, -1.000000000000000000 ) ) ;
#138 = ORIENTED_EDGE ( 'NONE', *, *, #218, .F. ) ;
#139 = EDGE_CURVE ( 'NONE', #98, #188, #202, .T. ) ;
#140 = DIRECTION ( 'NONE',  ( -0.000000000000000000, -1.000000000000000000, -0.000000000000000000 ) ) ;
#141 = DIRECTION ( 'NONE',  ( 0.000000000000000000, 0.000000000000000000, 1.000000000000000000 ) ) ;
#142 = EDGE_CURVE ( 'NONE', #136, #57, #16, .T. ) ;
#143 = UNCERTAINTY_MEASURE_WITH_UNIT (LENGTH_MEASURE( 1.000000000000000082E-05 ), #66, 'distance_accuracy_value', 'NONE');
#144 = CARTESIAN_POINT ( 'NONE',  ( 0.000000000000000000, 0.000000000000000000, 0.000000000000000000 ) ) ;
#145 = DATE_AND_TIME ( #204, #203 ) ;
#146 = CALENDAR_DATE ( 2024, 13, 8 ) ;
#147 = EDGE_CURVE ( 'NONE', #98, #136, #106, .T. ) ;
#148 = CALENDAR_DATE ( 2024, 13, 8 ) ;
#149 = CC_DESIGN_DATE_AND_TIME_ASSIGNMENT ( #145, #92, ( #17 ) ) ;
#150 = PERSON_AND_ORGANIZATION ( #198, #234 ) ;
#151 = ORIENTED_EDGE ( 'NONE', *, *, #142, .F. ) ;
#152 = ORIENTED_EDGE ( 'NONE', *, *, #238, .T. ) ;
#153 = ORIENTED_EDGE ( 'NONE', *, *, #147, .T. ) ;
#154 = DIRECTION ( 'NONE',  ( 0.000000000000000000, -0.000000000000000000, 1.000000000000000000 ) ) ;
#155 = CARTESIAN_POINT ( 'NONE',  ( 8.450062914116734689E-15, 0.000000000000000000, 68.99999999999998579 ) ) ;
#156 = AXIS2_PLACEMENT_3D ( 'NONE', #236, #8, #121 ) ;
#157 = AXIS2_PLACEMENT_3D ( 'NONE', #195, #161, #239 ) ;
#158 = DIRECTION ( 'NONE',  ( 0.000000000000000000, 1.000000000000000000, 0.000000000000000000 ) ) ;
#159 = APPROVAL_PERSON_ORGANIZATION ( #54, #89, #242 ) ;
#160 = CARTESIAN_POINT ( 'NONE',  ( 0.000000000000000000, 10.00000000000000000, -154.0000000000000284 ) ) ;
#161 = DIRECTION ( 'NONE',  ( 0.000000000000000000, 1.000000000000000000, 0.000000000000000000 ) ) ;
#162 = PERSON_AND_ORGANIZATION ( #198, #234 ) ;
#163 = PERSON_AND_ORGANIZATION_ROLE ( 'classification_officer' ) ;
#164 = PRODUCT_DEFINITION ( 'UNKNOWN', '', #30, #176 ) ;
#165 = PERSON_AND_ORGANIZATION_ROLE ( 'creator' ) ;
#166 =( GEOMETRIC_REPRESENTATION_CONTEXT ( 3 ) GLOBAL_UNCERTAINTY_ASSIGNED_CONTEXT ( ( #143 ) ) GLOBAL_UNIT_ASSIGNED_CONTEXT ( ( #66, #87, #45 ) ) REPRESENTATION_CONTEXT ( 'NONE', 'WORKASPACE' ) );
#167 = CIRCLE ( 'NONE', #224, 154.0000000000000284 ) ;
#168 = ORIENTED_EDGE ( 'NONE', *, *, #186, .F. ) ;
#169 = VERTEX_POINT ( 'NONE', #23 ) ;
#170 = FACE_BOUND ( 'NONE', #189, .T. ) ;
#171 = EDGE_CURVE ( 'NONE', #169, #113, #102, .T. ) ;
#172 = DIRECTION ( 'NONE',  ( 0.000000000000000000, 0.000000000000000000, 1.000000000000000000 ) ) ;
#173 = CARTESIAN_POINT ( 'NONE',  ( 0.000000000000000000, 0.000000000000000000, -154.0000000000000284 ) ) ;
#174 = CIRCLE ( 'NONE', #221, 154.0000000000000284 ) ;
#175 = CARTESIAN_POINT ( 'NONE',  ( 1.885956070686924437E-14, 0.000000000000000000, 154.0000000000000284 ) ) ;
#176 = DESIGN_CONTEXT ( 'detailed design', #71, 'design' ) ;
#177 = CARTESIAN_POINT ( 'NONE',  ( 0.000000000000000000, 10.00000000000000000, 0.000000000000000000 ) ) ;
#178 = ADVANCED_BREP_SHAPE_REPRESENTATION ( '3D_R152_DN80_17305250', ( #97, #14 ), #166 ) ;
#179 = CYLINDRICAL_SURFACE ( 'NONE', #48, 68.99999999999998579 ) ;
#180 = APPROVAL_STATUS ( 'not_yet_approved' ) ;
#181 = DATE_AND_TIME ( #90, #63 ) ;
#182 = CARTESIAN_POINT ( 'NONE',  ( 0.000000000000000000, 0.000000000000000000, 0.000000000000000000 ) ) ;
#183 = ADVANCED_FACE ( 'NONE', ( #85, #60 ), #25, .T. ) ;
#184 = ORIENTED_EDGE ( 'NONE', *, *, #69, .F. ) ;
#185 = CIRCLE ( 'NONE', #53, 154.0000000000000284 ) ;
#186 = EDGE_CURVE ( 'NONE', #188, #98, #5, .T. ) ;
#187 = CC_DESIGN_APPROVAL ( #131, ( #164 ) ) ;
#188 = VERTEX_POINT ( 'NONE', #214 ) ;
#189 = EDGE_LOOP ( 'NONE', ( #35, #118 ) ) ;
#190 = CC_DESIGN_PERSON_AND_ORGANIZATION_ASSIGNMENT ( #70, #163, ( #17 ) ) ;
#191 = EDGE_LOOP ( 'NONE', ( #133, #152, #151, #193 ) ) ;
#192 = AXIS2_PLACEMENT_3D ( 'NONE', #37, #59, #154 ) ;
#193 = ORIENTED_EDGE ( 'NONE', *, *, #147, .F. ) ;
#194 = DIRECTION ( 'NONE',  ( -0.000000000000000000, -1.000000000000000000, -0.000000000000000000 ) ) ;
#195 = CARTESIAN_POINT ( 'NONE',  ( 0.000000000000000000, 0.000000000000000000, 0.000000000000000000 ) ) ;
#196 = CARTESIAN_POINT ( 'NONE',  ( 0.000000000000000000, 10.00000000000000000, 0.000000000000000000 ) ) ;
#197 = DIRECTION ( 'NONE',  ( -0.000000000000000000, -1.000000000000000000, -0.000000000000000000 ) ) ;
#198 = PERSON ( 'UNSPECIFIED', 'UNSPECIFIED', 'UNSPECIFIED', ('UNSPECIFIED'), ('UNSPECIFIED'), ('UNSPECIFIED') ) ;
#199 = ADVANCED_FACE ( 'NONE', ( #123 ), #232, .F. ) ;
#200 = COORDINATED_UNIVERSAL_TIME_OFFSET ( 1, 0, .AHEAD. ) ;
#201 = AXIS2_PLACEMENT_3D ( 'NONE', #4, #27, #141 ) ;
#202 = CIRCLE ( 'NONE', #117, 68.99999999999998579 ) ;
#203 = LOCAL_TIME ( 9, 48, 37.00000000000000000, #130 ) ;
#204 = CALENDAR_DATE ( 2024, 13, 8 ) ;
#205 = COORDINATED_UNIVERSAL_TIME_OFFSET ( 1, 0, .AHEAD. ) ;
#206 = ORIENTED_EDGE ( 'NONE', *, *, #94, .T. ) ;
#207 = CC_DESIGN_PERSON_AND_ORGANIZATION_ASSIGNMENT ( #222, #75, ( #68 ) ) ;
#208 = DIRECTION ( 'NONE',  ( 0.000000000000000000, 1.000000000000000000, 0.000000000000000000 ) ) ;
#209 = ORIENTED_EDGE ( 'NONE', *, *, #39, .F. ) ;
#210 = VERTEX_POINT ( 'NONE', #237 ) ;
#211 = ORIENTED_EDGE ( 'NONE', *, *, #229, .F. ) ;
#212 = CC_DESIGN_SECURITY_CLASSIFICATION ( #17, ( #30 ) ) ;
#213 = DIRECTION ( 'NONE',  ( 0.000000000000000000, 1.000000000000000000, 0.000000000000000000 ) ) ;
#214 = CARTESIAN_POINT ( 'NONE',  ( 8.450062914116734689E-15, 10.00000000000000000, 68.99999999999998579 ) ) ;
#215 = DIRECTION ( 'NONE',  ( 0.000000000000000000, 1.000000000000000000, 0.000000000000000000 ) ) ;
#216 = CARTESIAN_POINT ( 'NONE',  ( 0.000000000000000000, 0.000000000000000000, -68.99999999999998579 ) ) ;
#217 = PRODUCT_DEFINITION_SHAPE ( 'NONE', 'NONE',  #164 ) ;
#218 = EDGE_CURVE ( 'NONE', #113, #99, #72, .T. ) ;
#219 = COORDINATED_UNIVERSAL_TIME_OFFSET ( 1, 0, .AHEAD. ) ;
#220 = DATE_AND_TIME ( #146, #109 ) ;
#221 = AXIS2_PLACEMENT_3D ( 'NONE', #105, #215, #67 ) ;
#222 = PERSON_AND_ORGANIZATION ( #198, #234 ) ;
#223 = PERSON_AND_ORGANIZATION_ROLE ( 'creator' ) ;
#224 = AXIS2_PLACEMENT_3D ( 'NONE', #247, #134, #58 ) ;
#225 = ADVANCED_FACE ( 'NONE', ( #43 ), #179, .F. ) ;
#226 = ORIENTED_EDGE ( 'NONE', *, *, #69, .T. ) ;
#227 = ORIENTED_EDGE ( 'NONE', *, *, #218, .T. ) ;
#228 = CYLINDRICAL_SURFACE ( 'NONE', #88, 154.0000000000000284 ) ;
#229 = EDGE_CURVE ( 'NONE', #169, #210, #174, .T. ) ;
#230 = ORIENTED_EDGE ( 'NONE', *, *, #39, .T. ) ;
#231 = CARTESIAN_POINT ( 'NONE',  ( 1.885956070686924437E-14, 10.00000000000000000, 154.0000000000000284 ) ) ;
#232 = CYLINDRICAL_SURFACE ( 'NONE', #28, 68.99999999999998579 ) ;
#233 = EDGE_CURVE ( 'NONE', #57, #136, #125, .T. ) ;
#234 = ORGANIZATION ( 'UNSPECIFIED', 'UNSPECIFIED', '' ) ;
#235 = CARTESIAN_POINT ( 'NONE',  ( 0.000000000000000000, 10.00000000000000000, 0.000000000000000000 ) ) ;
#236 = CARTESIAN_POINT ( 'NONE',  ( 0.000000000000000000, 10.00000000000000000, 0.000000000000000000 ) ) ;
#237 = CARTESIAN_POINT ( 'NONE',  ( 1.885956070686924437E-14, 10.00000000000000000, 154.0000000000000284 ) ) ;
#238 = EDGE_CURVE ( 'NONE', #188, #57, #6, .T. ) ;
#239 = DIRECTION ( 'NONE',  ( 0.000000000000000000, 0.000000000000000000, 1.000000000000000000 ) ) ;
#240 = PERSON_AND_ORGANIZATION_ROLE ( 'design_supplier' ) ;
#241 = PERSON_AND_ORGANIZATION ( #198, #234 ) ;
#242 = APPROVAL_ROLE ( '' ) ;
#243 = ADVANCED_FACE ( 'NONE', ( #64 ), #86, .T. ) ;
#244 = AXIS2_PLACEMENT_3D ( 'NONE', #177, #213, #124 ) ;
#245 = ORIENTED_EDGE ( 'NONE', *, *, #139, .F. ) ;
#246 = LOCAL_TIME ( 9, 48, 37.00000000000000000, #200 ) ;
#247 = CARTESIAN_POINT ( 'NONE',  ( 0.000000000000000000, 0.000000000000000000, 0.000000000000000000 ) ) ;
#248 = ORIENTED_EDGE ( 'NONE', *, *, #171, .T. ) ;
#249 = FACE_OUTER_BOUND ( 'NONE', #40, .T. ) ;
ENDSEC;
END-ISO-10303-21;
