ISO-10303-21;
HEADER;
FILE_DESCRIPTION (( 'STEP AP203' ),
    '1' );
FILE_NAME ('3D_R169_ DN54-34_17323210.STEP',
    '2024-07-17T12:32:43',
    ( '' ),
    ( '' ),
    'SwSTEP 2.0',
    'SolidWorks 2024',
    '' );
FILE_SCHEMA (( 'CONFIG_CONTROL_DESIGN' ));
ENDSEC;

DATA;
#1 = DIRECTION ( 'NONE',  ( -0.9863939238321437486, 2.013306935865721687E-17, -0.1643989873053572637 ) ) ;
#2 = ADVANCED_FACE ( 'NONE', ( #215, #41 ), #13, .F. ) ;
#3 = MECHANICAL_CONTEXT ( 'NONE', #191, 'mechanical' ) ;
#4 = DATE_AND_TIME ( #109, #147 ) ;
#5 = PERSON_AND_ORGANIZATION ( #214, #50 ) ;
#6 = PRODUCT_DEFINITION_FORMATION_WITH_SPECIFIED_SOURCE ( 'ANY', '', #70, .NOT_KNOWN. ) ;
#7 = ADVANCED_FACE ( 'NONE', ( #155 ), #86, .F. ) ;
#8 = UNCERTAINTY_MEASURE_WITH_UNIT (LENGTH_MEASURE( 1.000000000000000082E-05 ), #237, 'distance_accuracy_value', 'NONE');
#9 = APPROVAL_STATUS ( 'not_yet_approved' ) ;
#10 = CONICAL_SURFACE ( 'NONE', #106, 17.00000000000000000, 0.1651486774146267988 ) ;
#11 = ORIENTED_EDGE ( 'NONE', *, *, #63, .T. ) ;
#12 = AXIS2_PLACEMENT_3D ( 'NONE', #23, #102, #193 ) ;
#13 = PLANE ( 'NONE',  #126 ) ;
#14 = ORIENTED_EDGE ( 'NONE', *, *, #141, .T. ) ;
#15 = DIRECTION ( 'NONE',  ( -1.000000000000000000, -0.000000000000000000, -0.000000000000000000 ) ) ;
#16 = CARTESIAN_POINT ( 'NONE',  ( 60.00000000000000000, 0.000000000000000000, 0.000000000000000000 ) ) ;
#17 = EDGE_CURVE ( 'NONE', #139, #248, #99, .T. ) ;
#18 = VECTOR ( 'NONE', #1, 1000.000000000000114 ) ;
#19 = ORIENTED_EDGE ( 'NONE', *, *, #216, .F. ) ;
#20 = ADVANCED_BREP_SHAPE_REPRESENTATION ( '3D_R169_ DN54-34_17323210', ( #38, #28 ), #161 ) ;
#21 = EDGE_LOOP ( 'NONE', ( #51, #172 ) ) ;
#22 = DIRECTION ( 'NONE',  ( 0.000000000000000000, 0.000000000000000000, 1.000000000000000000 ) ) ;
#23 = CARTESIAN_POINT ( 'NONE',  ( 0.000000000000000000, 0.000000000000000000, 0.000000000000000000 ) ) ;
#24 = DIRECTION ( 'NONE',  ( 0.000000000000000000, 0.000000000000000000, -1.000000000000000000 ) ) ;
#25 = CIRCLE ( 'NONE', #68, 24.97241248990059503 ) ;
#26 = ORIENTED_EDGE ( 'NONE', *, *, #216, .T. ) ;
#27 = DIRECTION ( 'NONE',  ( 1.000000000000000000, 0.000000000000000000, 0.000000000000000000 ) ) ;
#28 = AXIS2_PLACEMENT_3D ( 'NONE', #55, #220, #71 ) ;
#29 = CARTESIAN_POINT ( 'NONE',  ( 0.000000000000000000, 0.000000000000000000, 24.97241248990059148 ) ) ;
#30 = AXIS2_PLACEMENT_3D ( 'NONE', #97, #116, #227 ) ;
#31 = DATE_AND_TIME ( #146, #67 ) ;
#32 = APPROVAL_STATUS ( 'not_yet_approved' ) ;
#33 = ORIENTED_EDGE ( 'NONE', *, *, #69, .F. ) ;
#34 = PERSON_AND_ORGANIZATION ( #214, #50 ) ;
#35 = EDGE_LOOP ( 'NONE', ( #96, #205 ) ) ;
#36 = DATE_TIME_ROLE ( 'classification_date' ) ;
#37 = ORIENTED_EDGE ( 'NONE', *, *, #238, .F. ) ;
#38 = MANIFOLD_SOLID_BREP ( 'Wandung2', #197 ) ;
#39 = PERSON_AND_ORGANIZATION_ROLE ( 'classification_officer' ) ;
#40 = CIRCLE ( 'NONE', #12, 27.00000000000000000 ) ;
#41 = FACE_OUTER_BOUND ( 'NONE', #35, .T. ) ;
#42 = EDGE_CURVE ( 'NONE', #139, #211, #219, .T. ) ;
#43 = CARTESIAN_POINT ( 'NONE',  ( 59.67120202538927742, 0.000000000000000000, 15.02721215233571250 ) ) ;
#44 = CARTESIAN_POINT ( 'NONE',  ( 0.000000000000000000, 3.058238502274414619E-15, -24.97241248990059148 ) ) ;
#45 = APPROVAL_PERSON_ORGANIZATION ( #34, #78, #138 ) ;
#46 = FACE_OUTER_BOUND ( 'NONE', #59, .T. ) ;
#47 = CC_DESIGN_PERSON_AND_ORGANIZATION_ASSIGNMENT ( #200, #129, ( #70 ) ) ;
#48 = CARTESIAN_POINT ( 'NONE',  ( 60.00000000000000000, 0.000000000000000000, 0.000000000000000000 ) ) ;
#49 = DIRECTION ( 'NONE',  ( 1.000000000000000000, 0.000000000000000000, 0.000000000000000000 ) ) ;
#50 = ORGANIZATION ( 'UNSPECIFIED', 'UNSPECIFIED', '' ) ;
#51 = ORIENTED_EDGE ( 'NONE', *, *, #228, .T. ) ;
#52 = CIRCLE ( 'NONE', #113, 14.97241248990059326 ) ;
#53 = LOCAL_TIME ( 14, 32, 43.00000000000000000, #91 ) ;
#54 = ORIENTED_EDGE ( 'NONE', *, *, #118, .T. ) ;
#55 = CARTESIAN_POINT ( 'NONE',  ( 0.000000000000000000, 0.000000000000000000, 0.000000000000000000 ) ) ;
#56 = VERTEX_POINT ( 'NONE', #156 ) ;
#57 = CARTESIAN_POINT ( 'NONE',  ( 59.67120202538927742, 0.000000000000000000, 0.000000000000000000 ) ) ;
#58 = PRODUCT_DEFINITION ( 'UNKNOWN', '', #6, #94 ) ;
#59 = EDGE_LOOP ( 'NONE', ( #54, #26 ) ) ;
#60 = CALENDAR_DATE ( 2024, 17, 7 ) ;
#61 = FACE_OUTER_BOUND ( 'NONE', #80, .T. ) ;
#62 = AXIS2_PLACEMENT_3D ( 'NONE', #48, #49, #104 ) ;
#63 = EDGE_CURVE ( 'NONE', #211, #139, #52, .T. ) ;
#64 = DIRECTION ( 'NONE',  ( 0.000000000000000000, 0.000000000000000000, 1.000000000000000000 ) ) ;
#65 = DIRECTION ( 'NONE',  ( 0.000000000000000000, 0.000000000000000000, -1.000000000000000000 ) ) ;
#66 = DIRECTION ( 'NONE',  ( 1.000000000000000000, 0.000000000000000000, 0.000000000000000000 ) ) ;
#67 = LOCAL_TIME ( 14, 32, 43.00000000000000000, #75 ) ;
#68 = AXIS2_PLACEMENT_3D ( 'NONE', #217, #27, #24 ) ;
#69 = EDGE_CURVE ( 'NONE', #144, #189, #169, .T. ) ;
#70 = PRODUCT ( '3D_R169_ DN54-34_17323210', '3D_R169_ DN54-34_17323210', '', ( #3 ) ) ;
#71 = DIRECTION ( 'NONE',  ( 1.000000000000000000, 0.000000000000000000, 0.000000000000000000 ) ) ;
#72 = APPROVAL_ROLE ( '' ) ;
#73 = AXIS2_PLACEMENT_3D ( 'NONE', #114, #15, #98 ) ;
#74 =( NAMED_UNIT ( * ) PLANE_ANGLE_UNIT ( ) SI_UNIT ( $, .RADIAN. ) );
#75 = COORDINATED_UNIVERSAL_TIME_OFFSET ( 1, 0, .AHEAD. ) ;
#76 = ORIENTED_EDGE ( 'NONE', *, *, #42, .F. ) ;
#77 = PERSON_AND_ORGANIZATION_ROLE ( 'design_supplier' ) ;
#78 = APPROVAL ( #9, 'UNSPECIFIED' ) ;
#79 = CARTESIAN_POINT ( 'NONE',  ( 59.67120202538927742, 1.840302726246613862E-15, -15.02721215233571250 ) ) ;
#80 = EDGE_LOOP ( 'NONE', ( #19, #241, #222, #33 ) ) ;
#81 = CARTESIAN_POINT ( 'NONE',  ( 59.67120202538927742, 0.000000000000000000, 0.000000000000000000 ) ) ;
#82 = CARTESIAN_POINT ( 'NONE',  ( 0.000000000000000000, 0.000000000000000000, 0.000000000000000000 ) ) ;
#83 = CC_DESIGN_PERSON_AND_ORGANIZATION_ASSIGNMENT ( #210, #143, ( #6 ) ) ;
#84 = PERSON_AND_ORGANIZATION ( #214, #50 ) ;
#85 = DIRECTION ( 'NONE',  ( 0.000000000000000000, 0.000000000000000000, -1.000000000000000000 ) ) ;
#86 = CONICAL_SURFACE ( 'NONE', #208, 15.02721215233571250, 0.1651486774146267988 ) ;
#87 = CARTESIAN_POINT ( 'NONE',  ( 0.000000000000000000, 4.959819536546780600E-15, -27.00000000000000000 ) ) ;
#88 = APPROVAL_PERSON_ORGANIZATION ( #163, #202, #72 ) ;
#89 = DATE_TIME_ROLE ( 'creation_date' ) ;
#90 = APPROVAL_ROLE ( '' ) ;
#91 = COORDINATED_UNIVERSAL_TIME_OFFSET ( 1, 0, .AHEAD. ) ;
#92 = ADVANCED_FACE ( 'NONE', ( #100, #46 ), #242, .T. ) ;
#93 = CC_DESIGN_APPROVAL ( #78, ( #149 ) ) ;
#94 = DESIGN_CONTEXT ( 'detailed design', #218, 'design' ) ;
#95 = CIRCLE ( 'NONE', #62, 17.00000000000000000 ) ;
#96 = ORIENTED_EDGE ( 'NONE', *, *, #194, .F. ) ;
#97 = CARTESIAN_POINT ( 'NONE',  ( 60.00000000000000000, 0.000000000000000000, 0.000000000000000000 ) ) ;
#98 = DIRECTION ( 'NONE',  ( 0.000000000000000000, 0.000000000000000000, 1.000000000000000000 ) ) ;
#99 = LINE ( 'NONE', #43, #231 ) ;
#100 = FACE_BOUND ( 'NONE', #131, .T. ) ;
#101 = CARTESIAN_POINT ( 'NONE',  ( 60.00000000000000000, 0.000000000000000000, 14.97241248990059326 ) ) ;
#102 = DIRECTION ( 'NONE',  ( 1.000000000000000000, 0.000000000000000000, 0.000000000000000000 ) ) ;
#103 = CC_DESIGN_APPROVAL ( #202, ( #6 ) ) ;
#104 = DIRECTION ( 'NONE',  ( 0.000000000000000000, 0.000000000000000000, -1.000000000000000000 ) ) ;
#105 = AXIS2_PLACEMENT_3D ( 'NONE', #16, #66, #246 ) ;
#106 = AXIS2_PLACEMENT_3D ( 'NONE', #122, #120, #124 ) ;
#107 = PERSON_AND_ORGANIZATION_ROLE ( 'creator' ) ;
#108 = CC_DESIGN_DATE_AND_TIME_ASSIGNMENT ( #4, #89, ( #58 ) ) ;
#109 = CALENDAR_DATE ( 2024, 17, 7 ) ;
#110 = EDGE_CURVE ( 'NONE', #181, #189, #167, .T. ) ;
#111 = APPROVAL_DATE_TIME ( #168, #78 ) ;
#112 = PERSON_AND_ORGANIZATION ( #214, #50 ) ;
#113 = AXIS2_PLACEMENT_3D ( 'NONE', #186, #206, #150 ) ;
#114 = CARTESIAN_POINT ( 'NONE',  ( 60.00000000000000000, 0.000000000000000000, 0.000000000000000000 ) ) ;
#115 = VERTEX_POINT ( 'NONE', #44 ) ;
#116 = DIRECTION ( 'NONE',  ( 1.000000000000000000, 0.000000000000000000, 0.000000000000000000 ) ) ;
#117 = CARTESIAN_POINT ( 'NONE',  ( 0.000000000000000000, 0.000000000000000000, 0.000000000000000000 ) ) ;
#118 = EDGE_CURVE ( 'NONE', #144, #56, #249, .T. ) ;
#119 = CARTESIAN_POINT ( 'NONE',  ( 0.000000000000000000, -1.653273178848926867E-15, 27.00000000000000000 ) ) ;
#120 = DIRECTION ( 'NONE',  ( -1.000000000000000000, -0.000000000000000000, -0.000000000000000000 ) ) ;
#121 = EDGE_LOOP ( 'NONE', ( #245, #14, #229, #192 ) ) ;
#122 = CARTESIAN_POINT ( 'NONE',  ( 60.00000000000000000, 0.000000000000000000, 0.000000000000000000 ) ) ;
#123 = CC_DESIGN_PERSON_AND_ORGANIZATION_ASSIGNMENT ( #84, #77, ( #6 ) ) ;
#124 = DIRECTION ( 'NONE',  ( 0.000000000000000000, 0.000000000000000000, 1.000000000000000000 ) ) ;
#125 = PRODUCT_DEFINITION_SHAPE ( 'NONE', 'NONE',  #58 ) ;
#126 = AXIS2_PLACEMENT_3D ( 'NONE', #82, #230, #65 ) ;
#127 = VECTOR ( 'NONE', #225, 1000.000000000000114 ) ;
#128 = CC_DESIGN_PERSON_AND_ORGANIZATION_ASSIGNMENT ( #5, #107, ( #58 ) ) ;
#129 = PERSON_AND_ORGANIZATION_ROLE ( 'design_owner' ) ;
#130 = EDGE_LOOP ( 'NONE', ( #173, #11, #209, #154 ) ) ;
#131 = EDGE_LOOP ( 'NONE', ( #76, #183 ) ) ;
#132 = COORDINATED_UNIVERSAL_TIME_OFFSET ( 1, 0, .AHEAD. ) ;
#133 = LINE ( 'NONE', #79, #236 ) ;
#134 = LOCAL_TIME ( 14, 32, 43.00000000000000000, #244 ) ;
#135 = CARTESIAN_POINT ( 'NONE',  ( 60.00000000000000000, 0.000000000000000000, 0.000000000000000000 ) ) ;
#136 = CC_DESIGN_DATE_AND_TIME_ASSIGNMENT ( #187, #36, ( #149 ) ) ;
#137 = ORIENTED_EDGE ( 'NONE', *, *, #118, .F. ) ;
#138 = APPROVAL_ROLE ( '' ) ;
#139 = VERTEX_POINT ( 'NONE', #101 ) ;
#140 = SHAPE_DEFINITION_REPRESENTATION ( #125, #20 ) ;
#141 = EDGE_CURVE ( 'NONE', #211, #115, #133, .T. ) ;
#142 = DIRECTION ( 'NONE',  ( 1.000000000000000000, 0.000000000000000000, 0.000000000000000000 ) ) ;
#143 = PERSON_AND_ORGANIZATION_ROLE ( 'creator' ) ;
#144 = VERTEX_POINT ( 'NONE', #226 ) ;
#145 = AXIS2_PLACEMENT_3D ( 'NONE', #81, #152, #64 ) ;
#146 = CALENDAR_DATE ( 2024, 17, 7 ) ;
#147 = LOCAL_TIME ( 14, 32, 43.00000000000000000, #178 ) ;
#148 = CALENDAR_DATE ( 2024, 17, 7 ) ;
#149 = SECURITY_CLASSIFICATION ( '', '', #224 ) ;
#150 = DIRECTION ( 'NONE',  ( 0.000000000000000000, 0.000000000000000000, -1.000000000000000000 ) ) ;
#151 = DIRECTION ( 'NONE',  ( -0.9863939238321437486, 2.013306935865721687E-17, -0.1643989873053572637 ) ) ;
#152 = DIRECTION ( 'NONE',  ( -1.000000000000000000, -0.000000000000000000, -0.000000000000000000 ) ) ;
#153 = ADVANCED_FACE ( 'NONE', ( #61 ), #198, .T. ) ;
#154 = ORIENTED_EDGE ( 'NONE', *, *, #203, .F. ) ;
#155 = FACE_OUTER_BOUND ( 'NONE', #121, .T. ) ;
#156 = CARTESIAN_POINT ( 'NONE',  ( 60.00000000000000000, 1.040949779275250140E-15, -17.00000000000000000 ) ) ;
#157 = CIRCLE ( 'NONE', #235, 24.97241248990059503 ) ;
#158 = AXIS2_PLACEMENT_3D ( 'NONE', #135, #190, #85 ) ;
#159 = CARTESIAN_POINT ( 'NONE',  ( 0.000000000000000000, 0.000000000000000000, 0.000000000000000000 ) ) ;
#160 = CARTESIAN_POINT ( 'NONE',  ( 60.00000000000000000, 2.445915102700738090E-15, -14.97241248990059326 ) ) ;
#161 =( GEOMETRIC_REPRESENTATION_CONTEXT ( 3 ) GLOBAL_UNCERTAINTY_ASSIGNED_CONTEXT ( ( #8 ) ) GLOBAL_UNIT_ASSIGNED_CONTEXT ( ( #237, #74, #180 ) ) REPRESENTATION_CONTEXT ( 'NONE', 'WORKASPACE' ) );
#162 = ADVANCED_FACE ( 'NONE', ( #170 ), #175, .F. ) ;
#163 = PERSON_AND_ORGANIZATION ( #214, #50 ) ;
#164 = DATE_AND_TIME ( #148, #53 ) ;
#165 = APPROVAL_DATE_TIME ( #164, #202 ) ;
#166 = CALENDAR_DATE ( 2024, 17, 7 ) ;
#167 = CIRCLE ( 'NONE', #185, 27.00000000000000000 ) ;
#168 = DATE_AND_TIME ( #166, #182 ) ;
#169 = LINE ( 'NONE', #188, #127 ) ;
#170 = FACE_OUTER_BOUND ( 'NONE', #130, .T. ) ;
#171 = EDGE_LOOP ( 'NONE', ( #37, #137, #184, #239 ) ) ;
#172 = ORIENTED_EDGE ( 'NONE', *, *, #203, .T. ) ;
#173 = ORIENTED_EDGE ( 'NONE', *, *, #141, .F. ) ;
#174 = CC_DESIGN_SECURITY_CLASSIFICATION ( #149, ( #6 ) ) ;
#175 = CONICAL_SURFACE ( 'NONE', #145, 15.02721215233571250, 0.1651486774146267988 ) ;
#176 = FACE_OUTER_BOUND ( 'NONE', #171, .T. ) ;
#177 = LINE ( 'NONE', #196, #18 ) ;
#178 = COORDINATED_UNIVERSAL_TIME_OFFSET ( 1, 0, .AHEAD. ) ;
#179 = PRODUCT_RELATED_PRODUCT_CATEGORY ( 'detail', '', ( #70 ) ) ;
#180 =( NAMED_UNIT ( * ) SI_UNIT ( $, .STERADIAN. ) SOLID_ANGLE_UNIT ( ) );
#181 = VERTEX_POINT ( 'NONE', #87 ) ;
#182 = LOCAL_TIME ( 14, 32, 43.00000000000000000, #132 ) ;
#183 = ORIENTED_EDGE ( 'NONE', *, *, #63, .F. ) ;
#184 = ORIENTED_EDGE ( 'NONE', *, *, #69, .T. ) ;
#185 = AXIS2_PLACEMENT_3D ( 'NONE', #117, #142, #212 ) ;
#186 = CARTESIAN_POINT ( 'NONE',  ( 60.00000000000000000, 0.000000000000000000, 0.000000000000000000 ) ) ;
#187 = DATE_AND_TIME ( #60, #134 ) ;
#188 = CARTESIAN_POINT ( 'NONE',  ( 60.00000000000000000, 0.000000000000000000, 17.00000000000000000 ) ) ;
#189 = VERTEX_POINT ( 'NONE', #119 ) ;
#190 = DIRECTION ( 'NONE',  ( 1.000000000000000000, 0.000000000000000000, 0.000000000000000000 ) ) ;
#191 = APPLICATION_CONTEXT ( 'configuration controlled 3d designs of mechanical parts and assemblies' ) ;
#192 = ORIENTED_EDGE ( 'NONE', *, *, #17, .F. ) ;
#193 = DIRECTION ( 'NONE',  ( 0.000000000000000000, 0.000000000000000000, -1.000000000000000000 ) ) ;
#194 = EDGE_CURVE ( 'NONE', #189, #181, #40, .T. ) ;
#195 = DIRECTION ( 'NONE',  ( 0.000000000000000000, 0.000000000000000000, -1.000000000000000000 ) ) ;
#196 = CARTESIAN_POINT ( 'NONE',  ( 60.00000000000000000, 2.081899558550500280E-15, -17.00000000000000000 ) ) ;
#197 = CLOSED_SHELL ( 'NONE', ( #7, #153, #92, #2, #221, #162 ) ) ;
#198 = CONICAL_SURFACE ( 'NONE', #73, 17.00000000000000000, 0.1651486774146267988 ) ;
#199 = APPLICATION_PROTOCOL_DEFINITION ( 'international standard', 'config_control_design', 1994, #218 ) ;
#200 = PERSON_AND_ORGANIZATION ( #214, #50 ) ;
#201 = APPLICATION_PROTOCOL_DEFINITION ( 'international standard', 'config_control_design', 1994, #191 ) ;
#202 = APPROVAL ( #234, 'UNSPECIFIED' ) ;
#203 = EDGE_CURVE ( 'NONE', #115, #248, #25, .T. ) ;
#204 = APPROVAL_DATE_TIME ( #31, #243 ) ;
#205 = ORIENTED_EDGE ( 'NONE', *, *, #110, .F. ) ;
#206 = DIRECTION ( 'NONE',  ( 1.000000000000000000, 0.000000000000000000, 0.000000000000000000 ) ) ;
#207 = DIRECTION ( 'NONE',  ( -0.9863939238321437486, 0.000000000000000000, 0.1643989873053572637 ) ) ;
#208 = AXIS2_PLACEMENT_3D ( 'NONE', #57, #240, #22 ) ;
#209 = ORIENTED_EDGE ( 'NONE', *, *, #17, .T. ) ;
#210 = PERSON_AND_ORGANIZATION ( #214, #50 ) ;
#211 = VERTEX_POINT ( 'NONE', #160 ) ;
#212 = DIRECTION ( 'NONE',  ( 0.000000000000000000, 0.000000000000000000, -1.000000000000000000 ) ) ;
#213 = CC_DESIGN_PERSON_AND_ORGANIZATION_ASSIGNMENT ( #112, #39, ( #149 ) ) ;
#214 = PERSON ( 'UNSPECIFIED', 'UNSPECIFIED', 'UNSPECIFIED', ('UNSPECIFIED'), ('UNSPECIFIED'), ('UNSPECIFIED') ) ;
#215 = FACE_BOUND ( 'NONE', #21, .T. ) ;
#216 = EDGE_CURVE ( 'NONE', #56, #144, #95, .T. ) ;
#217 = CARTESIAN_POINT ( 'NONE',  ( 0.000000000000000000, 0.000000000000000000, 0.000000000000000000 ) ) ;
#218 = APPLICATION_CONTEXT ( 'configuration controlled 3d designs of mechanical parts and assemblies' ) ;
#219 = CIRCLE ( 'NONE', #30, 14.97241248990059326 ) ;
#220 = DIRECTION ( 'NONE',  ( 0.000000000000000000, 0.000000000000000000, 1.000000000000000000 ) ) ;
#221 = ADVANCED_FACE ( 'NONE', ( #176 ), #10, .T. ) ;
#222 = ORIENTED_EDGE ( 'NONE', *, *, #110, .T. ) ;
#223 = APPROVAL_PERSON_ORGANIZATION ( #233, #243, #90 ) ;
#224 = SECURITY_CLASSIFICATION_LEVEL ( 'unclassified' ) ;
#225 = DIRECTION ( 'NONE',  ( -0.9863939238321437486, 0.000000000000000000, 0.1643989873053572637 ) ) ;
#226 = CARTESIAN_POINT ( 'NONE',  ( 60.00000000000000000, 1.040949779275250140E-15, 17.00000000000000000 ) ) ;
#227 = DIRECTION ( 'NONE',  ( 0.000000000000000000, 0.000000000000000000, -1.000000000000000000 ) ) ;
#228 = EDGE_CURVE ( 'NONE', #248, #115, #157, .T. ) ;
#229 = ORIENTED_EDGE ( 'NONE', *, *, #228, .F. ) ;
#230 = DIRECTION ( 'NONE',  ( 1.000000000000000000, 0.000000000000000000, 0.000000000000000000 ) ) ;
#231 = VECTOR ( 'NONE', #207, 1000.000000000000114 ) ;
#232 = DIRECTION ( 'NONE',  ( 1.000000000000000000, 0.000000000000000000, 0.000000000000000000 ) ) ;
#233 = PERSON_AND_ORGANIZATION ( #214, #50 ) ;
#234 = APPROVAL_STATUS ( 'not_yet_approved' ) ;
#235 = AXIS2_PLACEMENT_3D ( 'NONE', #159, #232, #195 ) ;
#236 = VECTOR ( 'NONE', #151, 1000.000000000000114 ) ;
#237 =( LENGTH_UNIT ( ) NAMED_UNIT ( * ) SI_UNIT ( .MILLI., .METRE. ) );
#238 = EDGE_CURVE ( 'NONE', #56, #181, #177, .T. ) ;
#239 = ORIENTED_EDGE ( 'NONE', *, *, #194, .T. ) ;
#240 = DIRECTION ( 'NONE',  ( -1.000000000000000000, -0.000000000000000000, -0.000000000000000000 ) ) ;
#241 = ORIENTED_EDGE ( 'NONE', *, *, #238, .T. ) ;
#242 = PLANE ( 'NONE',  #105 ) ;
#243 = APPROVAL ( #32, 'UNSPECIFIED' ) ;
#244 = COORDINATED_UNIVERSAL_TIME_OFFSET ( 1, 0, .AHEAD. ) ;
#245 = ORIENTED_EDGE ( 'NONE', *, *, #42, .T. ) ;
#246 = DIRECTION ( 'NONE',  ( 0.000000000000000000, 0.000000000000000000, -1.000000000000000000 ) ) ;
#247 = CC_DESIGN_APPROVAL ( #243, ( #58 ) ) ;
#248 = VERTEX_POINT ( 'NONE', #29 ) ;
#249 = CIRCLE ( 'NONE', #158, 17.00000000000000000 ) ;
ENDSEC;
END-ISO-10303-21;
