ISO-10303-21;
HEADER;
FILE_DESCRIPTION (( 'STEP AP203' ),
    '1' );
FILE_NAME ('3D_GR1442_50 x 4_188741180.STEP',
    '2024-10-22T15:37:02',
    ( '' ),
    ( '' ),
    'SwSTEP 2.0',
    'SolidWorks 2023',
    '' );
FILE_SCHEMA (( 'CONFIG_CONTROL_DESIGN' ));
ENDSEC;

DATA;
#1 = CARTESIAN_POINT ( 'NONE',  ( 3.061616997868383043E-15, 0.2500000000000002220, 25.00000000000000000 ) ) ;
#2 = VERTEX_POINT ( 'NONE', #258 ) ;
#3 = ORIENTED_EDGE ( 'NONE', *, *, #232, .F. ) ;
#4 = DIRECTION ( 'NONE',  ( -0.000000000000000000, -1.000000000000000000, -0.000000000000000000 ) ) ;
#5 = DIRECTION ( 'NONE',  ( 0.000000000000000000, 1.000000000000000000, 0.000000000000000000 ) ) ;
#6 = CARTESIAN_POINT ( 'NONE',  ( 0.000000000000000000, 4.000000000000000000, 0.000000000000000000 ) ) ;
#7 = CARTESIAN_POINT ( 'NONE',  ( 0.000000000000000000, 0.2500000000000002220, -25.00000000000000000 ) ) ;
#8 = AXIS2_PLACEMENT_3D ( 'NONE', #175, #59, #85 ) ;
#9 = DESIGN_CONTEXT ( 'detailed design', #25, 'design' ) ;
#10 = DATE_AND_TIME ( #167, #116 ) ;
#11 = APPLICATION_CONTEXT ( 'configuration controlled 3d designs of mechanical parts and assemblies' ) ;
#12 = APPROVAL_STATUS ( 'not_yet_approved' ) ;
#13 = DATE_TIME_ROLE ( 'creation_date' ) ;
#14 = AXIS2_PLACEMENT_3D ( 'NONE', #133, #223, #243 ) ;
#15 = CALENDAR_DATE ( 2024, 22, 10 ) ;
#16 = ORIENTED_EDGE ( 'NONE', *, *, #177, .F. ) ;
#17 = DIRECTION ( 'NONE',  ( 0.000000000000000000, 1.000000000000000000, 0.000000000000000000 ) ) ;
#18 = EDGE_CURVE ( 'NONE', #171, #230, #164, .T. ) ;
#19 = ORIENTED_EDGE ( 'NONE', *, *, #125, .F. ) ;
#20 = CARTESIAN_POINT ( 'NONE',  ( 0.000000000000000000, 3.750000000000000000, 0.000000000000000000 ) ) ;
#21 = PLANE ( 'NONE',  #80 ) ;
#22 = AXIS2_PLACEMENT_3D ( 'NONE', #244, #5, #27 ) ;
#23 = DIRECTION ( 'NONE',  ( -0.000000000000000000, -1.000000000000000000, -0.000000000000000000 ) ) ;
#24 = CC_DESIGN_PERSON_AND_ORGANIZATION_ASSIGNMENT ( #143, #185, ( #53 ) ) ;
#25 = APPLICATION_CONTEXT ( 'configuration controlled 3d designs of mechanical parts and assemblies' ) ;
#26 = CARTESIAN_POINT ( 'NONE',  ( 3.046308912879041149E-15, 0.000000000000000000, -24.75000000000000000 ) ) ;
#27 = DIRECTION ( 'NONE',  ( 0.000000000000000000, 0.000000000000000000, 1.000000000000000000 ) ) ;
#28 = AXIS2_PLACEMENT_3D ( 'NONE', #213, #254, #214 ) ;
#29 = AXIS2_PLACEMENT_3D ( 'NONE', #178, #134, #224 ) ;
#30 = CARTESIAN_POINT ( 'NONE',  ( 0.000000000000000000, 3.750000000000000000, 0.000000000000000000 ) ) ;
#31 = DIRECTION ( 'NONE',  ( 0.000000000000000000, 0.000000000000000000, 1.000000000000000000 ) ) ;
#32 = VECTOR ( 'NONE', #47, 1000.000000000000000 ) ;
#33 = APPLICATION_PROTOCOL_DEFINITION ( 'international standard', 'config_control_design', 1994, #25 ) ;
#34 = EDGE_LOOP ( 'NONE', ( #176, #142, #218, #191 ) ) ;
#35 = AXIS2_PLACEMENT_3D ( 'NONE', #20, #77, #126 ) ;
#36 = PERSON_AND_ORGANIZATION_ROLE ( 'classification_officer' ) ;
#37 = PRODUCT_DEFINITION_FORMATION_WITH_SPECIFIED_SOURCE ( 'ANY', '', #217, .NOT_KNOWN. ) ;
#38 = EDGE_CURVE ( 'NONE', #2, #230, #128, .T. ) ;
#39 = EDGE_LOOP ( 'NONE', ( #199, #127, #99, #19 ) ) ;
#40 = DIRECTION ( 'NONE',  ( 0.000000000000000000, -0.000000000000000000, 1.000000000000000000 ) ) ;
#41 = CC_DESIGN_PERSON_AND_ORGANIZATION_ASSIGNMENT ( #117, #187, ( #37 ) ) ;
#42 = DIRECTION ( 'NONE',  ( 1.000000000000000000, -0.000000000000000000, 1.224646799147353207E-16 ) ) ;
#43 = TOROIDAL_SURFACE ( 'NONE', #107, 24.75000000000000000, 0.2500000000000000000 ) ;
#44 = DIRECTION ( 'NONE',  ( 1.224646799147349509E-16, 0.000000000000000000, -1.000000000000000000 ) ) ;
#45 = DIRECTION ( 'NONE',  ( 0.000000000000000000, -0.000000000000000000, 1.000000000000000000 ) ) ;
#46 = AXIS2_PLACEMENT_3D ( 'NONE', #179, #131, #180 ) ;
#47 = DIRECTION ( 'NONE',  ( -0.000000000000000000, -1.000000000000000000, -0.000000000000000000 ) ) ;
#48 = DIRECTION ( 'NONE',  ( 0.000000000000000000, 1.000000000000000000, 0.000000000000000000 ) ) ;
#49 = CARTESIAN_POINT ( 'NONE',  ( 0.000000000000000000, 4.000000000000000000, 0.000000000000000000 ) ) ;
#50 = CC_DESIGN_APPROVAL ( #115, ( #53 ) ) ;
#51 = COORDINATED_UNIVERSAL_TIME_OFFSET ( 1, 0, .AHEAD. ) ;
#52 = DATE_AND_TIME ( #226, #74 ) ;
#53 = PRODUCT_DEFINITION ( 'UNKNOWN', '', #37, #9 ) ;
#54 = ORIENTED_EDGE ( 'NONE', *, *, #276, .T. ) ;
#55 = APPLICATION_PROTOCOL_DEFINITION ( 'international standard', 'config_control_design', 1994, #11 ) ;
#56 = ORIENTED_EDGE ( 'NONE', *, *, #173, .T. ) ;
#57 = DIRECTION ( 'NONE',  ( 0.000000000000000000, 0.000000000000000000, -1.000000000000000000 ) ) ;
#58 = VERTEX_POINT ( 'NONE', #216 ) ;
#59 = DIRECTION ( 'NONE',  ( 0.000000000000000000, 1.000000000000000000, 0.000000000000000000 ) ) ;
#60 = PRODUCT_RELATED_PRODUCT_CATEGORY ( 'detail', '', ( #217 ) ) ;
#61 = DIRECTION ( 'NONE',  ( 0.000000000000000000, 1.000000000000000000, 0.000000000000000000 ) ) ;
#62 = DIRECTION ( 'NONE',  ( 0.000000000000000000, 0.000000000000000000, 1.000000000000000000 ) ) ;
#63 = SECURITY_CLASSIFICATION ( '', '', #209 ) ;
#64 = UNCERTAINTY_MEASURE_WITH_UNIT (LENGTH_MEASURE( 1.000000000000000082E-05 ), #89, 'distance_accuracy_value', 'NONE');
#65 = CARTESIAN_POINT ( 'NONE',  ( 0.000000000000000000, 0.2500000000000002220, 0.000000000000000000 ) ) ;
#66 = ADVANCED_FACE ( 'NONE', ( #84 ), #21, .T. ) ;
#67 = DIRECTION ( 'NONE',  ( 0.000000000000000000, 0.000000000000000000, 1.000000000000000000 ) ) ;
#68 = APPROVAL_PERSON_ORGANIZATION ( #97, #219, #90 ) ;
#69 = PERSON_AND_ORGANIZATION ( #136, #149 ) ;
#70 = APPROVAL_STATUS ( 'not_yet_approved' ) ;
#71 = ADVANCED_FACE ( 'NONE', ( #196 ), #129, .F. ) ;
#72 = SHAPE_DEFINITION_REPRESENTATION ( #152, #132 ) ;
#73 = VECTOR ( 'NONE', #257, 1000.000000000000000 ) ;
#74 = LOCAL_TIME ( 17, 37, 2.000000000000000000, #98 ) ;
#75 = EDGE_CURVE ( 'NONE', #93, #171, #121, .T. ) ;
#76 = CIRCLE ( 'NONE', #225, 0.2500000000000002220 ) ;
#77 = DIRECTION ( 'NONE',  ( -0.000000000000000000, -1.000000000000000000, -0.000000000000000000 ) ) ;
#78 = FACE_OUTER_BOUND ( 'NONE', #147, .T. ) ;
#79 = ORIENTED_EDGE ( 'NONE', *, *, #38, .T. ) ;
#80 = AXIS2_PLACEMENT_3D ( 'NONE', #236, #61, #40 ) ;
#81 = CARTESIAN_POINT ( 'NONE',  ( 0.000000000000000000, 0.000000000000000000, 0.000000000000000000 ) ) ;
#82 = AXIS2_PLACEMENT_3D ( 'NONE', #104, #197, #57 ) ;
#83 = EDGE_CURVE ( 'NONE', #174, #2, #159, .T. ) ;
#84 = FACE_OUTER_BOUND ( 'NONE', #195, .T. ) ;
#85 = DIRECTION ( 'NONE',  ( 0.000000000000000000, 0.000000000000000000, 1.000000000000000000 ) ) ;
#86 = DIRECTION ( 'NONE',  ( -0.000000000000000000, -1.000000000000000000, -0.000000000000000000 ) ) ;
#87 = DIRECTION ( 'NONE',  ( -1.000000000000000000, 0.000000000000000000, 0.000000000000000000 ) ) ;
#88 = DIRECTION ( 'NONE',  ( 0.000000000000000000, 0.000000000000000000, 1.000000000000000000 ) ) ;
#89 =( LENGTH_UNIT ( ) NAMED_UNIT ( * ) SI_UNIT ( .MILLI., .METRE. ) );
#90 = APPROVAL_ROLE ( '' ) ;
#91 = APPROVAL_DATE_TIME ( #52, #168 ) ;
#92 = ORIENTED_EDGE ( 'NONE', *, *, #18, .F. ) ;
#93 = VERTEX_POINT ( 'NONE', #102 ) ;
#94 = ADVANCED_FACE ( 'NONE', ( #78 ), #172, .T. ) ;
#95 = CIRCLE ( 'NONE', #272, 25.00000000000000000 ) ;
#96 = AXIS2_PLACEMENT_3D ( 'NONE', #111, #259, #157 ) ;
#97 = PERSON_AND_ORGANIZATION ( #136, #149 ) ;
#98 = COORDINATED_UNIVERSAL_TIME_OFFSET ( 1, 0, .AHEAD. ) ;
#99 = ORIENTED_EDGE ( 'NONE', *, *, #276, .F. ) ;
#100 = ADVANCED_FACE ( 'NONE', ( #237 ), #234, .T. ) ;
#101 = CC_DESIGN_APPROVAL ( #168, ( #63 ) ) ;
#102 = CARTESIAN_POINT ( 'NONE',  ( 0.000000000000000000, 0.000000000000000000, 24.75000000000000000 ) ) ;
#103 = ORIENTED_EDGE ( 'NONE', *, *, #250, .T. ) ;
#104 = CARTESIAN_POINT ( 'NONE',  ( 0.000000000000000000, 4.000000000000000000, 0.000000000000000000 ) ) ;
#105 = AXIS2_PLACEMENT_3D ( 'NONE', #81, #17, #45 ) ;
#106 = VERTEX_POINT ( 'NONE', #1 ) ;
#107 = AXIS2_PLACEMENT_3D ( 'NONE', #113, #242, #88 ) ;
#108 = FACE_OUTER_BOUND ( 'NONE', #34, .T. ) ;
#109 = EDGE_CURVE ( 'NONE', #230, #106, #135, .T. ) ;
#110 = DIRECTION ( 'NONE',  ( 0.000000000000000000, 1.000000000000000000, 0.000000000000000000 ) ) ;
#111 = CARTESIAN_POINT ( 'NONE',  ( 0.000000000000000000, 4.000000000000000000, 0.000000000000000000 ) ) ;
#112 = CIRCLE ( 'NONE', #145, 24.75000000000000000 ) ;
#113 = CARTESIAN_POINT ( 'NONE',  ( 0.000000000000000000, 0.2500000000000002220, 0.000000000000000000 ) ) ;
#114 = DIRECTION ( 'NONE',  ( 0.000000000000000000, 0.000000000000000000, 1.000000000000000000 ) ) ;
#115 = APPROVAL ( #186, 'UNSPECIFIED' ) ;
#116 = LOCAL_TIME ( 17, 37, 2.000000000000000000, #207 ) ;
#117 = PERSON_AND_ORGANIZATION ( #136, #149 ) ;
#118 = DATE_TIME_ROLE ( 'classification_date' ) ;
#119 = ADVANCED_FACE ( 'NONE', ( #108 ), #229, .T. ) ;
#120 = DIRECTION ( 'NONE',  ( 0.000000000000000000, 0.000000000000000000, 1.000000000000000000 ) ) ;
#121 = CIRCLE ( 'NONE', #28, 24.75000000000000000 ) ;
#122 = AXIS2_PLACEMENT_3D ( 'NONE', #49, #4, #202 ) ;
#123 = CALENDAR_DATE ( 2024, 22, 10 ) ;
#124 = ORIENTED_EDGE ( 'NONE', *, *, #83, .F. ) ;
#125 = EDGE_CURVE ( 'NONE', #93, #106, #76, .T. ) ;
#126 = DIRECTION ( 'NONE',  ( 0.000000000000000000, 0.000000000000000000, 1.000000000000000000 ) ) ;
#127 = ORIENTED_EDGE ( 'NONE', *, *, #18, .T. ) ;
#128 = LINE ( 'NONE', #240, #73 ) ;
#129 = PLANE ( 'NONE',  #105 ) ;
#130 =( NAMED_UNIT ( * ) SI_UNIT ( $, .STERADIAN. ) SOLID_ANGLE_UNIT ( ) );
#131 = DIRECTION ( 'NONE',  ( 0.000000000000000000, 1.000000000000000000, 0.000000000000000000 ) ) ;
#132 = ADVANCED_BREP_SHAPE_REPRESENTATION ( '3D_GR1442_50 x 4_188741180', ( #261, #198 ), #165 ) ;
#133 = CARTESIAN_POINT ( 'NONE',  ( 0.000000000000000000, 3.750000000000000000, 24.75000000000000000 ) ) ;
#134 = DIRECTION ( 'NONE',  ( 1.000000000000000000, -0.000000000000000000, 1.224646799147353207E-16 ) ) ;
#135 = CIRCLE ( 'NONE', #46, 25.00000000000000000 ) ;
#136 = PERSON ( 'UNSPECIFIED', 'UNSPECIFIED', 'UNSPECIFIED', ('UNSPECIFIED'), ('UNSPECIFIED'), ('UNSPECIFIED') ) ;
#137 = CARTESIAN_POINT ( 'NONE',  ( 0.000000000000000000, 0.2500000000000002220, 24.75000000000000000 ) ) ;
#138 = PERSON_AND_ORGANIZATION ( #136, #149 ) ;
#139 = PERSON_AND_ORGANIZATION_ROLE ( 'design_owner' ) ;
#140 = CC_DESIGN_SECURITY_CLASSIFICATION ( #63, ( #37 ) ) ;
#141 = DATE_AND_TIME ( #210, #278 ) ;
#142 = ORIENTED_EDGE ( 'NONE', *, *, #232, .T. ) ;
#143 = PERSON_AND_ORGANIZATION ( #136, #149 ) ;
#144 = CARTESIAN_POINT ( 'NONE',  ( 0.000000000000000000, 0.000000000000000000, 0.000000000000000000 ) ) ;
#145 = AXIS2_PLACEMENT_3D ( 'NONE', #6, #221, #245 ) ;
#146 = ORIENTED_EDGE ( 'NONE', *, *, #264, .T. ) ;
#147 = EDGE_LOOP ( 'NONE', ( #103, #146, #54, #151 ) ) ;
#148 = CC_DESIGN_DATE_AND_TIME_ASSIGNMENT ( #268, #118, ( #63 ) ) ;
#149 = ORGANIZATION ( 'UNSPECIFIED', 'UNSPECIFIED', '' ) ;
#150 = ORIENTED_EDGE ( 'NONE', *, *, #264, .F. ) ;
#151 = ORIENTED_EDGE ( 'NONE', *, *, #38, .F. ) ;
#152 = PRODUCT_DEFINITION_SHAPE ( 'NONE', 'NONE',  #53 ) ;
#153 =( NAMED_UNIT ( * ) PLANE_ANGLE_UNIT ( ) SI_UNIT ( $, .RADIAN. ) );
#154 = CYLINDRICAL_SURFACE ( 'NONE', #122, 25.00000000000000000 ) ;
#155 = TOROIDAL_SURFACE ( 'NONE', #170, 24.75000000000000000, 0.2500000000000000000 ) ;
#156 = CC_DESIGN_PERSON_AND_ORGANIZATION_ASSIGNMENT ( #138, #139, ( #217 ) ) ;
#157 = DIRECTION ( 'NONE',  ( 0.000000000000000000, 0.000000000000000000, 1.000000000000000000 ) ) ;
#158 = DIRECTION ( 'NONE',  ( 0.000000000000000000, 0.000000000000000000, 1.000000000000000000 ) ) ;
#159 = CIRCLE ( 'NONE', #35, 25.00000000000000000 ) ;
#160 = CIRCLE ( 'NONE', #96, 24.75000000000000000 ) ;
#161 = PERSON_AND_ORGANIZATION_ROLE ( 'design_supplier' ) ;
#162 = APPROVAL_ROLE ( '' ) ;
#163 = ORIENTED_EDGE ( 'NONE', *, *, #177, .T. ) ;
#164 = CIRCLE ( 'NONE', #169, 0.2500000000000002220 ) ;
#165 =( GEOMETRIC_REPRESENTATION_CONTEXT ( 3 ) GLOBAL_UNCERTAINTY_ASSIGNED_CONTEXT ( ( #64 ) ) GLOBAL_UNIT_ASSIGNED_CONTEXT ( ( #89, #153, #130 ) ) REPRESENTATION_CONTEXT ( 'NONE', 'WORKASPACE' ) );
#166 = ORIENTED_EDGE ( 'NONE', *, *, #109, .F. ) ;
#167 = CALENDAR_DATE ( 2024, 22, 10 ) ;
#168 = APPROVAL ( #70, 'UNSPECIFIED' ) ;
#169 = AXIS2_PLACEMENT_3D ( 'NONE', #253, #42, #44 ) ;
#170 = AXIS2_PLACEMENT_3D ( 'NONE', #220, #110, #31 ) ;
#171 = VERTEX_POINT ( 'NONE', #26 ) ;
#172 = CYLINDRICAL_SURFACE ( 'NONE', #82, 25.00000000000000000 ) ;
#173 = EDGE_CURVE ( 'NONE', #174, #58, #260, .T. ) ;
#174 = VERTEX_POINT ( 'NONE', #263 ) ;
#175 = CARTESIAN_POINT ( 'NONE',  ( 0.000000000000000000, 3.750000000000000000, 0.000000000000000000 ) ) ;
#176 = ORIENTED_EDGE ( 'NONE', *, *, #250, .F. ) ;
#177 = EDGE_CURVE ( 'NONE', #267, #58, #160, .T. ) ;
#178 = CARTESIAN_POINT ( 'NONE',  ( 3.031000827889699256E-15, 3.750000000000000000, -24.75000000000000000 ) ) ;
#179 = CARTESIAN_POINT ( 'NONE',  ( 0.000000000000000000, 0.2500000000000002220, 0.000000000000000000 ) ) ;
#180 = DIRECTION ( 'NONE',  ( 0.000000000000000000, 0.000000000000000000, 1.000000000000000000 ) ) ;
#181 = ADVANCED_FACE ( 'NONE', ( #205 ), #155, .T. ) ;
#182 = CARTESIAN_POINT ( 'NONE',  ( 3.061616997868383043E-15, 4.000000000000000000, 25.00000000000000000 ) ) ;
#183 = LINE ( 'NONE', #182, #32 ) ;
#184 = LOCAL_TIME ( 17, 37, 2.000000000000000000, #271 ) ;
#185 = PERSON_AND_ORGANIZATION_ROLE ( 'creator' ) ;
#186 = APPROVAL_STATUS ( 'not_yet_approved' ) ;
#187 = PERSON_AND_ORGANIZATION_ROLE ( 'creator' ) ;
#188 = EDGE_LOOP ( 'NONE', ( #277, #193 ) ) ;
#189 = APPROVAL_PERSON_ORGANIZATION ( #266, #168, #162 ) ;
#190 = COORDINATED_UNIVERSAL_TIME_OFFSET ( 1, 0, .AHEAD. ) ;
#191 = ORIENTED_EDGE ( 'NONE', *, *, #173, .F. ) ;
#192 = APPROVAL_ROLE ( '' ) ;
#193 = ORIENTED_EDGE ( 'NONE', *, *, #211, .T. ) ;
#194 = CC_DESIGN_APPROVAL ( #219, ( #37 ) ) ;
#195 = EDGE_LOOP ( 'NONE', ( #269, #163 ) ) ;
#196 = FACE_OUTER_BOUND ( 'NONE', #188, .T. ) ;
#197 = DIRECTION ( 'NONE',  ( -0.000000000000000000, -1.000000000000000000, -0.000000000000000000 ) ) ;
#198 = AXIS2_PLACEMENT_3D ( 'NONE', #144, #120, #231 ) ;
#199 = ORIENTED_EDGE ( 'NONE', *, *, #211, .F. ) ;
#200 = FACE_OUTER_BOUND ( 'NONE', #235, .T. ) ;
#201 = CARTESIAN_POINT ( 'NONE',  ( 0.000000000000000000, 0.000000000000000000, 0.000000000000000000 ) ) ;
#202 = DIRECTION ( 'NONE',  ( 0.000000000000000000, 0.000000000000000000, -1.000000000000000000 ) ) ;
#203 = LOCAL_TIME ( 17, 37, 2.000000000000000000, #190 ) ;
#204 = CC_DESIGN_PERSON_AND_ORGANIZATION_ASSIGNMENT ( #69, #161, ( #37 ) ) ;
#205 = FACE_OUTER_BOUND ( 'NONE', #39, .T. ) ;
#206 = FACE_OUTER_BOUND ( 'NONE', #249, .T. ) ;
#207 = COORDINATED_UNIVERSAL_TIME_OFFSET ( 1, 0, .AHEAD. ) ;
#208 = AXIS2_PLACEMENT_3D ( 'NONE', #30, #86, #62 ) ;
#209 = SECURITY_CLASSIFICATION_LEVEL ( 'unclassified' ) ;
#210 = CALENDAR_DATE ( 2024, 22, 10 ) ;
#211 = EDGE_CURVE ( 'NONE', #171, #93, #241, .T. ) ;
#212 = PERSON_AND_ORGANIZATION ( #136, #149 ) ;
#213 = CARTESIAN_POINT ( 'NONE',  ( 0.000000000000000000, 0.000000000000000000, 0.000000000000000000 ) ) ;
#214 = DIRECTION ( 'NONE',  ( 0.000000000000000000, 0.000000000000000000, 1.000000000000000000 ) ) ;
#215 = CIRCLE ( 'NONE', #29, 0.2500000000000002220 ) ;
#216 = CARTESIAN_POINT ( 'NONE',  ( 0.000000000000000000, 4.000000000000000000, 24.75000000000000000 ) ) ;
#217 = PRODUCT ( '3D_GR1442_50 x 4_188741180', '3D_GR1442_50 x 4_188741180', '', ( #251 ) ) ;
#218 = ORIENTED_EDGE ( 'NONE', *, *, #227, .F. ) ;
#219 = APPROVAL ( #12, 'UNSPECIFIED' ) ;
#220 = CARTESIAN_POINT ( 'NONE',  ( 0.000000000000000000, 0.2500000000000002220, 0.000000000000000000 ) ) ;
#221 = DIRECTION ( 'NONE',  ( 0.000000000000000000, 1.000000000000000000, 0.000000000000000000 ) ) ;
#222 = ADVANCED_FACE ( 'NONE', ( #206 ), #154, .T. ) ;
#223 = DIRECTION ( 'NONE',  ( -1.000000000000000000, 0.000000000000000000, 0.000000000000000000 ) ) ;
#224 = DIRECTION ( 'NONE',  ( 1.224646799147349509E-16, 0.000000000000000000, -1.000000000000000000 ) ) ;
#225 = AXIS2_PLACEMENT_3D ( 'NONE', #137, #87, #67 ) ;
#226 = CALENDAR_DATE ( 2024, 22, 10 ) ;
#227 = EDGE_CURVE ( 'NONE', #58, #267, #112, .T. ) ;
#228 = CLOSED_SHELL ( 'NONE', ( #119, #181, #94, #222, #66, #71, #247, #100 ) ) ;
#229 = TOROIDAL_SURFACE ( 'NONE', #22, 24.75000000000000000, 0.2500000000000000000 ) ;
#230 = VERTEX_POINT ( 'NONE', #7 ) ;
#231 = DIRECTION ( 'NONE',  ( 1.000000000000000000, 0.000000000000000000, 0.000000000000000000 ) ) ;
#232 = EDGE_CURVE ( 'NONE', #2, #267, #215, .T. ) ;
#233 = APPROVAL_DATE_TIME ( #10, #115 ) ;
#234 = TOROIDAL_SURFACE ( 'NONE', #8, 24.75000000000000000, 0.2500000000000000000 ) ;
#235 = EDGE_LOOP ( 'NONE', ( #92, #275, #239, #166 ) ) ;
#236 = CARTESIAN_POINT ( 'NONE',  ( 0.000000000000000000, 4.000000000000000000, 0.000000000000000000 ) ) ;
#237 = FACE_OUTER_BOUND ( 'NONE', #279, .T. ) ;
#238 = AXIS2_PLACEMENT_3D ( 'NONE', #201, #23, #114 ) ;
#239 = ORIENTED_EDGE ( 'NONE', *, *, #125, .T. ) ;
#240 = CARTESIAN_POINT ( 'NONE',  ( 0.000000000000000000, 4.000000000000000000, -25.00000000000000000 ) ) ;
#241 = CIRCLE ( 'NONE', #238, 24.75000000000000000 ) ;
#242 = DIRECTION ( 'NONE',  ( 0.000000000000000000, 1.000000000000000000, 0.000000000000000000 ) ) ;
#243 = DIRECTION ( 'NONE',  ( 0.000000000000000000, 0.000000000000000000, 1.000000000000000000 ) ) ;
#244 = CARTESIAN_POINT ( 'NONE',  ( 0.000000000000000000, 3.750000000000000000, 0.000000000000000000 ) ) ;
#245 = DIRECTION ( 'NONE',  ( 0.000000000000000000, 0.000000000000000000, 1.000000000000000000 ) ) ;
#246 = APPROVAL_DATE_TIME ( #248, #219 ) ;
#247 = ADVANCED_FACE ( 'NONE', ( #200 ), #43, .T. ) ;
#248 = DATE_AND_TIME ( #15, #203 ) ;
#249 = EDGE_LOOP ( 'NONE', ( #150, #255, #79, #273 ) ) ;
#250 = EDGE_CURVE ( 'NONE', #2, #174, #252, .T. ) ;
#251 = MECHANICAL_CONTEXT ( 'NONE', #11, 'mechanical' ) ;
#252 = CIRCLE ( 'NONE', #208, 25.00000000000000000 ) ;
#253 = CARTESIAN_POINT ( 'NONE',  ( 3.031000827889699256E-15, 0.2500000000000002220, -24.75000000000000000 ) ) ;
#254 = DIRECTION ( 'NONE',  ( -0.000000000000000000, -1.000000000000000000, -0.000000000000000000 ) ) ;
#255 = ORIENTED_EDGE ( 'NONE', *, *, #83, .T. ) ;
#256 = CC_DESIGN_DATE_AND_TIME_ASSIGNMENT ( #141, #13, ( #53 ) ) ;
#257 = DIRECTION ( 'NONE',  ( -0.000000000000000000, -1.000000000000000000, -0.000000000000000000 ) ) ;
#258 = CARTESIAN_POINT ( 'NONE',  ( 0.000000000000000000, 3.750000000000000000, -25.00000000000000000 ) ) ;
#259 = DIRECTION ( 'NONE',  ( 0.000000000000000000, 1.000000000000000000, 0.000000000000000000 ) ) ;
#260 = CIRCLE ( 'NONE', #14, 0.2500000000000002220 ) ;
#261 = MANIFOLD_SOLID_BREP ( 'Verrundung1', #228 ) ;
#262 = CARTESIAN_POINT ( 'NONE',  ( 3.046308912879041149E-15, 4.000000000000000000, -24.75000000000000000 ) ) ;
#263 = CARTESIAN_POINT ( 'NONE',  ( 3.061616997868383043E-15, 3.750000000000000000, 25.00000000000000000 ) ) ;
#264 = EDGE_CURVE ( 'NONE', #174, #106, #183, .T. ) ;
#265 = APPROVAL_PERSON_ORGANIZATION ( #212, #115, #192 ) ;
#266 = PERSON_AND_ORGANIZATION ( #136, #149 ) ;
#267 = VERTEX_POINT ( 'NONE', #262 ) ;
#268 = DATE_AND_TIME ( #123, #184 ) ;
#269 = ORIENTED_EDGE ( 'NONE', *, *, #227, .T. ) ;
#270 = CC_DESIGN_PERSON_AND_ORGANIZATION_ASSIGNMENT ( #274, #36, ( #63 ) ) ;
#271 = COORDINATED_UNIVERSAL_TIME_OFFSET ( 1, 0, .AHEAD. ) ;
#272 = AXIS2_PLACEMENT_3D ( 'NONE', #65, #48, #158 ) ;
#273 = ORIENTED_EDGE ( 'NONE', *, *, #109, .T. ) ;
#274 = PERSON_AND_ORGANIZATION ( #136, #149 ) ;
#275 = ORIENTED_EDGE ( 'NONE', *, *, #75, .F. ) ;
#276 = EDGE_CURVE ( 'NONE', #106, #230, #95, .T. ) ;
#277 = ORIENTED_EDGE ( 'NONE', *, *, #75, .T. ) ;
#278 = LOCAL_TIME ( 17, 37, 2.000000000000000000, #51 ) ;
#279 = EDGE_LOOP ( 'NONE', ( #3, #124, #56, #16 ) ) ;
ENDSEC;
END-ISO-10303-21;
