ISO-10303-21;
HEADER;
/* Generated by software containing ST-Developer
 * from STEP Tools, Inc. (www.steptools.com) 
 */

FILE_DESCRIPTION(
/* description */ ('PharmCom Gewindestutzen ISO DIN11864-A 33,7-114,3'),

/* implementation_level */ '2;1');

FILE_NAME(
/* name */ 
'G:\\Technik\\Internes Serviceportal\\STEP\\6-Hygienearmaturen\\10108\\
10108100X000.stp',
/* time_stamp */ '2018-03-22T07:27:35+01:00',
/* author */ ('sletas'),
/* organization */ (''),
/* preprocessor_version */ 'ST-DEVELOPER v15.6',
/* originating_system */ 'Autodesk Inventor 2015',
/* authorisation */ '');

FILE_SCHEMA (('AUTOMOTIVE_DESIGN { 1 0 10303 214 3 1 1 }'));
ENDSEC;

DATA;
#10=MECHANICAL_DESIGN_GEOMETRIC_PRESENTATION_REPRESENTATION('',(#13),#383);
#11=SHAPE_REPRESENTATION_RELATIONSHIP('SRR','None',#392,#12);
#12=ADVANCED_BREP_SHAPE_REPRESENTATION($,(#14),#382);
#13=STYLED_ITEM('',(#401),#14);
#14=MANIFOLD_SOLID_BREP('Volumenk\X\F6rper1',#213);
#15=CYLINDRICAL_SURFACE('',#225,80.);
#16=CYLINDRICAL_SURFACE('',#230,71.);
#17=CYLINDRICAL_SURFACE('',#246,54.85);
#18=CYLINDRICAL_SURFACE('',#250,57.15);
#19=PLANE('',#224);
#20=PLANE('',#226);
#21=PLANE('',#234);
#22=PLANE('',#242);
#23=PLANE('',#248);
#24=TOROIDAL_SURFACE('',#221,61.15,4.);
#25=TOROIDAL_SURFACE('',#232,70.6,0.399999999999996);
#26=TOROIDAL_SURFACE('',#236,59.0902847759083,1.);
#27=TOROIDAL_SURFACE('',#238,57.905,2.45);
#28=TOROIDAL_SURFACE('',#240,55.3931729757007,1.00000000000001);
#29=TOROIDAL_SURFACE('',#244,55.35,0.499999999999996);
#30=FACE_BOUND('',#67,.T.);
#31=FACE_BOUND('',#69,.T.);
#32=FACE_BOUND('',#71,.T.);
#33=FACE_BOUND('',#73,.T.);
#34=FACE_BOUND('',#75,.T.);
#35=FACE_BOUND('',#77,.T.);
#36=FACE_BOUND('',#79,.T.);
#37=FACE_BOUND('',#81,.T.);
#38=FACE_BOUND('',#83,.T.);
#39=FACE_BOUND('',#85,.T.);
#40=FACE_BOUND('',#87,.T.);
#41=FACE_BOUND('',#89,.T.);
#42=FACE_BOUND('',#91,.T.);
#43=FACE_BOUND('',#93,.T.);
#44=FACE_BOUND('',#95,.T.);
#45=FACE_BOUND('',#97,.T.);
#46=FACE_BOUND('',#99,.T.);
#47=FACE_BOUND('',#101,.T.);
#48=FACE_OUTER_BOUND('',#66,.T.);
#49=FACE_OUTER_BOUND('',#68,.T.);
#50=FACE_OUTER_BOUND('',#70,.T.);
#51=FACE_OUTER_BOUND('',#72,.T.);
#52=FACE_OUTER_BOUND('',#74,.T.);
#53=FACE_OUTER_BOUND('',#76,.T.);
#54=FACE_OUTER_BOUND('',#78,.T.);
#55=FACE_OUTER_BOUND('',#80,.T.);
#56=FACE_OUTER_BOUND('',#82,.T.);
#57=FACE_OUTER_BOUND('',#84,.T.);
#58=FACE_OUTER_BOUND('',#86,.T.);
#59=FACE_OUTER_BOUND('',#88,.T.);
#60=FACE_OUTER_BOUND('',#90,.T.);
#61=FACE_OUTER_BOUND('',#92,.T.);
#62=FACE_OUTER_BOUND('',#94,.T.);
#63=FACE_OUTER_BOUND('',#96,.T.);
#64=FACE_OUTER_BOUND('',#98,.T.);
#65=FACE_OUTER_BOUND('',#100,.T.);
#66=EDGE_LOOP('',(#156));
#67=EDGE_LOOP('',(#157));
#68=EDGE_LOOP('',(#158));
#69=EDGE_LOOP('',(#159));
#70=EDGE_LOOP('',(#160));
#71=EDGE_LOOP('',(#161));
#72=EDGE_LOOP('',(#162));
#73=EDGE_LOOP('',(#163));
#74=EDGE_LOOP('',(#164));
#75=EDGE_LOOP('',(#165));
#76=EDGE_LOOP('',(#166));
#77=EDGE_LOOP('',(#167));
#78=EDGE_LOOP('',(#168));
#79=EDGE_LOOP('',(#169));
#80=EDGE_LOOP('',(#170));
#81=EDGE_LOOP('',(#171));
#82=EDGE_LOOP('',(#172));
#83=EDGE_LOOP('',(#173));
#84=EDGE_LOOP('',(#174));
#85=EDGE_LOOP('',(#175));
#86=EDGE_LOOP('',(#176));
#87=EDGE_LOOP('',(#177));
#88=EDGE_LOOP('',(#178));
#89=EDGE_LOOP('',(#179));
#90=EDGE_LOOP('',(#180));
#91=EDGE_LOOP('',(#181));
#92=EDGE_LOOP('',(#182));
#93=EDGE_LOOP('',(#183));
#94=EDGE_LOOP('',(#184));
#95=EDGE_LOOP('',(#185));
#96=EDGE_LOOP('',(#186));
#97=EDGE_LOOP('',(#187));
#98=EDGE_LOOP('',(#188));
#99=EDGE_LOOP('',(#189));
#100=EDGE_LOOP('',(#190));
#101=EDGE_LOOP('',(#191));
#102=CIRCLE('',#216,80.);
#103=CIRCLE('',#217,78.);
#104=CIRCLE('',#219,78.);
#105=CIRCLE('',#220,80.);
#106=CIRCLE('',#222,61.15);
#107=CIRCLE('',#223,57.15);
#108=CIRCLE('',#227,71.5358983848623);
#109=CIRCLE('',#229,71.);
#110=CIRCLE('',#231,71.);
#111=CIRCLE('',#233,70.6);
#112=CIRCLE('',#235,59.0902847759083);
#113=CIRCLE('',#237,58.7467239712972);
#114=CIRCLE('',#239,56.1212387798454);
#115=CIRCLE('',#241,55.3931729757007);
#116=CIRCLE('',#243,55.35);
#117=CIRCLE('',#245,54.85);
#118=CIRCLE('',#247,54.85);
#119=CIRCLE('',#249,57.15);
#120=VERTEX_POINT('',#327);
#121=VERTEX_POINT('',#329);
#122=VERTEX_POINT('',#332);
#123=VERTEX_POINT('',#334);
#124=VERTEX_POINT('',#337);
#125=VERTEX_POINT('',#339);
#126=VERTEX_POINT('',#344);
#127=VERTEX_POINT('',#347);
#128=VERTEX_POINT('',#350);
#129=VERTEX_POINT('',#353);
#130=VERTEX_POINT('',#356);
#131=VERTEX_POINT('',#359);
#132=VERTEX_POINT('',#362);
#133=VERTEX_POINT('',#365);
#134=VERTEX_POINT('',#368);
#135=VERTEX_POINT('',#371);
#136=VERTEX_POINT('',#374);
#137=VERTEX_POINT('',#377);
#138=EDGE_CURVE('',#120,#120,#102,.T.);
#139=EDGE_CURVE('',#121,#121,#103,.T.);
#140=EDGE_CURVE('',#122,#122,#104,.T.);
#141=EDGE_CURVE('',#123,#123,#105,.T.);
#142=EDGE_CURVE('',#124,#124,#106,.T.);
#143=EDGE_CURVE('',#125,#125,#107,.T.);
#144=EDGE_CURVE('',#126,#126,#108,.T.);
#145=EDGE_CURVE('',#127,#127,#109,.T.);
#146=EDGE_CURVE('',#128,#128,#110,.T.);
#147=EDGE_CURVE('',#129,#129,#111,.T.);
#148=EDGE_CURVE('',#130,#130,#112,.T.);
#149=EDGE_CURVE('',#131,#131,#113,.T.);
#150=EDGE_CURVE('',#132,#132,#114,.T.);
#151=EDGE_CURVE('',#133,#133,#115,.T.);
#152=EDGE_CURVE('',#134,#134,#116,.T.);
#153=EDGE_CURVE('',#135,#135,#117,.T.);
#154=EDGE_CURVE('',#136,#136,#118,.T.);
#155=EDGE_CURVE('',#137,#137,#119,.T.);
#156=ORIENTED_EDGE('',*,*,#138,.F.);
#157=ORIENTED_EDGE('',*,*,#139,.F.);
#158=ORIENTED_EDGE('',*,*,#140,.F.);
#159=ORIENTED_EDGE('',*,*,#141,.F.);
#160=ORIENTED_EDGE('',*,*,#142,.F.);
#161=ORIENTED_EDGE('',*,*,#143,.T.);
#162=ORIENTED_EDGE('',*,*,#140,.T.);
#163=ORIENTED_EDGE('',*,*,#142,.T.);
#164=ORIENTED_EDGE('',*,*,#138,.T.);
#165=ORIENTED_EDGE('',*,*,#141,.T.);
#166=ORIENTED_EDGE('',*,*,#139,.T.);
#167=ORIENTED_EDGE('',*,*,#144,.F.);
#168=ORIENTED_EDGE('',*,*,#145,.F.);
#169=ORIENTED_EDGE('',*,*,#144,.T.);
#170=ORIENTED_EDGE('',*,*,#146,.F.);
#171=ORIENTED_EDGE('',*,*,#145,.T.);
#172=ORIENTED_EDGE('',*,*,#147,.F.);
#173=ORIENTED_EDGE('',*,*,#146,.T.);
#174=ORIENTED_EDGE('',*,*,#147,.T.);
#175=ORIENTED_EDGE('',*,*,#148,.F.);
#176=ORIENTED_EDGE('',*,*,#149,.F.);
#177=ORIENTED_EDGE('',*,*,#148,.T.);
#178=ORIENTED_EDGE('',*,*,#150,.F.);
#179=ORIENTED_EDGE('',*,*,#149,.T.);
#180=ORIENTED_EDGE('',*,*,#151,.F.);
#181=ORIENTED_EDGE('',*,*,#150,.T.);
#182=ORIENTED_EDGE('',*,*,#151,.T.);
#183=ORIENTED_EDGE('',*,*,#152,.F.);
#184=ORIENTED_EDGE('',*,*,#153,.F.);
#185=ORIENTED_EDGE('',*,*,#152,.T.);
#186=ORIENTED_EDGE('',*,*,#154,.F.);
#187=ORIENTED_EDGE('',*,*,#153,.T.);
#188=ORIENTED_EDGE('',*,*,#155,.F.);
#189=ORIENTED_EDGE('',*,*,#154,.T.);
#190=ORIENTED_EDGE('',*,*,#143,.F.);
#191=ORIENTED_EDGE('',*,*,#155,.T.);
#192=CONICAL_SURFACE('',#215,79.,45.);
#193=CONICAL_SURFACE('',#218,79.,45.);
#194=CONICAL_SURFACE('',#228,71.2679491924311,15.0000000000001);
#195=ADVANCED_FACE('',(#48,#30),#192,.T.);
#196=ADVANCED_FACE('',(#49,#31),#193,.T.);
#197=ADVANCED_FACE('',(#50,#32),#24,.F.);
#198=ADVANCED_FACE('',(#51,#33),#19,.T.);
#199=ADVANCED_FACE('',(#52,#34),#15,.T.);
#200=ADVANCED_FACE('',(#53,#35),#20,.T.);
#201=ADVANCED_FACE('',(#54,#36),#194,.F.);
#202=ADVANCED_FACE('',(#55,#37),#16,.F.);
#203=ADVANCED_FACE('',(#56,#38),#25,.F.);
#204=ADVANCED_FACE('',(#57,#39),#21,.T.);
#205=ADVANCED_FACE('',(#58,#40),#26,.T.);
#206=ADVANCED_FACE('',(#59,#41),#27,.F.);
#207=ADVANCED_FACE('',(#60,#42),#28,.T.);
#208=ADVANCED_FACE('',(#61,#43),#22,.T.);
#209=ADVANCED_FACE('',(#62,#44),#29,.T.);
#210=ADVANCED_FACE('',(#63,#45),#17,.F.);
#211=ADVANCED_FACE('',(#64,#46),#23,.T.);
#212=ADVANCED_FACE('',(#65,#47),#18,.T.);
#213=CLOSED_SHELL('',(#195,#196,#197,#198,#199,#200,#201,#202,#203,#204,
#205,#206,#207,#208,#209,#210,#211,#212));
#214=AXIS2_PLACEMENT_3D('placement',#325,#251,#252);
#215=AXIS2_PLACEMENT_3D('',#326,#253,#254);
#216=AXIS2_PLACEMENT_3D('',#328,#255,#256);
#217=AXIS2_PLACEMENT_3D('',#330,#257,#258);
#218=AXIS2_PLACEMENT_3D('',#331,#259,#260);
#219=AXIS2_PLACEMENT_3D('',#333,#261,#262);
#220=AXIS2_PLACEMENT_3D('',#335,#263,#264);
#221=AXIS2_PLACEMENT_3D('',#336,#265,#266);
#222=AXIS2_PLACEMENT_3D('',#338,#267,#268);
#223=AXIS2_PLACEMENT_3D('',#340,#269,#270);
#224=AXIS2_PLACEMENT_3D('',#341,#271,#272);
#225=AXIS2_PLACEMENT_3D('',#342,#273,#274);
#226=AXIS2_PLACEMENT_3D('',#343,#275,#276);
#227=AXIS2_PLACEMENT_3D('',#345,#277,#278);
#228=AXIS2_PLACEMENT_3D('',#346,#279,#280);
#229=AXIS2_PLACEMENT_3D('',#348,#281,#282);
#230=AXIS2_PLACEMENT_3D('',#349,#283,#284);
#231=AXIS2_PLACEMENT_3D('',#351,#285,#286);
#232=AXIS2_PLACEMENT_3D('',#352,#287,#288);
#233=AXIS2_PLACEMENT_3D('',#354,#289,#290);
#234=AXIS2_PLACEMENT_3D('',#355,#291,#292);
#235=AXIS2_PLACEMENT_3D('',#357,#293,#294);
#236=AXIS2_PLACEMENT_3D('',#358,#295,#296);
#237=AXIS2_PLACEMENT_3D('',#360,#297,#298);
#238=AXIS2_PLACEMENT_3D('',#361,#299,#300);
#239=AXIS2_PLACEMENT_3D('',#363,#301,#302);
#240=AXIS2_PLACEMENT_3D('',#364,#303,#304);
#241=AXIS2_PLACEMENT_3D('',#366,#305,#306);
#242=AXIS2_PLACEMENT_3D('',#367,#307,#308);
#243=AXIS2_PLACEMENT_3D('',#369,#309,#310);
#244=AXIS2_PLACEMENT_3D('',#370,#311,#312);
#245=AXIS2_PLACEMENT_3D('',#372,#313,#314);
#246=AXIS2_PLACEMENT_3D('',#373,#315,#316);
#247=AXIS2_PLACEMENT_3D('',#375,#317,#318);
#248=AXIS2_PLACEMENT_3D('',#376,#319,#320);
#249=AXIS2_PLACEMENT_3D('',#378,#321,#322);
#250=AXIS2_PLACEMENT_3D('',#379,#323,#324);
#251=DIRECTION('axis',(0.,0.,1.));
#252=DIRECTION('refdir',(1.,0.,0.));
#253=DIRECTION('center_axis',(-1.,0.,0.));
#254=DIRECTION('ref_axis',(0.,0.,1.));
#255=DIRECTION('center_axis',(-1.,-1.77936371993986E-16,0.));
#256=DIRECTION('ref_axis',(-1.51010486316441E-16,1.,0.));
#257=DIRECTION('center_axis',(1.,1.77936371993986E-16,0.));
#258=DIRECTION('ref_axis',(0.,0.,1.));
#259=DIRECTION('center_axis',(1.,0.,0.));
#260=DIRECTION('ref_axis',(0.,0.,1.));
#261=DIRECTION('center_axis',(-1.,-1.77936371993986E-16,0.));
#262=DIRECTION('ref_axis',(0.,0.,1.));
#263=DIRECTION('center_axis',(1.,1.77936371993986E-16,0.));
#264=DIRECTION('ref_axis',(-1.51010486316441E-16,1.,0.));
#265=DIRECTION('center_axis',(1.,1.77936371993986E-16,0.));
#266=DIRECTION('ref_axis',(0.,0.,-1.));
#267=DIRECTION('center_axis',(1.,1.77936371993986E-16,0.));
#268=DIRECTION('ref_axis',(-1.51010486316441E-16,1.,0.));
#269=DIRECTION('center_axis',(1.,1.77936371993986E-16,0.));
#270=DIRECTION('ref_axis',(-1.51010486316441E-16,1.,0.));
#271=DIRECTION('center_axis',(-1.,-1.77936371993986E-16,0.));
#272=DIRECTION('ref_axis',(0.,0.,1.));
#273=DIRECTION('center_axis',(1.,1.77936371993986E-16,0.));
#274=DIRECTION('ref_axis',(-1.51010486316441E-16,1.,0.));
#275=DIRECTION('center_axis',(1.,1.77936371993986E-16,0.));
#276=DIRECTION('ref_axis',(0.,0.,-1.));
#277=DIRECTION('center_axis',(1.,1.77936371993986E-16,0.));
#278=DIRECTION('ref_axis',(-1.51010486316441E-16,1.,0.));
#279=DIRECTION('center_axis',(1.,1.77936371993986E-16,0.));
#280=DIRECTION('ref_axis',(-1.51010486316441E-16,1.,0.));
#281=DIRECTION('center_axis',(1.,1.77936371993986E-16,0.));
#282=DIRECTION('ref_axis',(-1.51010486316441E-16,1.,0.));
#283=DIRECTION('center_axis',(1.,1.77936371993986E-16,0.));
#284=DIRECTION('ref_axis',(-1.51010486316441E-16,1.,0.));
#285=DIRECTION('center_axis',(1.,1.77936371993986E-16,0.));
#286=DIRECTION('ref_axis',(-1.51010486316441E-16,1.,0.));
#287=DIRECTION('center_axis',(1.,1.77936371993986E-16,0.));
#288=DIRECTION('ref_axis',(0.,0.,-1.));
#289=DIRECTION('center_axis',(1.,1.77936371993986E-16,0.));
#290=DIRECTION('ref_axis',(-1.51010486316441E-16,1.,0.));
#291=DIRECTION('center_axis',(1.,1.77936371993986E-16,0.));
#292=DIRECTION('ref_axis',(0.,0.,-1.));
#293=DIRECTION('center_axis',(1.,1.77936371993986E-16,0.));
#294=DIRECTION('ref_axis',(-1.51010486316441E-16,1.,0.));
#295=DIRECTION('center_axis',(1.,1.77936371993986E-16,0.));
#296=DIRECTION('ref_axis',(0.,0.,-1.));
#297=DIRECTION('center_axis',(1.,1.77936371993986E-16,0.));
#298=DIRECTION('ref_axis',(-1.51010486316441E-16,1.,0.));
#299=DIRECTION('center_axis',(1.,1.77936371993986E-16,0.));
#300=DIRECTION('ref_axis',(0.,0.,-1.));
#301=DIRECTION('center_axis',(1.,1.77936371993986E-16,0.));
#302=DIRECTION('ref_axis',(-1.51010486316441E-16,1.,0.));
#303=DIRECTION('center_axis',(1.,1.77936371993986E-16,0.));
#304=DIRECTION('ref_axis',(0.,0.,-1.));
#305=DIRECTION('center_axis',(1.,1.77936371993986E-16,0.));
#306=DIRECTION('ref_axis',(-1.51010486316441E-16,1.,0.));
#307=DIRECTION('center_axis',(1.,1.77936371993986E-16,0.));
#308=DIRECTION('ref_axis',(0.,0.,-1.));
#309=DIRECTION('center_axis',(1.,1.77936371993986E-16,0.));
#310=DIRECTION('ref_axis',(-1.51010486316441E-16,1.,0.));
#311=DIRECTION('center_axis',(1.,1.77936371993986E-16,0.));
#312=DIRECTION('ref_axis',(0.,0.,-1.));
#313=DIRECTION('center_axis',(1.,1.77936371993986E-16,0.));
#314=DIRECTION('ref_axis',(-1.51010486316441E-16,1.,0.));
#315=DIRECTION('center_axis',(1.,1.77936371993986E-16,0.));
#316=DIRECTION('ref_axis',(-1.51010486316441E-16,1.,0.));
#317=DIRECTION('center_axis',(1.,1.77936371993986E-16,0.));
#318=DIRECTION('ref_axis',(-1.51010486316441E-16,1.,0.));
#319=DIRECTION('center_axis',(-1.,-1.77936371993986E-16,0.));
#320=DIRECTION('ref_axis',(0.,0.,1.));
#321=DIRECTION('center_axis',(1.,1.77936371993986E-16,0.));
#322=DIRECTION('ref_axis',(-1.51010486316441E-16,1.,0.));
#323=DIRECTION('center_axis',(1.,1.77936371993986E-16,0.));
#324=DIRECTION('ref_axis',(-1.51010486316441E-16,1.,0.));
#325=CARTESIAN_POINT('',(0.,0.,0.));
#326=CARTESIAN_POINT('Origin',(67.,0.,0.));
#327=CARTESIAN_POINT('',(66.,0.,80.));
#328=CARTESIAN_POINT('Origin',(66.,1.56295811377911E-14,0.));
#329=CARTESIAN_POINT('',(68.,0.,78.));
#330=CARTESIAN_POINT('Origin',(68.,0.,0.));
#331=CARTESIAN_POINT('Origin',(45.,0.,0.));
#332=CARTESIAN_POINT('',(44.,0.,78.));
#333=CARTESIAN_POINT('Origin',(44.,0.,0.));
#334=CARTESIAN_POINT('',(46.,0.,80.));
#335=CARTESIAN_POINT('Origin',(46.,1.20708536979114E-14,0.));
#336=CARTESIAN_POINT('Origin',(40.,8.88178419700125E-15,0.));
#337=CARTESIAN_POINT('',(44.,61.15,0.));
#338=CARTESIAN_POINT('Origin',(44.,1.17149809539234E-14,0.));
#339=CARTESIAN_POINT('',(40.,57.15,0.));
#340=CARTESIAN_POINT('Origin',(40.,1.10032354659475E-14,0.));
#341=CARTESIAN_POINT('Origin',(44.,70.575,0.));
#342=CARTESIAN_POINT('Origin',(56.,1.38502174178513E-14,0.));
#343=CARTESIAN_POINT('Origin',(68.,75.7679491924311,0.));
#344=CARTESIAN_POINT('',(68.,71.5358983848623,0.));
#345=CARTESIAN_POINT('Origin',(68.,1.59854538817791E-14,0.));
#346=CARTESIAN_POINT('Origin',(67.,1.58075175097851E-14,0.));
#347=CARTESIAN_POINT('',(66.,71.,0.));
#348=CARTESIAN_POINT('Origin',(66.,1.56295811377911E-14,0.));
#349=CARTESIAN_POINT('Origin',(62.2,1.4953422924214E-14,0.));
#350=CARTESIAN_POINT('',(58.4,71.,0.));
#351=CARTESIAN_POINT('Origin',(58.4,1.42772647106368E-14,0.));
#352=CARTESIAN_POINT('Origin',(58.4,8.88178419700125E-15,0.));
#353=CARTESIAN_POINT('',(58.,70.6,0.));
#354=CARTESIAN_POINT('Origin',(58.,1.42060901618392E-14,0.));
#355=CARTESIAN_POINT('Origin',(58.,64.8451423879542,0.));
#356=CARTESIAN_POINT('',(58.,59.0902847759083,0.));
#357=CARTESIAN_POINT('Origin',(58.,1.42060901618393E-14,0.));
#358=CARTESIAN_POINT('Origin',(57.,8.88178419700125E-15,0.));
#359=CARTESIAN_POINT('',(57.9391304347826,58.7467239712972,0.));
#360=CARTESIAN_POINT('Origin',(57.9391304347826,1.41952592522396E-14,0.));
#361=CARTESIAN_POINT('Origin',(60.24,8.88178419700125E-15,0.));
#362=CARTESIAN_POINT('',(58.5605072463768,56.1212387798455,0.));
#363=CARTESIAN_POINT('Origin',(58.5605072463768,1.43058247877359E-14,0.));
#364=CARTESIAN_POINT('Origin',(57.875,8.88178419700125E-15,0.));
#365=CARTESIAN_POINT('',(58.875,55.3931729757008,0.));
#366=CARTESIAN_POINT('Origin',(58.875,1.4361784487334E-14,0.));
#367=CARTESIAN_POINT('Origin',(58.875,55.3715864878504,0.));
#368=CARTESIAN_POINT('',(58.875,55.35,0.));
#369=CARTESIAN_POINT('Origin',(58.875,1.4361784487334E-14,0.));
#370=CARTESIAN_POINT('Origin',(58.375,8.88178419700125E-15,0.));
#371=CARTESIAN_POINT('',(58.375,54.85,0.));
#372=CARTESIAN_POINT('Origin',(58.375,1.4272816301337E-14,0.));
#373=CARTESIAN_POINT('Origin',(29.1875,9.07929844376252E-15,0.));
#374=CARTESIAN_POINT('',(-1.00757815399848E-14,54.85,0.));
#375=CARTESIAN_POINT('Origin',(-3.20923843055709E-16,3.88578058618805E-15,
0.));
#376=CARTESIAN_POINT('Origin',(-1.02870331128378E-14,56.,0.));
#377=CARTESIAN_POINT('',(-1.04982846856907E-14,57.15,0.));
#378=CARTESIAN_POINT('Origin',(-3.29597460435593E-16,3.88578058618805E-15,
0.));
#379=CARTESIAN_POINT('Origin',(20.,7.44450802606777E-15,0.));
#380=UNCERTAINTY_MEASURE_WITH_UNIT(LENGTH_MEASURE(0.01),#384,
'DISTANCE_ACCURACY_VALUE',
'Maximum model space distance between geometric entities at asserted c
onnectivities');
#381=UNCERTAINTY_MEASURE_WITH_UNIT(LENGTH_MEASURE(1.E-6),#384,
'DISTANCE_ACCURACY_VALUE',
'Maximum model space distance between geometric entities at asserted c
onnectivities');
#382=(
GEOMETRIC_REPRESENTATION_CONTEXT(3)
GLOBAL_UNCERTAINTY_ASSIGNED_CONTEXT((#380))
GLOBAL_UNIT_ASSIGNED_CONTEXT((#384,#387,#385))
REPRESENTATION_CONTEXT('','3D')
);
#383=(
GEOMETRIC_REPRESENTATION_CONTEXT(3)
GLOBAL_UNCERTAINTY_ASSIGNED_CONTEXT((#381))
GLOBAL_UNIT_ASSIGNED_CONTEXT((#384,#387,#385))
REPRESENTATION_CONTEXT('','3D')
);
#384=(
LENGTH_UNIT()
NAMED_UNIT(*)
SI_UNIT(.MILLI.,.METRE.)
);
#385=(
NAMED_UNIT(*)
SI_UNIT($,.STERADIAN.)
SOLID_ANGLE_UNIT()
);
#386=DIMENSIONAL_EXPONENTS(0.,0.,0.,0.,0.,0.,0.);
#387=(
CONVERSION_BASED_UNIT('degree',#389)
NAMED_UNIT(#386)
PLANE_ANGLE_UNIT()
);
#388=(
NAMED_UNIT(*)
PLANE_ANGLE_UNIT()
SI_UNIT($,.RADIAN.)
);
#389=PLANE_ANGLE_MEASURE_WITH_UNIT(PLANE_ANGLE_MEASURE(0.01745329252),#388);
#390=SHAPE_DEFINITION_REPRESENTATION(#391,#392);
#391=PRODUCT_DEFINITION_SHAPE('',$,#394);
#392=SHAPE_REPRESENTATION('',(#214),#382);
#393=PRODUCT_DEFINITION_CONTEXT('part definition',#398,'design');
#394=PRODUCT_DEFINITION('ENG-012135','ENG-012135',#395,#393);
#395=PRODUCT_DEFINITION_FORMATION('',$,#400);
#396=PRODUCT_RELATED_PRODUCT_CATEGORY('ENG-012135','ENG-012135',(#400));
#397=APPLICATION_PROTOCOL_DEFINITION('international standard',
'automotive_design',2009,#398);
#398=APPLICATION_CONTEXT(
'Core Data for Automotive Mechanical Design Process');
#399=PRODUCT_CONTEXT('part definition',#398,'mechanical');
#400=PRODUCT('ENG-012135','ENG-012135',$,(#399));
#401=PRESENTATION_STYLE_ASSIGNMENT((#402));
#402=SURFACE_STYLE_USAGE(.BOTH.,#403);
#403=SURFACE_SIDE_STYLE($,(#404));
#404=SURFACE_STYLE_FILL_AREA(#405);
#405=FILL_AREA_STYLE($,(#406));
#406=FILL_AREA_STYLE_COLOUR($,#407);
#407=COLOUR_RGB('',0.752941176470588,0.752941176470588,0.752941176470588);
ENDSEC;
END-ISO-10303-21;
