ISO-10303-21;
HEADER;
/* Generated by software containing ST-Developer
 * from STEP Tools, Inc. (www.steptools.com) 
 */

FILE_DESCRIPTION(
/* description */ ('Elbow 139,7x2,6_45 deg'),
/* implementation_level */ '2;1');

FILE_NAME(
/* name */ 
'L:\\Normteile\\N0001 - Elbow\\N0001_003 Elbow 45\X\B0 - WW\\N0001_003
_001 - DW (BMT)\\E045_139,7x2,6_MR190,5_L133,9_00.stp',
/* time_stamp */ '2020-12-16T12:50:41+01:00',
/* author */ ('ahenning'),
/* organization */ (
'Dockweiler AG  An der Autobahn 10/20 Germany 19306 Neustadt-Glewe'),
/* preprocessor_version */ 'ST-DEVELOPER v18.1',
/* originating_system */ 'Autodesk Inventor 2020',
/* authorisation */ '');

FILE_SCHEMA (('AUTOMOTIVE_DESIGN { 1 0 10303 214 3 1 1 }'));
ENDSEC;

DATA;
#10=MECHANICAL_DESIGN_GEOMETRIC_PRESENTATION_REPRESENTATION('',(#19,#20,
#21,#22),#253);
#11=GEOMETRICALLY_BOUNDED_WIREFRAME_SHAPE_REPRESENTATION('',(#12),#252);
#12=GEOMETRIC_CURVE_SET('3D-Skizze1',(#17,#18,#16));
#13=SHAPE_REPRESENTATION_RELATIONSHIP('SRR','None',#260,#15);
#14=SHAPE_REPRESENTATION_RELATIONSHIP('SRR','None',#260,#11);
#15=ADVANCED_BREP_SHAPE_REPRESENTATION('',(#23),#252);
#16=TRIMMED_CURVE('',#66,(#248,PARAMETER_VALUE(0.)),(#249,
PARAMETER_VALUE(0.785398163397448)),.T.,.PARAMETER.);
#17=POLYLINE('',(#243,#244));
#18=POLYLINE('',(#245,#246));
#19=STYLED_ITEM('',(#269),#23);
#20=STYLED_ITEM('',(#270),#17);
#21=STYLED_ITEM('',(#270),#18);
#22=STYLED_ITEM('',(#270),#16);
#23=MANIFOLD_SOLID_BREP('Volumenk\X\F6rper1',#129);
#24=FACE_BOUND('',#45,.T.);
#25=FACE_BOUND('',#47,.T.);
#26=PLANE('',#165);
#27=PLANE('',#166);
#28=TOROIDAL_SURFACE('',#152,190.5,67.25);
#29=TOROIDAL_SURFACE('',#160,190.5,69.85);
#30=FACE_OUTER_BOUND('',#38,.T.);
#31=FACE_OUTER_BOUND('',#39,.T.);
#32=FACE_OUTER_BOUND('',#40,.T.);
#33=FACE_OUTER_BOUND('',#41,.T.);
#34=FACE_OUTER_BOUND('',#42,.T.);
#35=FACE_OUTER_BOUND('',#43,.T.);
#36=FACE_OUTER_BOUND('',#44,.T.);
#37=FACE_OUTER_BOUND('',#46,.T.);
#38=EDGE_LOOP('',(#89,#90,#91,#92));
#39=EDGE_LOOP('',(#93,#94,#95,#96));
#40=EDGE_LOOP('',(#97,#98,#99,#100));
#41=EDGE_LOOP('',(#101,#102,#103,#104));
#42=EDGE_LOOP('',(#105,#106,#107,#108));
#43=EDGE_LOOP('',(#109,#110,#111,#112));
#44=EDGE_LOOP('',(#113));
#45=EDGE_LOOP('',(#114));
#46=EDGE_LOOP('',(#115));
#47=EDGE_LOOP('',(#116));
#48=LINE('',#217,#52);
#49=LINE('',#226,#53);
#50=LINE('',#231,#54);
#51=LINE('',#239,#55);
#52=VECTOR('',#174,67.25);
#53=VECTOR('',#187,67.25);
#54=VECTOR('',#192,69.85);
#55=VECTOR('',#203,69.85);
#56=CIRCLE('',#150,67.25);
#57=CIRCLE('',#151,67.25);
#58=CIRCLE('',#153,67.25);
#59=CIRCLE('',#154,123.25);
#60=CIRCLE('',#156,67.25);
#61=CIRCLE('',#158,69.85);
#62=CIRCLE('',#159,69.85);
#63=CIRCLE('',#161,120.65);
#64=CIRCLE('',#162,69.85);
#65=CIRCLE('',#164,69.85);
#66=CIRCLE('',#167,75.);
#67=VERTEX_POINT('',#214);
#68=VERTEX_POINT('',#216);
#69=VERTEX_POINT('',#220);
#70=VERTEX_POINT('',#224);
#71=VERTEX_POINT('',#228);
#72=VERTEX_POINT('',#230);
#73=VERTEX_POINT('',#234);
#74=VERTEX_POINT('',#238);
#75=EDGE_CURVE('',#67,#67,#56,.T.);
#76=EDGE_CURVE('',#67,#68,#48,.T.);
#77=EDGE_CURVE('',#68,#68,#57,.T.);
#78=EDGE_CURVE('',#69,#69,#58,.T.);
#79=EDGE_CURVE('',#69,#67,#59,.T.);
#80=EDGE_CURVE('',#70,#70,#60,.T.);
#81=EDGE_CURVE('',#70,#69,#49,.T.);
#82=EDGE_CURVE('',#71,#71,#61,.T.);
#83=EDGE_CURVE('',#71,#72,#50,.T.);
#84=EDGE_CURVE('',#72,#72,#62,.T.);
#85=EDGE_CURVE('',#72,#73,#63,.T.);
#86=EDGE_CURVE('',#73,#73,#64,.T.);
#87=EDGE_CURVE('',#73,#74,#51,.T.);
#88=EDGE_CURVE('',#74,#74,#65,.T.);
#89=ORIENTED_EDGE('',*,*,#75,.T.);
#90=ORIENTED_EDGE('',*,*,#76,.T.);
#91=ORIENTED_EDGE('',*,*,#77,.F.);
#92=ORIENTED_EDGE('',*,*,#76,.F.);
#93=ORIENTED_EDGE('',*,*,#78,.T.);
#94=ORIENTED_EDGE('',*,*,#79,.T.);
#95=ORIENTED_EDGE('',*,*,#75,.F.);
#96=ORIENTED_EDGE('',*,*,#79,.F.);
#97=ORIENTED_EDGE('',*,*,#80,.F.);
#98=ORIENTED_EDGE('',*,*,#81,.T.);
#99=ORIENTED_EDGE('',*,*,#78,.F.);
#100=ORIENTED_EDGE('',*,*,#81,.F.);
#101=ORIENTED_EDGE('',*,*,#82,.T.);
#102=ORIENTED_EDGE('',*,*,#83,.T.);
#103=ORIENTED_EDGE('',*,*,#84,.F.);
#104=ORIENTED_EDGE('',*,*,#83,.F.);
#105=ORIENTED_EDGE('',*,*,#84,.T.);
#106=ORIENTED_EDGE('',*,*,#85,.T.);
#107=ORIENTED_EDGE('',*,*,#86,.F.);
#108=ORIENTED_EDGE('',*,*,#85,.F.);
#109=ORIENTED_EDGE('',*,*,#86,.T.);
#110=ORIENTED_EDGE('',*,*,#87,.T.);
#111=ORIENTED_EDGE('',*,*,#88,.F.);
#112=ORIENTED_EDGE('',*,*,#87,.F.);
#113=ORIENTED_EDGE('',*,*,#82,.F.);
#114=ORIENTED_EDGE('',*,*,#77,.T.);
#115=ORIENTED_EDGE('',*,*,#88,.T.);
#116=ORIENTED_EDGE('',*,*,#80,.T.);
#117=CYLINDRICAL_SURFACE('',#149,67.25);
#118=CYLINDRICAL_SURFACE('',#155,67.25);
#119=CYLINDRICAL_SURFACE('',#157,69.85);
#120=CYLINDRICAL_SURFACE('',#163,69.85);
#121=ADVANCED_FACE('',(#30),#117,.F.);
#122=ADVANCED_FACE('',(#31),#28,.F.);
#123=ADVANCED_FACE('',(#32),#118,.F.);
#124=ADVANCED_FACE('',(#33),#119,.T.);
#125=ADVANCED_FACE('',(#34),#29,.T.);
#126=ADVANCED_FACE('',(#35),#120,.T.);
#127=ADVANCED_FACE('',(#36,#24),#26,.F.);
#128=ADVANCED_FACE('',(#37,#25),#27,.T.);
#129=CLOSED_SHELL('',(#121,#122,#123,#124,#125,#126,#127,#128));
#130=DERIVED_UNIT_ELEMENT(#132,1.);
#131=DERIVED_UNIT_ELEMENT(#255,3.);
#132=(
MASS_UNIT()
NAMED_UNIT(*)
SI_UNIT($,.GRAM.)
);
#133=DERIVED_UNIT((#130,#131));
#134=MEASURE_REPRESENTATION_ITEM('density measure',
POSITIVE_RATIO_MEASURE(8.03),#133);
#135=PROPERTY_DEFINITION_REPRESENTATION(#140,#137);
#136=PROPERTY_DEFINITION_REPRESENTATION(#141,#138);
#137=REPRESENTATION('material name',(#139),#252);
#138=REPRESENTATION('density',(#134),#252);
#139=DESCRIPTIVE_REPRESENTATION_ITEM('1.4435','1.4435');
#140=PROPERTY_DEFINITION('material property','material name',#262);
#141=PROPERTY_DEFINITION('material property','density of part',#262);
#142=DATE_TIME_ROLE('creation_date');
#143=APPLIED_DATE_AND_TIME_ASSIGNMENT(#144,#142,(#262));
#144=DATE_AND_TIME(#145,#146);
#145=CALENDAR_DATE(2012,28,9);
#146=LOCAL_TIME(11,43,53.,#147);
#147=COORDINATED_UNIVERSAL_TIME_OFFSET(0,0,.BEHIND.);
#148=AXIS2_PLACEMENT_3D('placement',#212,#168,#169);
#149=AXIS2_PLACEMENT_3D('',#213,#170,#171);
#150=AXIS2_PLACEMENT_3D('',#215,#172,#173);
#151=AXIS2_PLACEMENT_3D('',#218,#175,#176);
#152=AXIS2_PLACEMENT_3D('',#219,#177,#178);
#153=AXIS2_PLACEMENT_3D('',#221,#179,#180);
#154=AXIS2_PLACEMENT_3D('',#222,#181,#182);
#155=AXIS2_PLACEMENT_3D('',#223,#183,#184);
#156=AXIS2_PLACEMENT_3D('',#225,#185,#186);
#157=AXIS2_PLACEMENT_3D('',#227,#188,#189);
#158=AXIS2_PLACEMENT_3D('',#229,#190,#191);
#159=AXIS2_PLACEMENT_3D('',#232,#193,#194);
#160=AXIS2_PLACEMENT_3D('',#233,#195,#196);
#161=AXIS2_PLACEMENT_3D('',#235,#197,#198);
#162=AXIS2_PLACEMENT_3D('',#236,#199,#200);
#163=AXIS2_PLACEMENT_3D('',#237,#201,#202);
#164=AXIS2_PLACEMENT_3D('',#240,#204,#205);
#165=AXIS2_PLACEMENT_3D('',#241,#206,#207);
#166=AXIS2_PLACEMENT_3D('',#242,#208,#209);
#167=AXIS2_PLACEMENT_3D('',#247,#210,#211);
#168=DIRECTION('axis',(0.,0.,1.));
#169=DIRECTION('refdir',(1.,0.,0.));
#170=DIRECTION('center_axis',(0.707106781186548,0.,0.707106781186548));
#171=DIRECTION('ref_axis',(-0.707106781186548,0.,0.707106781186548));
#172=DIRECTION('center_axis',(-0.707106781186548,0.,-0.707106781186548));
#173=DIRECTION('ref_axis',(-0.707106781186548,0.,0.707106781186548));
#174=DIRECTION('',(0.707106781186548,0.,0.707106781186548));
#175=DIRECTION('center_axis',(-0.707106781186548,0.,-0.707106781186548));
#176=DIRECTION('ref_axis',(-0.707106781186548,0.,0.707106781186548));
#177=DIRECTION('center_axis',(0.,1.,0.));
#178=DIRECTION('ref_axis',(0.,0.,1.));
#179=DIRECTION('center_axis',(0.,0.,-1.));
#180=DIRECTION('ref_axis',(-1.,0.,0.));
#181=DIRECTION('center_axis',(0.,1.,0.));
#182=DIRECTION('ref_axis',(0.,0.,1.));
#183=DIRECTION('center_axis',(9.63926939385152E-17,0.,1.));
#184=DIRECTION('ref_axis',(-1.,0.,9.63926939385152E-17));
#185=DIRECTION('center_axis',(0.,0.,1.));
#186=DIRECTION('ref_axis',(-1.,0.,9.63926939385152E-17));
#187=DIRECTION('',(9.63926939385152E-17,0.,1.));
#188=DIRECTION('center_axis',(0.707106781186548,0.,0.707106781186548));
#189=DIRECTION('ref_axis',(-0.707106781186548,0.,0.707106781186548));
#190=DIRECTION('center_axis',(-0.707106781186548,0.,-0.707106781186548));
#191=DIRECTION('ref_axis',(-0.707106781186547,0.,0.707106781186547));
#192=DIRECTION('',(-0.707106781186547,0.,-0.707106781186547));
#193=DIRECTION('center_axis',(-0.707106781186548,0.,-0.707106781186548));
#194=DIRECTION('ref_axis',(-0.707106781186548,0.,0.707106781186548));
#195=DIRECTION('center_axis',(0.,1.,0.));
#196=DIRECTION('ref_axis',(0.,0.,1.));
#197=DIRECTION('center_axis',(0.,-1.,0.));
#198=DIRECTION('ref_axis',(0.,0.,1.));
#199=DIRECTION('center_axis',(0.,0.,-1.));
#200=DIRECTION('ref_axis',(-1.,0.,0.));
#201=DIRECTION('center_axis',(9.63926939385152E-17,0.,1.));
#202=DIRECTION('ref_axis',(-1.,0.,9.63926939385152E-17));
#203=DIRECTION('',(-9.63926939385152E-17,0.,-1.));
#204=DIRECTION('center_axis',(0.,0.,-1.));
#205=DIRECTION('ref_axis',(-1.,0.,0.));
#206=DIRECTION('center_axis',(-0.707106781186548,0.,-0.707106781186548));
#207=DIRECTION('ref_axis',(-0.707106781186548,0.,0.707106781186548));
#208=DIRECTION('center_axis',(0.,0.,-1.));
#209=DIRECTION('ref_axis',(-1.,0.,0.));
#210=DIRECTION('center_axis',(0.,-1.,0.));
#211=DIRECTION('ref_axis',(-0.707106781186548,0.,0.707106781186547));
#212=CARTESIAN_POINT('',(0.,0.,0.));
#213=CARTESIAN_POINT('Origin',(55.7961581839627,0.,189.696158183963));
#214=CARTESIAN_POINT('',(103.349089218758,8.23574972426595E-15,142.143227149167));
#215=CARTESIAN_POINT('Origin',(55.7961581839627,0.,189.696158183963));
#216=CARTESIAN_POINT('',(142.234529035674,8.23574972426595E-15,181.028666966083));
#217=CARTESIAN_POINT('',(103.349089218758,8.23574972426595E-15,142.143227149167));
#218=CARTESIAN_POINT('Origin',(94.6815980008787,0.,228.581598000879));
#219=CARTESIAN_POINT('Origin',(190.5,0.,54.9923163679254));
#220=CARTESIAN_POINT('',(67.25,8.23574972426595E-15,54.9923163679254));
#221=CARTESIAN_POINT('Origin',(5.30085752062343E-15,0.,54.9923163679254));
#222=CARTESIAN_POINT('Origin',(190.5,-8.23574972426595E-15,54.9923163679254));
#223=CARTESIAN_POINT('Origin',(0.,0.,0.));
#224=CARTESIAN_POINT('',(67.25,8.23574972426595E-15,0.));
#225=CARTESIAN_POINT('Origin',(0.,0.,0.));
#226=CARTESIAN_POINT('',(67.25,8.23574972426595E-15,-6.48240866736514E-15));
#227=CARTESIAN_POINT('Origin',(55.7961581839627,0.,189.696158183963));
#228=CARTESIAN_POINT('',(144.073006666759,8.55415789204426E-15,179.190189334998));
#229=CARTESIAN_POINT('Origin',(94.6815980008787,0.,228.581598000879));
#230=CARTESIAN_POINT('',(105.187566849843,8.55415789204426E-15,140.304749518082));
#231=CARTESIAN_POINT('',(105.187566849843,8.55415789204426E-15,140.304749518082));
#232=CARTESIAN_POINT('Origin',(55.7961581839627,0.,189.696158183963));
#233=CARTESIAN_POINT('Origin',(190.5,0.,54.9923163679254));
#234=CARTESIAN_POINT('',(69.85,8.55415789204426E-15,54.9923163679254));
#235=CARTESIAN_POINT('Origin',(190.5,-8.55415789204426E-15,54.9923163679254));
#236=CARTESIAN_POINT('Origin',(5.30085752062343E-15,0.,54.9923163679254));
#237=CARTESIAN_POINT('Origin',(0.,0.,0.));
#238=CARTESIAN_POINT('',(69.85,8.55415789204426E-15,0.));
#239=CARTESIAN_POINT('',(69.85,8.55415789204426E-15,-6.73302967160528E-15));
#240=CARTESIAN_POINT('Origin',(0.,0.,0.));
#241=CARTESIAN_POINT('Origin',(94.6815980008787,0.,228.581598000879));
#242=CARTESIAN_POINT('Origin',(0.,0.,0.));
#243=CARTESIAN_POINT('polyline point',(94.6815980008787,0.,228.581598000879));
#244=CARTESIAN_POINT('polyline point',(21.9669914110089,0.,155.866991411009));
#245=CARTESIAN_POINT('polyline point',(0.,0.,102.833982822018));
#246=CARTESIAN_POINT('polyline point',(0.,0.,0.));
#247=CARTESIAN_POINT('Origin',(75.,0.,102.833982822018));
#248=CARTESIAN_POINT('',(21.9669914110089,0.,155.866991411009));
#249=CARTESIAN_POINT('',(0.,0.,102.833982822018));
#250=UNCERTAINTY_MEASURE_WITH_UNIT(LENGTH_MEASURE(0.01),#254,
'DISTANCE_ACCURACY_VALUE',
'Maximum model space distance between geometric entities at asserted c
onnectivities');
#251=UNCERTAINTY_MEASURE_WITH_UNIT(LENGTH_MEASURE(0.01),#254,
'DISTANCE_ACCURACY_VALUE',
'Maximum model space distance between geometric entities at asserted c
onnectivities');
#252=(
GEOMETRIC_REPRESENTATION_CONTEXT(3)
GLOBAL_UNCERTAINTY_ASSIGNED_CONTEXT((#250))
GLOBAL_UNIT_ASSIGNED_CONTEXT((#254,#256,#257))
REPRESENTATION_CONTEXT('','3D')
);
#253=(
GEOMETRIC_REPRESENTATION_CONTEXT(3)
GLOBAL_UNCERTAINTY_ASSIGNED_CONTEXT((#251))
GLOBAL_UNIT_ASSIGNED_CONTEXT((#254,#256,#257))
REPRESENTATION_CONTEXT('','3D')
);
#254=(
LENGTH_UNIT()
NAMED_UNIT(*)
SI_UNIT(.MILLI.,.METRE.)
);
#255=(
LENGTH_UNIT()
NAMED_UNIT(*)
SI_UNIT(.CENTI.,.METRE.)
);
#256=(
NAMED_UNIT(*)
PLANE_ANGLE_UNIT()
SI_UNIT($,.RADIAN.)
);
#257=(
NAMED_UNIT(*)
SI_UNIT($,.STERADIAN.)
SOLID_ANGLE_UNIT()
);
#258=SHAPE_DEFINITION_REPRESENTATION(#259,#260);
#259=PRODUCT_DEFINITION_SHAPE('',$,#262);
#260=SHAPE_REPRESENTATION('',(#148),#252);
#261=PRODUCT_DEFINITION_CONTEXT('part definition',#266,'design');
#262=PRODUCT_DEFINITION('N0001_003_001_117','N0001_003_001',#263,#261);
#263=PRODUCT_DEFINITION_FORMATION('00',$,#268);
#264=PRODUCT_RELATED_PRODUCT_CATEGORY('N0001_003_001','N0001_003_001',(#268));
#265=APPLICATION_PROTOCOL_DEFINITION('international standard',
'automotive_design',2009,#266);
#266=APPLICATION_CONTEXT(
'Core Data for Automotive Mechanical Design Process');
#267=PRODUCT_CONTEXT('part definition',#266,'mechanical');
#268=PRODUCT('N0001_003_001_117','N0001_003_001',
'Elbow 139,7x2,6_45 deg',(#267));
#269=PRESENTATION_STYLE_ASSIGNMENT((#271));
#270=PRESENTATION_STYLE_ASSIGNMENT((#272));
#271=SURFACE_STYLE_USAGE(.BOTH.,#275);
#272=SURFACE_STYLE_USAGE(.BOTH.,#276);
#273=SURFACE_STYLE_RENDERING_WITH_PROPERTIES($,#283,(#274));
#274=SURFACE_STYLE_TRANSPARENT(0.);
#275=SURFACE_SIDE_STYLE('',(#277,#273));
#276=SURFACE_SIDE_STYLE('',(#278));
#277=SURFACE_STYLE_FILL_AREA(#279);
#278=SURFACE_STYLE_FILL_AREA(#280);
#279=FILL_AREA_STYLE('',(#281));
#280=FILL_AREA_STYLE('',(#282));
#281=FILL_AREA_STYLE_COLOUR('',#283);
#282=FILL_AREA_STYLE_COLOUR('',#284);
#283=COLOUR_RGB('',0.87843137254902,0.874509803921569,0.858823529411765);
#284=COLOUR_RGB('',0.2,0.,0.498039215686275);
ENDSEC;
END-ISO-10303-21;
