ISO-10303-21;
HEADER;
FILE_DESCRIPTION (( 'STEP AP203' ),
    '1' );
FILE_NAME ('3D_GR1174_DN33.7x2_18380650.STEP',
    '2024-09-23T06:18:05',
    ( '' ),
    ( '' ),
    'SwSTEP 2.0',
    'SolidWorks 2024',
    '' );
FILE_SCHEMA (( 'CONFIG_CONTROL_DESIGN' ));
ENDSEC;

DATA;
#1 = APPROVAL_STATUS ( 'not_yet_approved' ) ;
#2 = VERTEX_POINT ( 'NONE', #207 ) ;
#3 = AXIS2_PLACEMENT_3D ( 'NONE', #281, #59, #140 ) ;
#4 =( LENGTH_UNIT ( ) NAMED_UNIT ( * ) SI_UNIT ( .MILLI., .METRE. ) );
#5 = ORIENTED_EDGE ( 'NONE', *, *, #156, .T. ) ;
#6 = CIRCLE ( 'NONE', #232, 16.85000000000001918 ) ;
#7 = VECTOR ( 'NONE', #348, 1000.000000000000000 ) ;
#8 = EDGE_CURVE ( 'NONE', #238, #336, #261, .T. ) ;
#9 = DIRECTION ( 'NONE',  ( -1.000000000000000000, -0.000000000000000000, -0.000000000000000000 ) ) ;
#10 = EDGE_CURVE ( 'NONE', #28, #196, #267, .T. ) ;
#11 = CARTESIAN_POINT ( 'NONE',  ( 8.000000000000007105, 0.000000000000000000, 13.85000000000002274 ) ) ;
#12 = DIRECTION ( 'NONE',  ( -1.000000000000000000, -0.000000000000000000, -0.000000000000000000 ) ) ;
#13 = CALENDAR_DATE ( 2024, 23, 9 ) ;
#14 = CARTESIAN_POINT ( 'NONE',  ( -1.500000000000001332, 0.000000000000000000, 16.85000000000001563 ) ) ;
#15 = AXIS2_PLACEMENT_3D ( 'NONE', #184, #217, #185 ) ;
#16 = EDGE_CURVE ( 'NONE', #252, #336, #27, .T. ) ;
#17 = DIRECTION ( 'NONE',  ( -1.000000000000000000, -0.000000000000000000, -0.000000000000000000 ) ) ;
#18 = DIRECTION ( 'NONE',  ( 0.000000000000000000, 0.000000000000000000, 1.000000000000000000 ) ) ;
#19 = LOCAL_TIME ( 8, 18, 5.000000000000000000, #29 ) ;
#20 = DIRECTION ( 'NONE',  ( -1.000000000000000000, -0.000000000000000000, -0.000000000000000000 ) ) ;
#21 = ADVANCED_FACE ( 'NONE', ( #210 ), #66, .T. ) ;
#22 = DIRECTION ( 'NONE',  ( 0.000000000000000000, 0.000000000000000000, 1.000000000000000000 ) ) ;
#23 = FACE_OUTER_BOUND ( 'NONE', #310, .T. ) ;
#24 = DIRECTION ( 'NONE',  ( 0.000000000000000000, 0.000000000000000000, 1.000000000000000000 ) ) ;
#25 = MECHANICAL_CONTEXT ( 'NONE', #244, 'mechanical' ) ;
#26 = ADVANCED_FACE ( 'NONE', ( #71 ), #347, .T. ) ;
#27 = CIRCLE ( 'NONE', #214, 15.35000000000001918 ) ;
#28 = VERTEX_POINT ( 'NONE', #178 ) ;
#29 = COORDINATED_UNIVERSAL_TIME_OFFSET ( 1, 0, .AHEAD. ) ;
#30 = VERTEX_POINT ( 'NONE', #292 ) ;
#31 = VERTEX_POINT ( 'NONE', #318 ) ;
#32 = CC_DESIGN_PERSON_AND_ORGANIZATION_ASSIGNMENT ( #165, #287, ( #36 ) ) ;
#33 = EDGE_LOOP ( 'NONE', ( #114, #120 ) ) ;
#34 = AXIS2_PLACEMENT_3D ( 'NONE', #95, #17, #177 ) ;
#35 = ORIENTED_EDGE ( 'NONE', *, *, #186, .T. ) ;
#36 = PRODUCT_DEFINITION ( 'UNKNOWN', '', #98, #352 ) ;
#37 = LOCAL_TIME ( 8, 18, 5.000000000000000000, #107 ) ;
#38 = DIRECTION ( 'NONE',  ( 0.000000000000000000, 0.000000000000000000, 1.000000000000000000 ) ) ;
#39 = CARTESIAN_POINT ( 'NONE',  ( 0.000000000000000000, 0.000000000000000000, 0.000000000000000000 ) ) ;
#40 = DIRECTION ( 'NONE',  ( 0.000000000000000000, 0.000000000000000000, 1.000000000000000000 ) ) ;
#41 = FACE_OUTER_BOUND ( 'NONE', #141, .T. ) ;
#42 = VECTOR ( 'NONE', #183, 1000.000000000000000 ) ;
#43 = CARTESIAN_POINT ( 'NONE',  ( 8.000000000000007105, 0.000000000000000000, 0.000000000000000000 ) ) ;
#44 = CARTESIAN_POINT ( 'NONE',  ( -3.000000000000002665, 0.000000000000000000, 15.35000000000001918 ) ) ;
#45 = EDGE_CURVE ( 'NONE', #2, #108, #263, .T. ) ;
#46 = LOCAL_TIME ( 8, 18, 5.000000000000000000, #143 ) ;
#47 = DIRECTION ( 'NONE',  ( -1.000000000000000000, -0.000000000000000000, -0.000000000000000000 ) ) ;
#48 = AXIS2_PLACEMENT_3D ( 'NONE', #65, #209, #149 ) ;
#49 = CONICAL_SURFACE ( 'NONE', #256, 13.85000000000002274, 0.7853981633974473908 ) ;
#50 = CARTESIAN_POINT ( 'NONE',  ( -3.000000000000002665, 0.000000000000000000, 0.000000000000000000 ) ) ;
#51 = ADVANCED_FACE ( 'NONE', ( #293, #262 ), #180, .F. ) ;
#52 = FACE_OUTER_BOUND ( 'NONE', #198, .T. ) ;
#53 = ORIENTED_EDGE ( 'NONE', *, *, #247, .F. ) ;
#54 = CALENDAR_DATE ( 2024, 23, 9 ) ;
#55 = TOROIDAL_SURFACE ( 'NONE', #255, 15.35000000000001918, 1.499999999999997558 ) ;
#56 = ORIENTED_EDGE ( 'NONE', *, *, #226, .F. ) ;
#57 = EDGE_CURVE ( 'NONE', #30, #28, #147, .T. ) ;
#58 = ORIENTED_EDGE ( 'NONE', *, *, #226, .T. ) ;
#59 = DIRECTION ( 'NONE',  ( 0.000000000000000000, 0.000000000000000000, 1.000000000000000000 ) ) ;
#60 = ORIENTED_EDGE ( 'NONE', *, *, #8, .F. ) ;
#61 = PERSON_AND_ORGANIZATION ( #273, #145 ) ;
#62 = ORIENTED_EDGE ( 'NONE', *, *, #332, .T. ) ;
#63 = AXIS2_PLACEMENT_3D ( 'NONE', #239, #291, #125 ) ;
#64 = AXIS2_PLACEMENT_3D ( 'NONE', #272, #131, #355 ) ;
#65 = CARTESIAN_POINT ( 'NONE',  ( -1.500000000000000888, 1.879832836691189888E-15, -15.35000000000001918 ) ) ;
#66 = CYLINDRICAL_SURFACE ( 'NONE', #219, 14.85000000000001918 ) ;
#67 = CARTESIAN_POINT ( 'NONE',  ( 0.000000000000000000, 0.000000000000000000, 0.000000000000000000 ) ) ;
#68 = MANIFOLD_SOLID_BREP ( 'Rotation1', #104 ) ;
#69 = ORIENTED_EDGE ( 'NONE', *, *, #90, .T. ) ;
#70 = EDGE_CURVE ( 'NONE', #238, #108, #313, .T. ) ;
#71 = FACE_OUTER_BOUND ( 'NONE', #85, .T. ) ;
#72 = DIRECTION ( 'NONE',  ( 1.000000000000000000, 0.000000000000000000, 0.000000000000000000 ) ) ;
#73 = VECTOR ( 'NONE', #146, 1000.000000000000000 ) ;
#74 = DIRECTION ( 'NONE',  ( 0.000000000000000000, 0.000000000000000000, 1.000000000000000000 ) ) ;
#75 = DIRECTION ( 'NONE',  ( 0.000000000000000000, 0.000000000000000000, 1.000000000000000000 ) ) ;
#76 = CARTESIAN_POINT ( 'NONE',  ( 0.000000000000000000, 0.000000000000000000, 14.85000000000001918 ) ) ;
#77 = CIRCLE ( 'NONE', #220, 13.85000000000002274 ) ;
#78 = FACE_OUTER_BOUND ( 'NONE', #33, .T. ) ;
#79 = DATE_AND_TIME ( #195, #19 ) ;
#80 = VERTEX_POINT ( 'NONE', #345 ) ;
#81 = EDGE_CURVE ( 'NONE', #80, #2, #6, .T. ) ;
#82 = DATE_AND_TIME ( #54, #271 ) ;
#83 = EDGE_LOOP ( 'NONE', ( #111, #346 ) ) ;
#84 = APPLICATION_PROTOCOL_DEFINITION ( 'international standard', 'config_control_design', 1994, #167 ) ;
#85 = EDGE_LOOP ( 'NONE', ( #223, #201, #338, #91 ) ) ;
#86 = DATE_AND_TIME ( #160, #109 ) ;
#87 = EDGE_LOOP ( 'NONE', ( #56, #5, #304, #116 ) ) ;
#88 = DATE_AND_TIME ( #13, #46 ) ;
#89 = DIRECTION ( 'NONE',  ( -1.000000000000000000, -0.000000000000000000, -0.000000000000000000 ) ) ;
#90 = EDGE_CURVE ( 'NONE', #108, #252, #100, .T. ) ;
#91 = ORIENTED_EDGE ( 'NONE', *, *, #332, .F. ) ;
#92 = ORIENTED_EDGE ( 'NONE', *, *, #45, .F. ) ;
#93 = CC_DESIGN_APPROVAL ( #327, ( #316 ) ) ;
#94 = APPROVAL ( #249, 'UNSPECIFIED' ) ;
#95 = CARTESIAN_POINT ( 'NONE',  ( -154.8395502972293230, 0.000000000000000000, 0.000000000000000000 ) ) ;
#96 = ORIENTED_EDGE ( 'NONE', *, *, #247, .T. ) ;
#97 = CARTESIAN_POINT ( 'NONE',  ( 0.000000000000000000, 1.818600496733821920E-15, -14.85000000000001918 ) ) ;
#98 = PRODUCT_DEFINITION_FORMATION_WITH_SPECIFIED_SOURCE ( 'ANY', '', #331, .NOT_KNOWN. ) ;
#99 = CARTESIAN_POINT ( 'NONE',  ( -154.8395502972293230, 0.000000000000000000, 0.000000000000000000 ) ) ;
#100 = CIRCLE ( 'NONE', #280, 1.499999999999997780 ) ;
#101 = CARTESIAN_POINT ( 'NONE',  ( -154.8395502972293230, 0.000000000000000000, 0.000000000000000000 ) ) ;
#102 = DIRECTION ( 'NONE',  ( -1.000000000000000000, -0.000000000000000000, -0.000000000000000000 ) ) ;
#103 = LINE ( 'NONE', #296, #112 ) ;
#104 = CLOSED_SHELL ( 'NONE', ( #148, #215, #21, #340, #176, #301, #26, #51, #206, #121, #236 ) ) ;
#105 = CIRCLE ( 'NONE', #15, 14.85000000000002096 ) ;
#106 = DATE_TIME_ROLE ( 'creation_date' ) ;
#107 = COORDINATED_UNIVERSAL_TIME_OFFSET ( 1, 0, .AHEAD. ) ;
#108 = VERTEX_POINT ( 'NONE', #14 ) ;
#109 = LOCAL_TIME ( 8, 18, 5.000000000000000000, #339 ) ;
#110 = PERSON_AND_ORGANIZATION ( #273, #145 ) ;
#111 = ORIENTED_EDGE ( 'NONE', *, *, #200, .F. ) ;
#112 = VECTOR ( 'NONE', #47, 1000.000000000000000 ) ;
#113 = AXIS2_PLACEMENT_3D ( 'NONE', #126, #275, #240 ) ;
#114 = ORIENTED_EDGE ( 'NONE', *, *, #269, .F. ) ;
#115 = PERSON_AND_ORGANIZATION ( #273, #145 ) ;
#116 = ORIENTED_EDGE ( 'NONE', *, *, #323, .F. ) ;
#117 = EDGE_CURVE ( 'NONE', #196, #284, #356, .T. ) ;
#118 = CARTESIAN_POINT ( 'NONE',  ( -154.8395502972293230, 0.000000000000000000, 16.85000000000001918 ) ) ;
#119 = APPROVAL_ROLE ( '' ) ;
#120 = ORIENTED_EDGE ( 'NONE', *, *, #156, .F. ) ;
#121 = ADVANCED_FACE ( 'NONE', ( #41 ), #55, .T. ) ;
#122 = DIRECTION ( 'NONE',  ( 0.000000000000000000, 0.000000000000000000, 1.000000000000000000 ) ) ;
#123 = DIRECTION ( 'NONE',  ( -1.000000000000000000, -0.000000000000000000, -0.000000000000000000 ) ) ;
#124 = AXIS2_PLACEMENT_3D ( 'NONE', #213, #302, #153 ) ;
#125 = DIRECTION ( 'NONE',  ( -0.000000000000000000, 0.000000000000000000, 1.000000000000000000 ) ) ;
#126 = CARTESIAN_POINT ( 'NONE',  ( 8.000000000000007105, 0.000000000000000000, 0.000000000000000000 ) ) ;
#127 = CC_DESIGN_PERSON_AND_ORGANIZATION_ASSIGNMENT ( #172, #221, ( #98 ) ) ;
#128 = DIRECTION ( 'NONE',  ( -1.000000000000000000, -0.000000000000000000, -0.000000000000000000 ) ) ;
#129 = DIRECTION ( 'NONE',  ( -1.000000000000000000, -0.000000000000000000, -0.000000000000000000 ) ) ;
#130 = EDGE_CURVE ( 'NONE', #80, #238, #151, .T. ) ;
#131 = DIRECTION ( 'NONE',  ( -1.000000000000000000, -0.000000000000000000, -0.000000000000000000 ) ) ;
#132 = DIRECTION ( 'NONE',  ( 0.000000000000000000, 0.000000000000000000, 1.000000000000000000 ) ) ;
#133 = CIRCLE ( 'NONE', #139, 13.85000000000002274 ) ;
#134 = CC_DESIGN_PERSON_AND_ORGANIZATION_ASSIGNMENT ( #168, #138, ( #331 ) ) ;
#135 = EDGE_LOOP ( 'NONE', ( #96, #164, #283, #203 ) ) ;
#136 = DATE_AND_TIME ( #222, #37 ) ;
#137 = ORIENTED_EDGE ( 'NONE', *, *, #130, .F. ) ;
#138 = PERSON_AND_ORGANIZATION_ROLE ( 'design_owner' ) ;
#139 = AXIS2_PLACEMENT_3D ( 'NONE', #43, #128, #74 ) ;
#140 = DIRECTION ( 'NONE',  ( 1.000000000000000000, 0.000000000000000000, 0.000000000000000000 ) ) ;
#141 = EDGE_LOOP ( 'NONE', ( #60, #308, #69, #161 ) ) ;
#142 = APPROVAL ( #1, 'UNSPECIFIED' ) ;
#143 = COORDINATED_UNIVERSAL_TIME_OFFSET ( 1, 0, .AHEAD. ) ;
#144 = ORIENTED_EDGE ( 'NONE', *, *, #117, .T. ) ;
#145 = ORGANIZATION ( 'UNSPECIFIED', 'UNSPECIFIED', '' ) ;
#146 = DIRECTION ( 'NONE',  ( -1.000000000000000000, -0.000000000000000000, -0.000000000000000000 ) ) ;
#147 = LINE ( 'NONE', #11, #285 ) ;
#148 = ADVANCED_FACE ( 'NONE', ( #243 ), #248, .T. ) ;
#149 = DIRECTION ( 'NONE',  ( 0.000000000000000000, -1.224646799147353700E-16, 1.000000000000000000 ) ) ;
#150 = CARTESIAN_POINT ( 'NONE',  ( -154.8395502972293230, 0.000000000000000000, 0.000000000000000000 ) ) ;
#151 = LINE ( 'NONE', #326, #42 ) ;
#152 = DIRECTION ( 'NONE',  ( -0.000000000000000000, 0.000000000000000000, 1.000000000000000000 ) ) ;
#153 = DIRECTION ( 'NONE',  ( 0.000000000000000000, 0.000000000000000000, 1.000000000000000000 ) ) ;
#154 = APPROVAL_PERSON_ORGANIZATION ( #317, #327, #119 ) ;
#155 = DIRECTION ( 'NONE',  ( -1.000000000000000000, -0.000000000000000000, -0.000000000000000000 ) ) ;
#156 = EDGE_CURVE ( 'NONE', #342, #30, #133, .T. ) ;
#157 = CIRCLE ( 'NONE', #64, 14.85000000000001918 ) ;
#158 = FACE_OUTER_BOUND ( 'NONE', #225, .T. ) ;
#159 = PLANE ( 'NONE',  #162 ) ;
#160 = CALENDAR_DATE ( 2024, 23, 9 ) ;
#161 = ORIENTED_EDGE ( 'NONE', *, *, #186, .F. ) ;
#162 = AXIS2_PLACEMENT_3D ( 'NONE', #190, #325, #152 ) ;
#163 = PERSON_AND_ORGANIZATION_ROLE ( 'creator' ) ;
#164 = ORIENTED_EDGE ( 'NONE', *, *, #194, .T. ) ;
#165 = PERSON_AND_ORGANIZATION ( #273, #145 ) ;
#166 = EDGE_LOOP ( 'NONE', ( #137, #258, #233, #257 ) ) ;
#167 = APPLICATION_CONTEXT ( 'configuration controlled 3d designs of mechanical parts and assemblies' ) ;
#168 = PERSON_AND_ORGANIZATION ( #273, #145 ) ;
#169 = EDGE_LOOP ( 'NONE', ( #288, #312, #279, #341 ) ) ;
#170 = CC_DESIGN_PERSON_AND_ORGANIZATION_ASSIGNMENT ( #110, #357, ( #316 ) ) ;
#171 = AXIS2_PLACEMENT_3D ( 'NONE', #101, #155, #22 ) ;
#172 = PERSON_AND_ORGANIZATION ( #273, #145 ) ;
#173 = ORIENTED_EDGE ( 'NONE', *, *, #57, .F. ) ;
#174 = APPROVAL_DATE_TIME ( #88, #327 ) ;
#175 = CARTESIAN_POINT ( 'NONE',  ( -3.000000000000002665, 0.000000000000000000, 0.000000000000000000 ) ) ;
#176 = ADVANCED_FACE ( 'NONE', ( #78 ), #159, .F. ) ;
#177 = DIRECTION ( 'NONE',  ( 0.000000000000000000, 0.000000000000000000, 1.000000000000000000 ) ) ;
#178 = CARTESIAN_POINT ( 'NONE',  ( 7.000000000000006217, 0.000000000000000000, 14.85000000000002096 ) ) ;
#179 = DIRECTION ( 'NONE',  ( 0.000000000000000000, 0.000000000000000000, 1.000000000000000000 ) ) ;
#180 = PLANE ( 'NONE',  #63 ) ;
#181 = UNCERTAINTY_MEASURE_WITH_UNIT (LENGTH_MEASURE( 1.000000000000000082E-05 ), #4, 'distance_accuracy_value', 'NONE');
#182 = EDGE_CURVE ( 'NONE', #108, #238, #307, .T. ) ;
#183 = DIRECTION ( 'NONE',  ( -1.000000000000000000, -0.000000000000000000, -0.000000000000000000 ) ) ;
#184 = CARTESIAN_POINT ( 'NONE',  ( 7.000000000000006217, 0.000000000000000000, 0.000000000000000000 ) ) ;
#185 = DIRECTION ( 'NONE',  ( 0.000000000000000000, 0.000000000000000000, 1.000000000000000000 ) ) ;
#186 = EDGE_CURVE ( 'NONE', #336, #252, #274, .T. ) ;
#187 = CYLINDRICAL_SURFACE ( 'NONE', #189, 16.85000000000001918 ) ;
#188 = AXIS2_PLACEMENT_3D ( 'NONE', #50, #245, #75 ) ;
#189 = AXIS2_PLACEMENT_3D ( 'NONE', #99, #268, #132 ) ;
#190 = CARTESIAN_POINT ( 'NONE',  ( 8.000000000000001776, 1.734723475976807094E-15, 0.000000000000000000 ) ) ;
#191 = DIRECTION ( 'NONE',  ( -1.000000000000000000, -0.000000000000000000, -0.000000000000000000 ) ) ;
#192 = ORIENTED_EDGE ( 'NONE', *, *, #130, .T. ) ;
#193 = CC_DESIGN_APPROVAL ( #94, ( #36 ) ) ;
#194 = EDGE_CURVE ( 'NONE', #31, #284, #103, .T. ) ;
#195 = CALENDAR_DATE ( 2024, 23, 9 ) ;
#196 = VERTEX_POINT ( 'NONE', #76 ) ;
#197 =( NAMED_UNIT ( * ) SI_UNIT ( $, .STERADIAN. ) SOLID_ANGLE_UNIT ( ) );
#198 = EDGE_LOOP ( 'NONE', ( #250, #58, #53, #173 ) ) ;
#199 =( NAMED_UNIT ( * ) PLANE_ANGLE_UNIT ( ) SI_UNIT ( $, .RADIAN. ) );
#200 = EDGE_CURVE ( 'NONE', #2, #80, #329, .T. ) ;
#201 = ORIENTED_EDGE ( 'NONE', *, *, #323, .T. ) ;
#202 = PERSON_AND_ORGANIZATION ( #273, #145 ) ;
#203 = ORIENTED_EDGE ( 'NONE', *, *, #10, .F. ) ;
#204 = AXIS2_PLACEMENT_3D ( 'NONE', #39, #123, #321 ) ;
#205 = CARTESIAN_POINT ( 'NONE',  ( -154.8395502972293230, 0.000000000000000000, 14.85000000000001918 ) ) ;
#206 = ADVANCED_FACE ( 'NONE', ( #298 ), #187, .T. ) ;
#207 = CARTESIAN_POINT ( 'NONE',  ( 0.000000000000000000, 0.000000000000000000, 16.85000000000001918 ) ) ;
#208 =( GEOMETRIC_REPRESENTATION_CONTEXT ( 3 ) GLOBAL_UNCERTAINTY_ASSIGNED_CONTEXT ( ( #181 ) ) GLOBAL_UNIT_ASSIGNED_CONTEXT ( ( #4, #199, #197 ) ) REPRESENTATION_CONTEXT ( 'NONE', 'WORKASPACE' ) );
#209 = DIRECTION ( 'NONE',  ( -0.000000000000000000, 1.000000000000000000, 1.224646799147353207E-16 ) ) ;
#210 = FACE_OUTER_BOUND ( 'NONE', #135, .T. ) ;
#211 = DIRECTION ( 'NONE',  ( -0.7071067811865482389, 0.000000000000000000, 0.7071067811865469066 ) ) ;
#212 = DIRECTION ( 'NONE',  ( 0.000000000000000000, 0.000000000000000000, -1.000000000000000000 ) ) ;
#213 = CARTESIAN_POINT ( 'NONE',  ( -1.500000000000001332, 0.000000000000000000, 0.000000000000000000 ) ) ;
#214 = AXIS2_PLACEMENT_3D ( 'NONE', #175, #315, #40 ) ;
#215 = ADVANCED_FACE ( 'NONE', ( #158 ), #322, .T. ) ;
#216 = CARTESIAN_POINT ( 'NONE',  ( -1.500000000000000888, 0.000000000000000000, 0.000000000000000000 ) ) ;
#217 = DIRECTION ( 'NONE',  ( -1.000000000000000000, -0.000000000000000000, -0.000000000000000000 ) ) ;
#218 = CARTESIAN_POINT ( 'NONE',  ( 8.000000000000007105, 1.696135816819086969E-15, -13.85000000000002274 ) ) ;
#219 = AXIS2_PLACEMENT_3D ( 'NONE', #150, #234, #38 ) ;
#220 = AXIS2_PLACEMENT_3D ( 'NONE', #354, #129, #297 ) ;
#221 = PERSON_AND_ORGANIZATION_ROLE ( 'design_supplier' ) ;
#222 = CALENDAR_DATE ( 2024, 23, 9 ) ;
#223 = ORIENTED_EDGE ( 'NONE', *, *, #194, .F. ) ;
#224 = CARTESIAN_POINT ( 'NONE',  ( 8.000000000000007105, 0.000000000000000000, 0.000000000000000000 ) ) ;
#225 = EDGE_LOOP ( 'NONE', ( #230, #192, #253, #92 ) ) ;
#226 = EDGE_CURVE ( 'NONE', #342, #31, #299, .T. ) ;
#227 = APPLICATION_PROTOCOL_DEFINITION ( 'international standard', 'config_control_design', 1994, #244 ) ;
#228 = ORIENTED_EDGE ( 'NONE', *, *, #16, .T. ) ;
#229 = APPROVAL_ROLE ( '' ) ;
#230 = ORIENTED_EDGE ( 'NONE', *, *, #200, .T. ) ;
#231 = PRODUCT_RELATED_PRODUCT_CATEGORY ( 'detail', '', ( #331 ) ) ;
#232 = AXIS2_PLACEMENT_3D ( 'NONE', #67, #12, #122 ) ;
#233 = ORIENTED_EDGE ( 'NONE', *, *, #45, .T. ) ;
#234 = DIRECTION ( 'NONE',  ( -1.000000000000000000, -0.000000000000000000, -0.000000000000000000 ) ) ;
#235 = DIRECTION ( 'NONE',  ( 0.000000000000000000, 0.000000000000000000, -1.000000000000000000 ) ) ;
#236 = ADVANCED_FACE ( 'NONE', ( #23 ), #324, .F. ) ;
#237 = AXIS2_PLACEMENT_3D ( 'NONE', #242, #277, #24 ) ;
#238 = VERTEX_POINT ( 'NONE', #351 ) ;
#239 = CARTESIAN_POINT ( 'NONE',  ( -6.735557395310119576E-16, 14.85000000000001918, 0.000000000000000000 ) ) ;
#240 = DIRECTION ( 'NONE',  ( 0.000000000000000000, 0.000000000000000000, 1.000000000000000000 ) ) ;
#241 = CC_DESIGN_APPROVAL ( #142, ( #98 ) ) ;
#242 = CARTESIAN_POINT ( 'NONE',  ( 0.000000000000000000, 0.000000000000000000, 0.000000000000000000 ) ) ;
#243 = FACE_OUTER_BOUND ( 'NONE', #169, .T. ) ;
#244 = APPLICATION_CONTEXT ( 'configuration controlled 3d designs of mechanical parts and assemblies' ) ;
#245 = DIRECTION ( 'NONE',  ( -1.000000000000000000, -0.000000000000000000, -0.000000000000000000 ) ) ;
#246 = APPROVAL_DATE_TIME ( #79, #94 ) ;
#247 = EDGE_CURVE ( 'NONE', #28, #31, #105, .T. ) ;
#248 = TOROIDAL_SURFACE ( 'NONE', #295, 15.35000000000001918, 1.499999999999997558 ) ;
#249 = APPROVAL_STATUS ( 'not_yet_approved' ) ;
#250 = ORIENTED_EDGE ( 'NONE', *, *, #269, .T. ) ;
#251 = DATE_TIME_ROLE ( 'classification_date' ) ;
#252 = VERTEX_POINT ( 'NONE', #44 ) ;
#253 = ORIENTED_EDGE ( 'NONE', *, *, #182, .F. ) ;
#254 = ADVANCED_BREP_SHAPE_REPRESENTATION ( '3D_GR1174_DN33.7x2_18380650', ( #68, #3 ), #208 ) ;
#255 = AXIS2_PLACEMENT_3D ( 'NONE', #314, #9, #344 ) ;
#256 = AXIS2_PLACEMENT_3D ( 'NONE', #224, #191, #282 ) ;
#257 = ORIENTED_EDGE ( 'NONE', *, *, #70, .F. ) ;
#258 = ORIENTED_EDGE ( 'NONE', *, *, #81, .T. ) ;
#259 = CC_DESIGN_SECURITY_CLASSIFICATION ( #316, ( #98 ) ) ;
#260 = CARTESIAN_POINT ( 'NONE',  ( -1.500000000000001332, 0.000000000000000000, 0.000000000000000000 ) ) ;
#261 = CIRCLE ( 'NONE', #48, 1.499999999999997780 ) ;
#262 = FACE_BOUND ( 'NONE', #334, .T. ) ;
#263 = LINE ( 'NONE', #118, #73 ) ;
#264 = APPROVAL_STATUS ( 'not_yet_approved' ) ;
#265 = DIRECTION ( 'NONE',  ( -1.000000000000000000, -0.000000000000000000, -0.000000000000000000 ) ) ;
#266 = AXIS2_PLACEMENT_3D ( 'NONE', #270, #20, #350 ) ;
#267 = LINE ( 'NONE', #205, #343 ) ;
#268 = DIRECTION ( 'NONE',  ( -1.000000000000000000, -0.000000000000000000, -0.000000000000000000 ) ) ;
#269 = EDGE_CURVE ( 'NONE', #30, #342, #77, .T. ) ;
#270 = CARTESIAN_POINT ( 'NONE',  ( 7.000000000000006217, 0.000000000000000000, 0.000000000000000000 ) ) ;
#271 = LOCAL_TIME ( 8, 18, 5.000000000000000000, #311 ) ;
#272 = CARTESIAN_POINT ( 'NONE',  ( 0.000000000000000000, 0.000000000000000000, 0.000000000000000000 ) ) ;
#273 = PERSON ( 'UNSPECIFIED', 'UNSPECIFIED', 'UNSPECIFIED', ('UNSPECIFIED'), ('UNSPECIFIED'), ('UNSPECIFIED') ) ;
#274 = CIRCLE ( 'NONE', #188, 15.35000000000001918 ) ;
#275 = DIRECTION ( 'NONE',  ( -1.000000000000000000, -0.000000000000000000, -0.000000000000000000 ) ) ;
#276 = PRODUCT_DEFINITION_SHAPE ( 'NONE', 'NONE',  #36 ) ;
#277 = DIRECTION ( 'NONE',  ( -1.000000000000000000, -0.000000000000000000, -0.000000000000000000 ) ) ;
#278 = SECURITY_CLASSIFICATION_LEVEL ( 'unclassified' ) ;
#279 = ORIENTED_EDGE ( 'NONE', *, *, #16, .F. ) ;
#280 = AXIS2_PLACEMENT_3D ( 'NONE', #294, #290, #235 ) ;
#281 = CARTESIAN_POINT ( 'NONE',  ( 0.000000000000000000, 0.000000000000000000, 0.000000000000000000 ) ) ;
#282 = DIRECTION ( 'NONE',  ( 0.000000000000000000, 0.000000000000000000, 1.000000000000000000 ) ) ;
#283 = ORIENTED_EDGE ( 'NONE', *, *, #117, .F. ) ;
#284 = VERTEX_POINT ( 'NONE', #97 ) ;
#285 = VECTOR ( 'NONE', #211, 1000.000000000000000 ) ;
#286 = CONICAL_SURFACE ( 'NONE', #113, 13.85000000000002274, 0.7853981633974473908 ) ;
#287 = PERSON_AND_ORGANIZATION_ROLE ( 'creator' ) ;
#288 = ORIENTED_EDGE ( 'NONE', *, *, #182, .T. ) ;
#289 = CC_DESIGN_PERSON_AND_ORGANIZATION_ASSIGNMENT ( #61, #163, ( #98 ) ) ;
#290 = DIRECTION ( 'NONE',  ( 0.000000000000000000, -1.000000000000000000, 0.000000000000000000 ) ) ;
#291 = DIRECTION ( 'NONE',  ( -1.000000000000000000, 0.000000000000000000, -0.000000000000000000 ) ) ;
#292 = CARTESIAN_POINT ( 'NONE',  ( 8.000000000000007105, 0.000000000000000000, 13.85000000000002274 ) ) ;
#293 = FACE_OUTER_BOUND ( 'NONE', #83, .T. ) ;
#294 = CARTESIAN_POINT ( 'NONE',  ( -1.500000000000000888, 0.000000000000000000, 15.35000000000001918 ) ) ;
#295 = AXIS2_PLACEMENT_3D ( 'NONE', #216, #102, #18 ) ;
#296 = CARTESIAN_POINT ( 'NONE',  ( -154.8395502972293230, 1.818600496733821920E-15, -14.85000000000001918 ) ) ;
#297 = DIRECTION ( 'NONE',  ( 0.000000000000000000, 0.000000000000000000, 1.000000000000000000 ) ) ;
#298 = FACE_OUTER_BOUND ( 'NONE', #166, .T. ) ;
#299 = LINE ( 'NONE', #218, #7 ) ;
#300 = AXIS2_PLACEMENT_3D ( 'NONE', #260, #265, #179 ) ;
#301 = ADVANCED_FACE ( 'NONE', ( #353 ), #286, .T. ) ;
#302 = DIRECTION ( 'NONE',  ( -1.000000000000000000, -0.000000000000000000, -0.000000000000000000 ) ) ;
#303 = CARTESIAN_POINT ( 'NONE',  ( -3.000000000000002665, 1.971681346627240855E-15, -15.35000000000001918 ) ) ;
#304 = ORIENTED_EDGE ( 'NONE', *, *, #57, .T. ) ;
#305 = APPROVAL_PERSON_ORGANIZATION ( #202, #142, #337 ) ;
#306 = CC_DESIGN_DATE_AND_TIME_ASSIGNMENT ( #136, #251, ( #316 ) ) ;
#307 = CIRCLE ( 'NONE', #124, 16.85000000000001563 ) ;
#308 = ORIENTED_EDGE ( 'NONE', *, *, #70, .T. ) ;
#309 = CARTESIAN_POINT ( 'NONE',  ( 8.000000000000007105, 1.757368156776454740E-15, -13.85000000000002274 ) ) ;
#310 = EDGE_LOOP ( 'NONE', ( #228, #35 ) ) ;
#311 = COORDINATED_UNIVERSAL_TIME_OFFSET ( 1, 0, .AHEAD. ) ;
#312 = ORIENTED_EDGE ( 'NONE', *, *, #8, .T. ) ;
#313 = CIRCLE ( 'NONE', #300, 16.85000000000001563 ) ;
#314 = CARTESIAN_POINT ( 'NONE',  ( -1.500000000000000888, 0.000000000000000000, 0.000000000000000000 ) ) ;
#315 = DIRECTION ( 'NONE',  ( -1.000000000000000000, -0.000000000000000000, -0.000000000000000000 ) ) ;
#316 = SECURITY_CLASSIFICATION ( '', '', #278 ) ;
#317 = PERSON_AND_ORGANIZATION ( #273, #145 ) ;
#318 = CARTESIAN_POINT ( 'NONE',  ( 7.000000000000006217, 1.818600496733822314E-15, -14.85000000000002096 ) ) ;
#319 = CIRCLE ( 'NONE', #266, 14.85000000000002096 ) ;
#320 = SHAPE_DEFINITION_REPRESENTATION ( #276, #254 ) ;
#321 = DIRECTION ( 'NONE',  ( 0.000000000000000000, 0.000000000000000000, 1.000000000000000000 ) ) ;
#322 = CYLINDRICAL_SURFACE ( 'NONE', #171, 16.85000000000001918 ) ;
#323 = EDGE_CURVE ( 'NONE', #31, #28, #319, .T. ) ;
#324 = PLANE ( 'NONE',  #330 ) ;
#325 = DIRECTION ( 'NONE',  ( -1.000000000000000000, 0.000000000000000000, -0.000000000000000000 ) ) ;
#326 = CARTESIAN_POINT ( 'NONE',  ( -154.8395502972293230, 2.063529856563292216E-15, -16.85000000000001918 ) ) ;
#327 = APPROVAL ( #264, 'UNSPECIFIED' ) ;
#328 = CARTESIAN_POINT ( 'NONE',  ( -2.999999999999998668, 15.35000000000001918, 0.000000000000000000 ) ) ;
#329 = CIRCLE ( 'NONE', #237, 16.85000000000001918 ) ;
#330 = AXIS2_PLACEMENT_3D ( 'NONE', #328, #72, #212 ) ;
#331 = PRODUCT ( '3D_GR1174_DN33.7x2_18380650', '3D_GR1174_DN33.7x2_18380650', '', ( #25 ) ) ;
#332 = EDGE_CURVE ( 'NONE', #284, #196, #157, .T. ) ;
#333 = APPROVAL_DATE_TIME ( #82, #142 ) ;
#334 = EDGE_LOOP ( 'NONE', ( #144, #62 ) ) ;
#335 = APPROVAL_PERSON_ORGANIZATION ( #115, #94, #229 ) ;
#336 = VERTEX_POINT ( 'NONE', #303 ) ;
#337 = APPROVAL_ROLE ( '' ) ;
#338 = ORIENTED_EDGE ( 'NONE', *, *, #10, .T. ) ;
#339 = COORDINATED_UNIVERSAL_TIME_OFFSET ( 1, 0, .AHEAD. ) ;
#340 = ADVANCED_FACE ( 'NONE', ( #52 ), #49, .T. ) ;
#341 = ORIENTED_EDGE ( 'NONE', *, *, #90, .F. ) ;
#342 = VERTEX_POINT ( 'NONE', #309 ) ;
#343 = VECTOR ( 'NONE', #89, 1000.000000000000000 ) ;
#344 = DIRECTION ( 'NONE',  ( 0.000000000000000000, 0.000000000000000000, 1.000000000000000000 ) ) ;
#345 = CARTESIAN_POINT ( 'NONE',  ( 0.000000000000000000, 2.063529856563292216E-15, -16.85000000000001918 ) ) ;
#346 = ORIENTED_EDGE ( 'NONE', *, *, #81, .F. ) ;
#347 = CYLINDRICAL_SURFACE ( 'NONE', #34, 14.85000000000001918 ) ;
#348 = DIRECTION ( 'NONE',  ( -0.7071067811865482389, 8.659560562354925463E-17, -0.7071067811865469066 ) ) ;
#349 = CC_DESIGN_DATE_AND_TIME_ASSIGNMENT ( #86, #106, ( #36 ) ) ;
#350 = DIRECTION ( 'NONE',  ( 0.000000000000000000, 0.000000000000000000, 1.000000000000000000 ) ) ;
#351 = CARTESIAN_POINT ( 'NONE',  ( -1.500000000000001332, 2.063529856563291822E-15, -16.85000000000001563 ) ) ;
#352 = DESIGN_CONTEXT ( 'detailed design', #167, 'design' ) ;
#353 = FACE_OUTER_BOUND ( 'NONE', #87, .T. ) ;
#354 = CARTESIAN_POINT ( 'NONE',  ( 8.000000000000007105, 0.000000000000000000, 0.000000000000000000 ) ) ;
#355 = DIRECTION ( 'NONE',  ( 0.000000000000000000, 0.000000000000000000, 1.000000000000000000 ) ) ;
#356 = CIRCLE ( 'NONE', #204, 14.85000000000001918 ) ;
#357 = PERSON_AND_ORGANIZATION_ROLE ( 'classification_officer' ) ;
ENDSEC;
END-ISO-10303-21;
