ISO-10303-21;
HEADER;
FILE_DESCRIPTION (( 'STEP AP203' ),
    '1' );
FILE_NAME ('3D_R1651_33.7x3.2_17352220.STEP',
    '2024-08-05T06:53:32',
    ( '' ),
    ( '' ),
    'SwSTEP 2.0',
    'SolidWorks 2024',
    '' );
FILE_SCHEMA (( 'CONFIG_CONTROL_DESIGN' ));
ENDSEC;

DATA;
#1 = CARTESIAN_POINT ( 'NONE',  ( -6.125816817647185505E-14, 0.000000000000000000, -21.14999999999999858 ) ) ;
#2 = ADVANCED_FACE ( 'NONE', ( #231 ), #188, .T. ) ;
#3 = FACE_OUTER_BOUND ( 'NONE', #194, .T. ) ;
#4 = CARTESIAN_POINT ( 'NONE',  ( -1.656899757902415350E-13, 0.000000000000000000, -54.84999999999999432 ) ) ;
#5 = PRODUCT_RELATED_PRODUCT_CATEGORY ( 'detail', '', ( #47 ) ) ;
#6 = DIRECTION ( 'NONE',  ( 0.000000000000000000, 1.000000000000000000, 0.000000000000000000 ) ) ;
#7 = LOCAL_TIME ( 8, 53, 32.00000000000000000, #107 ) ;
#8 = PERSON_AND_ORGANIZATION_ROLE ( 'classification_officer' ) ;
#9 = APPLICATION_PROTOCOL_DEFINITION ( 'international standard', 'config_control_design', 1994, #93 ) ;
#10 = APPROVAL_STATUS ( 'not_yet_approved' ) ;
#11 = ORIENTED_EDGE ( 'NONE', *, *, #148, .F. ) ;
#12 = DATE_AND_TIME ( #190, #7 ) ;
#13 = CC_DESIGN_PERSON_AND_ORGANIZATION_ASSIGNMENT ( #245, #186, ( #109 ) ) ;
#14 = ORIENTED_EDGE ( 'NONE', *, *, #167, .F. ) ;
#15 = APPLICATION_CONTEXT ( 'configuration controlled 3d designs of mechanical parts and assemblies' ) ;
#16 = ORIENTED_EDGE ( 'NONE', *, *, #102, .F. ) ;
#17 = ORIENTED_EDGE ( 'NONE', *, *, #70, .F. ) ;
#18 = CARTESIAN_POINT ( 'NONE',  ( -38.00000000000000000, 0.000000000000000000, -6.980486755139934999E-15 ) ) ;
#19 = CARTESIAN_POINT ( 'NONE',  ( -51.64999999999999858, 0.000000000000000000, -3.666639395186009524E-15 ) ) ;
#20 = CARTESIAN_POINT ( 'NONE',  ( 0.000000000000000000, -1.671642880836137099E-15, 0.000000000000000000 ) ) ;
#21 = DIRECTION ( 'NONE',  ( 0.000000000000000000, 0.000000000000000000, 1.000000000000000000 ) ) ;
#22 = CC_DESIGN_PERSON_AND_ORGANIZATION_ASSIGNMENT ( #169, #103, ( #47 ) ) ;
#23 = LOCAL_TIME ( 8, 53, 32.00000000000000000, #243 ) ;
#24 = AXIS2_PLACEMENT_3D ( 'NONE', #55, #195, #205 ) ;
#25 = DIRECTION ( 'NONE',  ( 0.000000000000000000, 0.000000000000000000, 1.000000000000000000 ) ) ;
#26 = APPROVAL_ROLE ( '' ) ;
#27 = EDGE_CURVE ( 'NONE', #147, #189, #168, .T. ) ;
#28 = DIRECTION ( 'NONE',  ( 3.098866694770613061E-15, 0.000000000000000000, 1.000000000000000000 ) ) ;
#29 = APPROVAL_PERSON_ORGANIZATION ( #250, #129, #112 ) ;
#30 = DIRECTION ( 'NONE',  ( -7.099011413719282643E-17, 0.000000000000000000, 1.000000000000000000 ) ) ;
#31 = AXIS2_PLACEMENT_3D ( 'NONE', #36, #59, #215 ) ;
#32 = VERTEX_POINT ( 'NONE', #236 ) ;
#33 = ORIENTED_EDGE ( 'NONE', *, *, #167, .T. ) ;
#34 = ORIENTED_EDGE ( 'NONE', *, *, #38, .F. ) ;
#35 = PRODUCT_DEFINITION_SHAPE ( 'NONE', 'NONE',  #91 ) ;
#36 = CARTESIAN_POINT ( 'NONE',  ( 0.000000000000000000, 0.000000000000000000, 0.000000000000000000 ) ) ;
#37 = LOCAL_TIME ( 8, 53, 32.00000000000000000, #51 ) ;
#38 = EDGE_CURVE ( 'NONE', #147, #87, #63, .T. ) ;
#39 = CARTESIAN_POINT ( 'NONE',  ( -1.177569344012833231E-13, 0.000000000000000000, -38.00000000000000000 ) ) ;
#40 = DIRECTION ( 'NONE',  ( -7.099011413719282643E-17, 0.000000000000000000, 1.000000000000000000 ) ) ;
#41 = ADVANCED_FACE ( 'NONE', ( #197 ), #145, .T. ) ;
#42 = DIRECTION ( 'NONE',  ( -1.000000000000000000, 0.000000000000000000, 3.098866694770613455E-15 ) ) ;
#43 = CARTESIAN_POINT ( 'NONE',  ( -21.14999999999999858, 0.000000000000000000, -5.784303331928235519E-15 ) ) ;
#44 = COORDINATED_UNIVERSAL_TIME_OFFSET ( 1, 0, .AHEAD. ) ;
#45 = APPROVAL_ROLE ( '' ) ;
#46 = DATE_TIME_ROLE ( 'creation_date' ) ;
#47 = PRODUCT ( '3D_R1651_33.7x3.2_17352220', '3D_R1651_33.7x3.2_17352220', '', ( #67 ) ) ;
#48 = PERSON_AND_ORGANIZATION_ROLE ( 'design_supplier' ) ;
#49 = ORIENTED_EDGE ( 'NONE', *, *, #27, .F. ) ;
#50 = CC_DESIGN_PERSON_AND_ORGANIZATION_ASSIGNMENT ( #201, #124, ( #91 ) ) ;
#51 = COORDINATED_UNIVERSAL_TIME_OFFSET ( 1, 0, .AHEAD. ) ;
#52 = UNCERTAINTY_MEASURE_WITH_UNIT (LENGTH_MEASURE( 1.000000000000000082E-05 ), #146, 'distance_accuracy_value', 'NONE');
#53 = ORIENTED_EDGE ( 'NONE', *, *, #86, .T. ) ;
#54 = CIRCLE ( 'NONE', #113, 13.65000000000000213 ) ;
#55 = CARTESIAN_POINT ( 'NONE',  ( 0.000000000000000000, 0.000000000000000000, 0.000000000000000000 ) ) ;
#56 = CIRCLE ( 'NONE', #126, 24.34999999999999787 ) ;
#57 = ORIENTED_EDGE ( 'NONE', *, *, #244, .F. ) ;
#58 = APPROVAL ( #104, 'UNSPECIFIED' ) ;
#59 = DIRECTION ( 'NONE',  ( 0.000000000000000000, 1.000000000000000000, 0.000000000000000000 ) ) ;
#60 = MANIFOLD_SOLID_BREP ( 'Wandung1', #216 ) ;
#61 = DIRECTION ( 'NONE',  ( -7.099011413719283875E-17, 0.000000000000000000, 1.000000000000000000 ) ) ;
#62 = EDGE_CURVE ( 'NONE', #114, #32, #89, .T. ) ;
#63 = CIRCLE ( 'NONE', #206, 21.14999999999999858 ) ;
#64 = CARTESIAN_POINT ( 'NONE',  ( 0.000000000000000000, -2.063529856563290244E-15, 0.000000000000000000 ) ) ;
#65 = DIRECTION ( 'NONE',  ( -1.000000000000000000, 0.000000000000000000, 3.098866694770613455E-15 ) ) ;
#66 = AXIS2_PLACEMENT_3D ( 'NONE', #116, #61, #217 ) ;
#67 = MECHANICAL_CONTEXT ( 'NONE', #93, 'mechanical' ) ;
#68 = APPROVAL_DATE_TIME ( #128, #58 ) ;
#69 = ORIENTED_EDGE ( 'NONE', *, *, #62, .T. ) ;
#70 = EDGE_CURVE ( 'NONE', #210, #114, #140, .T. ) ;
#71 = ORGANIZATION ( 'UNSPECIFIED', 'UNSPECIFIED', '' ) ;
#72 = CIRCLE ( 'NONE', #229, 13.65000000000000213 ) ;
#73 = VERTEX_POINT ( 'NONE', #184 ) ;
#74 = LOCAL_TIME ( 8, 53, 32.00000000000000000, #44 ) ;
#75 = EDGE_LOOP ( 'NONE', ( #57, #153, #106, #88 ) ) ;
#76 = LOCAL_TIME ( 8, 53, 32.00000000000000000, #165 ) ;
#77 = AXIS2_PLACEMENT_3D ( 'NONE', #239, #40, #120 ) ;
#78 = PLANE ( 'NONE',  #66 ) ;
#79 = CARTESIAN_POINT ( 'NONE',  ( -38.00000000000000000, 0.000000000000000000, -2.697624337213327404E-15 ) ) ;
#80 = DIRECTION ( 'NONE',  ( -1.000000000000000000, 0.000000000000000000, 3.098866694770613455E-15 ) ) ;
#81 = CARTESIAN_POINT ( 'NONE',  ( -54.84999999999999432, 0.000000000000000000, -8.176670178351632113E-15 ) ) ;
#82 = FACE_BOUND ( 'NONE', #248, .T. ) ;
#83 = DIRECTION ( 'NONE',  ( 1.000000000000000000, 0.000000000000000000, 7.099011413719281410E-17 ) ) ;
#84 = CALENDAR_DATE ( 2024, 5, 8 ) ;
#85 = DATE_TIME_ROLE ( 'classification_date' ) ;
#86 = EDGE_CURVE ( 'NONE', #210, #73, #179, .T. ) ;
#87 = VERTEX_POINT ( 'NONE', #43 ) ;
#88 = ORIENTED_EDGE ( 'NONE', *, *, #178, .F. ) ;
#89 = CIRCLE ( 'NONE', #212, 13.65000000000000213 ) ;
#90 = ORIENTED_EDGE ( 'NONE', *, *, #249, .F. ) ;
#91 = PRODUCT_DEFINITION ( 'UNKNOWN', '', #109, #170 ) ;
#92 = APPROVAL_STATUS ( 'not_yet_approved' ) ;
#93 = APPLICATION_CONTEXT ( 'configuration controlled 3d designs of mechanical parts and assemblies' ) ;
#94 = APPROVAL_PERSON_ORGANIZATION ( #108, #233, #26 ) ;
#95 = TOROIDAL_SURFACE ( 'NONE', #152, 38.00000000000000000, 13.65000000000000036 ) ;
#96 = DIRECTION ( 'NONE',  ( -7.099011413719282643E-17, 0.000000000000000000, 1.000000000000000000 ) ) ;
#97 = DIRECTION ( 'NONE',  ( 1.000000000000000000, 0.000000000000000000, 7.099011413719281410E-17 ) ) ;
#98 = CC_DESIGN_PERSON_AND_ORGANIZATION_ASSIGNMENT ( #192, #48, ( #109 ) ) ;
#99 = DIRECTION ( 'NONE',  ( 0.000000000000000000, 0.000000000000000000, 1.000000000000000000 ) ) ;
#100 = AXIS2_PLACEMENT_3D ( 'NONE', #219, #80, #241 ) ;
#101 = DIRECTION ( 'NONE',  ( 0.000000000000000000, 1.000000000000000000, 0.000000000000000000 ) ) ;
#102 = EDGE_CURVE ( 'NONE', #73, #32, #56, .T. ) ;
#103 = PERSON_AND_ORGANIZATION_ROLE ( 'design_owner' ) ;
#104 = APPROVAL_STATUS ( 'not_yet_approved' ) ;
#105 =( NAMED_UNIT ( * ) PLANE_ANGLE_UNIT ( ) SI_UNIT ( $, .RADIAN. ) );
#106 = ORIENTED_EDGE ( 'NONE', *, *, #38, .T. ) ;
#107 = COORDINATED_UNIVERSAL_TIME_OFFSET ( 1, 0, .AHEAD. ) ;
#108 = PERSON_AND_ORGANIZATION ( #193, #71 ) ;
#109 = PRODUCT_DEFINITION_FORMATION_WITH_SPECIFIED_SOURCE ( 'ANY', '', #47, .NOT_KNOWN. ) ;
#110 = ADVANCED_FACE ( 'NONE', ( #196 ), #95, .F. ) ;
#111 = ORIENTED_EDGE ( 'NONE', *, *, #249, .T. ) ;
#112 = APPROVAL_ROLE ( '' ) ;
#113 = AXIS2_PLACEMENT_3D ( 'NONE', #123, #30, #83 ) ;
#114 = VERTEX_POINT ( 'NONE', #19 ) ;
#115 = CC_DESIGN_APPROVAL ( #233, ( #109 ) ) ;
#116 = CARTESIAN_POINT ( 'NONE',  ( -38.00000000000000000, 0.000000000000000000, -6.980486755139934999E-15 ) ) ;
#117 = CARTESIAN_POINT ( 'NONE',  ( 0.000000000000000000, 0.000000000000000000, 0.000000000000000000 ) ) ;
#118 = AXIS2_PLACEMENT_3D ( 'NONE', #142, #226, #161 ) ;
#119 = DIRECTION ( 'NONE',  ( -7.099011413719282643E-17, 0.000000000000000000, 1.000000000000000000 ) ) ;
#120 = DIRECTION ( 'NONE',  ( 1.000000000000000000, 0.000000000000000000, 7.099011413719285108E-17 ) ) ;
#121 = CIRCLE ( 'NONE', #77, 16.85000000000000142 ) ;
#122 = PERSON_AND_ORGANIZATION ( #193, #71 ) ;
#123 = CARTESIAN_POINT ( 'NONE',  ( -38.00000000000000000, 0.000000000000000000, -2.697624337213327404E-15 ) ) ;
#124 = PERSON_AND_ORGANIZATION_ROLE ( 'creator' ) ;
#125 =( GEOMETRIC_REPRESENTATION_CONTEXT ( 3 ) GLOBAL_UNCERTAINTY_ASSIGNED_CONTEXT ( ( #52 ) ) GLOBAL_UNIT_ASSIGNED_CONTEXT ( ( #146, #105, #228 ) ) REPRESENTATION_CONTEXT ( 'NONE', 'WORKASPACE' ) );
#126 = AXIS2_PLACEMENT_3D ( 'NONE', #20, #157, #137 ) ;
#127 = DATE_AND_TIME ( #224, #76 ) ;
#128 = DATE_AND_TIME ( #202, #23 ) ;
#129 = APPROVAL ( #92, 'UNSPECIFIED' ) ;
#130 = AXIS2_PLACEMENT_3D ( 'NONE', #139, #198, #99 ) ;
#131 = AXIS2_PLACEMENT_3D ( 'NONE', #180, #253, #28 ) ;
#132 = ORIENTED_EDGE ( 'NONE', *, *, #148, .T. ) ;
#133 = ORIENTED_EDGE ( 'NONE', *, *, #62, .F. ) ;
#134 = ORIENTED_EDGE ( 'NONE', *, *, #155, .F. ) ;
#135 = CARTESIAN_POINT ( 'NONE',  ( -1.600564647849021685E-13, 0.000000000000000000, -51.64999999999999858 ) ) ;
#136 = DIRECTION ( 'NONE',  ( 0.000000000000000000, 1.000000000000000000, 0.000000000000000000 ) ) ;
#137 = DIRECTION ( 'NONE',  ( 0.000000000000000000, 0.000000000000000000, 1.000000000000000000 ) ) ;
#138 = DIRECTION ( 'NONE',  ( 3.098866694770612666E-15, 0.000000000000000000, 1.000000000000000000 ) ) ;
#139 = CARTESIAN_POINT ( 'NONE',  ( 0.000000000000000000, 0.000000000000000000, 0.000000000000000000 ) ) ;
#140 = CIRCLE ( 'NONE', #31, 51.64999999999999858 ) ;
#141 = DIRECTION ( 'NONE',  ( 0.000000000000000000, 0.000000000000000000, 1.000000000000000000 ) ) ;
#142 = CARTESIAN_POINT ( 'NONE',  ( 0.000000000000000000, 0.000000000000000000, 0.000000000000000000 ) ) ;
#143 = CC_DESIGN_DATE_AND_TIME_ASSIGNMENT ( #127, #46, ( #91 ) ) ;
#144 = EDGE_LOOP ( 'NONE', ( #49, #134 ) ) ;
#145 = TOROIDAL_SURFACE ( 'NONE', #252, 38.00000000000000000, 16.85000000000000142 ) ;
#146 =( LENGTH_UNIT ( ) NAMED_UNIT ( * ) SI_UNIT ( .MILLI., .METRE. ) );
#147 = VERTEX_POINT ( 'NONE', #1 ) ;
#148 = EDGE_CURVE ( 'NONE', #73, #210, #72, .T. ) ;
#149 = EDGE_LOOP ( 'NONE', ( #90, #133 ) ) ;
#150 = ORIENTED_EDGE ( 'NONE', *, *, #27, .T. ) ;
#151 = APPROVAL_PERSON_ORGANIZATION ( #204, #58, #45 ) ;
#152 = AXIS2_PLACEMENT_3D ( 'NONE', #117, #6, #181 ) ;
#153 = ORIENTED_EDGE ( 'NONE', *, *, #155, .T. ) ;
#154 = DIRECTION ( 'NONE',  ( -1.000000000000000000, 0.000000000000000000, 3.098866694770613455E-15 ) ) ;
#155 = EDGE_CURVE ( 'NONE', #189, #147, #200, .T. ) ;
#156 = DIRECTION ( 'NONE',  ( 3.098866694770612666E-15, 0.000000000000000000, 1.000000000000000000 ) ) ;
#157 = DIRECTION ( 'NONE',  ( 0.000000000000000000, 1.000000000000000000, 0.000000000000000000 ) ) ;
#158 = DIRECTION ( 'NONE',  ( 1.000000000000000000, 0.000000000000000000, 7.099011413719285108E-17 ) ) ;
#159 = CC_DESIGN_APPROVAL ( #129, ( #220 ) ) ;
#160 = FACE_OUTER_BOUND ( 'NONE', #144, .T. ) ;
#161 = DIRECTION ( 'NONE',  ( 0.000000000000000000, 0.000000000000000000, 1.000000000000000000 ) ) ;
#162 = CARTESIAN_POINT ( 'NONE',  ( 0.000000000000000000, 0.000000000000000000, 0.000000000000000000 ) ) ;
#163 = ADVANCED_FACE ( 'NONE', ( #199, #182 ), #78, .T. ) ;
#164 = DATE_AND_TIME ( #84, #74 ) ;
#165 = COORDINATED_UNIVERSAL_TIME_OFFSET ( 1, 0, .AHEAD. ) ;
#166 = CC_DESIGN_APPROVAL ( #58, ( #91 ) ) ;
#167 = EDGE_CURVE ( 'NONE', #87, #211, #121, .T. ) ;
#168 = CIRCLE ( 'NONE', #174, 16.85000000000000142 ) ;
#169 = PERSON_AND_ORGANIZATION ( #193, #71 ) ;
#170 = DESIGN_CONTEXT ( 'detailed design', #15, 'design' ) ;
#171 = SHAPE_DEFINITION_REPRESENTATION ( #35, #203 ) ;
#172 = EDGE_LOOP ( 'NONE', ( #150, #177, #14, #34 ) ) ;
#173 = CALENDAR_DATE ( 2024, 5, 8 ) ;
#174 = AXIS2_PLACEMENT_3D ( 'NONE', #235, #154, #240 ) ;
#175 = ORIENTED_EDGE ( 'NONE', *, *, #70, .T. ) ;
#176 = ORIENTED_EDGE ( 'NONE', *, *, #102, .T. ) ;
#177 = ORIENTED_EDGE ( 'NONE', *, *, #244, .T. ) ;
#178 = EDGE_CURVE ( 'NONE', #211, #87, #222, .T. ) ;
#179 = CIRCLE ( 'NONE', #238, 13.65000000000000213 ) ;
#180 = CARTESIAN_POINT ( 'NONE',  ( -1.134740719833567076E-13, 0.000000000000000000, -38.00000000000000000 ) ) ;
#181 = DIRECTION ( 'NONE',  ( 0.000000000000000000, 0.000000000000000000, 1.000000000000000000 ) ) ;
#182 = FACE_OUTER_BOUND ( 'NONE', #227, .T. ) ;
#183 = ADVANCED_FACE ( 'NONE', ( #3 ), #209, .F. ) ;
#184 = CARTESIAN_POINT ( 'NONE',  ( -7.545740401766443990E-14, 0.000000000000000000, -24.34999999999999787 ) ) ;
#185 = CARTESIAN_POINT ( 'NONE',  ( -1.177569344012833231E-13, 0.000000000000000000, -38.00000000000000000 ) ) ;
#186 = PERSON_AND_ORGANIZATION_ROLE ( 'creator' ) ;
#187 = DIRECTION ( 'NONE',  ( 1.000000000000000000, 0.000000000000000000, 0.000000000000000000 ) ) ;
#188 = TOROIDAL_SURFACE ( 'NONE', #24, 38.00000000000000000, 16.85000000000000142 ) ;
#189 = VERTEX_POINT ( 'NONE', #4 ) ;
#190 = CALENDAR_DATE ( 2024, 5, 8 ) ;
#191 = CC_DESIGN_DATE_AND_TIME_ASSIGNMENT ( #12, #85, ( #220 ) ) ;
#192 = PERSON_AND_ORGANIZATION ( #193, #71 ) ;
#193 = PERSON ( 'UNSPECIFIED', 'UNSPECIFIED', 'UNSPECIFIED', ('UNSPECIFIED'), ('UNSPECIFIED'), ('UNSPECIFIED') ) ;
#194 = EDGE_LOOP ( 'NONE', ( #213, #175, #69, #16 ) ) ;
#195 = DIRECTION ( 'NONE',  ( 0.000000000000000000, 1.000000000000000000, 0.000000000000000000 ) ) ;
#196 = FACE_OUTER_BOUND ( 'NONE', #232, .T. ) ;
#197 = FACE_OUTER_BOUND ( 'NONE', #172, .T. ) ;
#198 = DIRECTION ( 'NONE',  ( 0.000000000000000000, 1.000000000000000000, 0.000000000000000000 ) ) ;
#199 = FACE_BOUND ( 'NONE', #149, .T. ) ;
#200 = CIRCLE ( 'NONE', #100, 16.85000000000000142 ) ;
#201 = PERSON_AND_ORGANIZATION ( #193, #71 ) ;
#202 = CALENDAR_DATE ( 2024, 5, 8 ) ;
#203 = ADVANCED_BREP_SHAPE_REPRESENTATION ( '3D_R1651_33.7x3.2_17352220', ( #60, #234 ), #125 ) ;
#204 = PERSON_AND_ORGANIZATION ( #193, #71 ) ;
#205 = DIRECTION ( 'NONE',  ( 0.000000000000000000, 0.000000000000000000, 1.000000000000000000 ) ) ;
#206 = AXIS2_PLACEMENT_3D ( 'NONE', #64, #136, #25 ) ;
#207 = SECURITY_CLASSIFICATION_LEVEL ( 'unclassified' ) ;
#208 = APPROVAL_DATE_TIME ( #164, #233 ) ;
#209 = TOROIDAL_SURFACE ( 'NONE', #130, 38.00000000000000000, 13.65000000000000036 ) ;
#210 = VERTEX_POINT ( 'NONE', #135 ) ;
#211 = VERTEX_POINT ( 'NONE', #81 ) ;
#212 = AXIS2_PLACEMENT_3D ( 'NONE', #79, #96, #97 ) ;
#213 = ORIENTED_EDGE ( 'NONE', *, *, #86, .F. ) ;
#214 = PLANE ( 'NONE',  #131 ) ;
#215 = DIRECTION ( 'NONE',  ( 0.000000000000000000, 0.000000000000000000, 1.000000000000000000 ) ) ;
#216 = CLOSED_SHELL ( 'NONE', ( #183, #41, #2, #163, #237, #110 ) ) ;
#217 = DIRECTION ( 'NONE',  ( 1.000000000000000000, 0.000000000000000000, 7.099011413719283875E-17 ) ) ;
#218 = CC_DESIGN_SECURITY_CLASSIFICATION ( #220, ( #109 ) ) ;
#219 = CARTESIAN_POINT ( 'NONE',  ( -1.134740719833567076E-13, 0.000000000000000000, -38.00000000000000000 ) ) ;
#220 = SECURITY_CLASSIFICATION ( '', '', #207 ) ;
#221 = CARTESIAN_POINT ( 'NONE',  ( 0.000000000000000000, 0.000000000000000000, 0.000000000000000000 ) ) ;
#222 = CIRCLE ( 'NONE', #242, 16.85000000000000142 ) ;
#223 = APPLICATION_PROTOCOL_DEFINITION ( 'international standard', 'config_control_design', 1994, #15 ) ;
#224 = CALENDAR_DATE ( 2024, 5, 8 ) ;
#225 = CC_DESIGN_PERSON_AND_ORGANIZATION_ASSIGNMENT ( #122, #8, ( #220 ) ) ;
#226 = DIRECTION ( 'NONE',  ( 0.000000000000000000, 1.000000000000000000, 0.000000000000000000 ) ) ;
#227 = EDGE_LOOP ( 'NONE', ( #33, #251 ) ) ;
#228 =( NAMED_UNIT ( * ) SI_UNIT ( $, .STERADIAN. ) SOLID_ANGLE_UNIT ( ) );
#229 = AXIS2_PLACEMENT_3D ( 'NONE', #185, #42, #156 ) ;
#230 = CIRCLE ( 'NONE', #118, 54.84999999999999432 ) ;
#231 = FACE_OUTER_BOUND ( 'NONE', #75, .T. ) ;
#232 = EDGE_LOOP ( 'NONE', ( #17, #11, #176, #111 ) ) ;
#233 = APPROVAL ( #10, 'UNSPECIFIED' ) ;
#234 = AXIS2_PLACEMENT_3D ( 'NONE', #162, #141, #187 ) ;
#235 = CARTESIAN_POINT ( 'NONE',  ( -1.134740719833567076E-13, 0.000000000000000000, -38.00000000000000000 ) ) ;
#236 = CARTESIAN_POINT ( 'NONE',  ( -24.34999999999999787, 0.000000000000000000, -1.728609279240645284E-15 ) ) ;
#237 = ADVANCED_FACE ( 'NONE', ( #82, #160 ), #214, .F. ) ;
#238 = AXIS2_PLACEMENT_3D ( 'NONE', #39, #65, #138 ) ;
#239 = CARTESIAN_POINT ( 'NONE',  ( -38.00000000000000000, 0.000000000000000000, -6.980486755139934999E-15 ) ) ;
#240 = DIRECTION ( 'NONE',  ( 3.098866694770613850E-15, 0.000000000000000000, 1.000000000000000000 ) ) ;
#241 = DIRECTION ( 'NONE',  ( 3.098866694770613850E-15, 0.000000000000000000, 1.000000000000000000 ) ) ;
#242 = AXIS2_PLACEMENT_3D ( 'NONE', #18, #119, #158 ) ;
#243 = COORDINATED_UNIVERSAL_TIME_OFFSET ( 1, 0, .AHEAD. ) ;
#244 = EDGE_CURVE ( 'NONE', #189, #211, #230, .T. ) ;
#245 = PERSON_AND_ORGANIZATION ( #193, #71 ) ;
#246 = APPROVAL_DATE_TIME ( #247, #129 ) ;
#247 = DATE_AND_TIME ( #173, #37 ) ;
#248 = EDGE_LOOP ( 'NONE', ( #132, #53 ) ) ;
#249 = EDGE_CURVE ( 'NONE', #32, #114, #54, .T. ) ;
#250 = PERSON_AND_ORGANIZATION ( #193, #71 ) ;
#251 = ORIENTED_EDGE ( 'NONE', *, *, #178, .T. ) ;
#252 = AXIS2_PLACEMENT_3D ( 'NONE', #221, #101, #21 ) ;
#253 = DIRECTION ( 'NONE',  ( -1.000000000000000000, 0.000000000000000000, 3.098866694770613061E-15 ) ) ;
ENDSEC;
END-ISO-10303-21;
