ISO-10303-21;
HEADER;
/****************************************************************
 * Generated by software with PDElib inside                    *
 * PDElib Version v51a, created Wed 07/06/2011                  *
 * ITI Transcendata (http://www.transcendata.com/)              *
 ****************************************************************/
FILE_DESCRIPTION(('RE_48,3x2-26,9x1,6_L90_V10'),'2;1');
FILE_NAME('RE_48,3x2-26,9x1,6_L90_V10.stp','2013-11-02T16:31:15',('DOCKWEILER AG'),('DOCKWEILER AG'),'Autodesk Inventor 2012','Autodesk Inventor 2012','');
FILE_SCHEMA(('CONFIG_CONTROL_DESIGN'));
ENDSEC;
DATA;
#5=APPLICATION_CONTEXT('configuration controlled 3D designs of mechanical parts and assemblies');
#6=APPLICATION_PROTOCOL_DEFINITION('International Standard','ap203_configuration_controlled_3d_design_of_mechanical_parts_and_assemblies_mim_lf',2004,#5);
#7=PRODUCT_CONTEXT('',#5,'mechanical');
#8=PRODUCT('N0006_002_001_009','N0006_002_001_009',$,(#7));
#9=PRODUCT_RELATED_PRODUCT_CATEGORY('part',$,(#8));
#10=PRODUCT_DEFINITION_FORMATION('',$,#8);
#11=PRODUCT_DEFINITION_CONTEXT('part definition',#5,'design');
#12=PRODUCT_DEFINITION('',$,#10,#11);
#18=(NAMED_UNIT(*)PLANE_ANGLE_UNIT()SI_UNIT($,.RADIAN.));
#19=DIMENSIONAL_EXPONENTS(0.0,0.0,0.0,0.0,0.0,0.0,0.0);
#20=PLANE_ANGLE_MEASURE_WITH_UNIT(PLANE_ANGLE_MEASURE(0.0174532925),#18);
#24=(CONVERSION_BASED_UNIT('DEGREE',#20)NAMED_UNIT(#19)PLANE_ANGLE_UNIT());
#28=(NAMED_UNIT(*)SI_UNIT($,.STERADIAN.)SOLID_ANGLE_UNIT());
#32=(LENGTH_UNIT()NAMED_UNIT(*)SI_UNIT(.MILLI.,.METRE.));
#34=UNCERTAINTY_MEASURE_WITH_UNIT(LENGTH_MEASURE(0.01),#32,'DISTANCE_ACCURACY_VALUE','');
#36=(GEOMETRIC_REPRESENTATION_CONTEXT(3)GLOBAL_UNCERTAINTY_ASSIGNED_CONTEXT((#34))GLOBAL_UNIT_ASSIGNED_CONTEXT((#24,#28,#32))REPRESENTATION_CONTEXT('None','None'));
#37=AXIS2_PLACEMENT_3D('',#38,#39,#40);
#38=CARTESIAN_POINT('',(0.0,0.0,0.0));
#39=DIRECTION('',(0.0,0.0,1.0));
#40=DIRECTION('',(1.0,0.0,0.0));
#41=SHAPE_REPRESENTATION('',(#37),#36);
#42=PRODUCT_DEFINITION_SHAPE('','',#12);
#43=SHAPE_DEFINITION_REPRESENTATION(#42,#41);
#49=(NAMED_UNIT(*)PLANE_ANGLE_UNIT()SI_UNIT($,.RADIAN.));
#50=DIMENSIONAL_EXPONENTS(0.0,0.0,0.0,0.0,0.0,0.0,0.0);
#51=PLANE_ANGLE_MEASURE_WITH_UNIT(PLANE_ANGLE_MEASURE(0.0174532925),#49);
#55=(CONVERSION_BASED_UNIT('DEGREE',#51)NAMED_UNIT(#50)PLANE_ANGLE_UNIT());
#59=(NAMED_UNIT(*)SI_UNIT($,.STERADIAN.)SOLID_ANGLE_UNIT());
#63=(LENGTH_UNIT()NAMED_UNIT(*)SI_UNIT(.MILLI.,.METRE.));
#65=UNCERTAINTY_MEASURE_WITH_UNIT(LENGTH_MEASURE(0.000001),#63,'DISTANCE_ACCURACY_VALUE','');
#67=(GEOMETRIC_REPRESENTATION_CONTEXT(3)GLOBAL_UNCERTAINTY_ASSIGNED_CONTEXT((#65))GLOBAL_UNIT_ASSIGNED_CONTEXT((#55,#59,#63))REPRESENTATION_CONTEXT('','3D'));
#68=CARTESIAN_POINT('',(11.104962638510573,65.071020380633868,11.440441107477074));
#69=CARTESIAN_POINT('',(1.211920E-013,5.846722837626127,22.942952770278694));
#70=CARTESIAN_POINT('',(22.150000000000055,63.0,11.440441107477012));
#71=CARTESIAN_POINT('',(22.15000000000008,1.693445675252284,22.942952770278566));
#72=CARTESIAN_POINT('',(22.149999999999995,63.000000000000014,-6.536582E-014));
#73=CARTESIAN_POINT('',(22.149999999999963,1.693445675252306,-1.244299E-013));
#74=CARTESIAN_POINT('',(22.149999999999935,63.000000000000036,-11.44044110747714));
#75=CARTESIAN_POINT('',(22.149999999999839,1.69344567525233,-22.942952770278819));
#76=CARTESIAN_POINT('',(11.104962638510452,65.071020380633897,-11.440441107477081));
#77=CARTESIAN_POINT('',(-1.185198E-013,5.846722837626174,-22.942952770278701));
#78=CARTESIAN_POINT('',(0.059925277020971,67.142040761267765,-11.440441107477019));
#79=CARTESIAN_POINT('',(-22.15000000000008,10.000000000000018,-22.942952770278584));
#80=CARTESIAN_POINT('',(0.059925277021029,67.142040761267751,5.648404E-014));
#81=CARTESIAN_POINT('',(-22.149999999999963,9.999999999999995,1.155482E-013));
#82=CARTESIAN_POINT('',(0.059925277021092,67.142040761267737,11.440441107477131));
#83=CARTESIAN_POINT('',(-22.149999999999839,9.999999999999972,22.942952770278808));
#84=CARTESIAN_POINT('',(11.104962638510573,65.071020380633868,11.440441107477074));
#85=CARTESIAN_POINT('',(1.211920E-013,5.846722837626127,22.942952770278694));
#93=(BOUNDED_SURFACE()B_SPLINE_SURFACE(1,2,((#68,#70,#72,#74,#76,#78,#80,#82,#84),(#69,#71,#73,#75,#77,#79,#81,#83,#85)),.UNSPECIFIED.,.F.,.T.,.U.)B_SPLINE_SURFACE_WITH_KNOTS((2,2),(3,2,2,2,3),(-2.580283393335158,0.187506869633131),(0.0,34.814663244561466,69.629326489122931,104.4439897336844,139.25865297824586),.UNSPECIFIED.)GEOMETRIC_REPRESENTATION_ITEM()RATIONAL_B_SPLINE_SURFACE(((1.0,0.707106781186548,1.0,0.707106781186548,1.0,0.707106781186548,1.0,0.707106781186548,1.0),(1.0,0.707106781186548,1.0,0.707106781186548,1.0,0.707106781186548,1.0,0.707106781186548,1.0)))REPRESENTATION_ITEM('')SURFACE());
#94=CARTESIAN_POINT('',(22.149999999999999,10.0,-2.712593E-015));
#95=VERTEX_POINT('',#94);
#96=CARTESIAN_POINT('',(0.0,10.0,0.0));
#97=DIRECTION('',(0.0,1.0,0.0));
#98=DIRECTION('',(-1.0,0.0,0.0));
#99=AXIS2_PLACEMENT_3D('',#96,#97,#98);
#100=CIRCLE('',#99,22.149999999999999);
#101=EDGE_CURVE('',#95,#95,#100,.T.);
#102=ORIENTED_EDGE('',*,*,#101,.F.);
#103=EDGE_LOOP('',(#102));
#104=FACE_OUTER_BOUND('',#103,.T.);
#105=CARTESIAN_POINT('',(22.149999999999991,63.000000000000014,-1.451206E-015));
#106=VERTEX_POINT('',#105);
#107=CARTESIAN_POINT('',(10.29999999999999,63.000000000000007,0.0));
#108=DIRECTION('',(0.0,1.0,0.0));
#109=DIRECTION('',(-1.0,0.0,0.0));
#110=AXIS2_PLACEMENT_3D('',#107,#108,#109);
#111=CIRCLE('',#110,11.850000000000001);
#112=EDGE_CURVE('',#106,#106,#111,.T.);
#113=ORIENTED_EDGE('',*,*,#112,.T.);
#114=EDGE_LOOP('',(#113));
#115=FACE_BOUND('',#114,.T.);
#116=ADVANCED_FACE('',(#104,#115),#93,.F.);
#117=CARTESIAN_POINT('',(10.299999999999974,90.0,0.0));
#118=DIRECTION('',(5.482583E-016,-1.0,0.0));
#119=DIRECTION('',(-1.0,0.0,0.0));
#120=AXIS2_PLACEMENT_3D('',#117,#118,#119);
#121=CYLINDRICAL_SURFACE('',#120,11.850000000000001);
#122=ORIENTED_EDGE('',*,*,#112,.F.);
#123=EDGE_LOOP('',(#122));
#124=FACE_OUTER_BOUND('',#123,.T.);
#125=CARTESIAN_POINT('',(22.14999999999997,90.0,1.451206E-015));
#126=VERTEX_POINT('',#125);
#127=CARTESIAN_POINT('',(10.299999999999974,90.0,0.0));
#128=DIRECTION('',(0.0,-1.0,0.0));
#129=DIRECTION('',(-1.0,0.0,0.0));
#130=AXIS2_PLACEMENT_3D('',#127,#128,#129);
#131=CIRCLE('',#130,11.850000000000001);
#132=EDGE_CURVE('',#126,#126,#131,.T.);
#133=ORIENTED_EDGE('',*,*,#132,.F.);
#134=EDGE_LOOP('',(#133));
#135=FACE_BOUND('',#134,.T.);
#136=ADVANCED_FACE('',(#124,#135),#121,.F.);
#137=CARTESIAN_POINT('',(0.0,5.551115E-015,0.0));
#138=DIRECTION('',(0.0,1.0,0.0));
#139=DIRECTION('',(-1.0,0.0,0.0));
#140=AXIS2_PLACEMENT_3D('',#137,#138,#139);
#141=CYLINDRICAL_SURFACE('',#140,22.149999999999999);
#142=CARTESIAN_POINT('',(22.149999999999999,5.551115E-015,2.712593E-015));
#143=VERTEX_POINT('',#142);
#144=CARTESIAN_POINT('',(0.0,5.551115E-015,0.0));
#145=DIRECTION('',(0.0,1.0,0.0));
#146=DIRECTION('',(-1.0,0.0,0.0));
#147=AXIS2_PLACEMENT_3D('',#144,#145,#146);
#148=CIRCLE('',#147,22.149999999999999);
#149=EDGE_CURVE('',#143,#143,#148,.T.);
#150=ORIENTED_EDGE('',*,*,#149,.F.);
#151=EDGE_LOOP('',(#150));
#152=FACE_OUTER_BOUND('',#151,.T.);
#153=ORIENTED_EDGE('',*,*,#101,.T.);
#154=EDGE_LOOP('',(#153));
#155=FACE_BOUND('',#154,.T.);
#156=ADVANCED_FACE('',(#152,#155),#141,.F.);
#157=CARTESIAN_POINT('',(10.299999999999979,77.500000000000014,0.0));
#158=DIRECTION('',(-5.551115E-016,1.0,0.0));
#159=DIRECTION('',(-1.0,0.0,0.0));
#160=AXIS2_PLACEMENT_3D('',#157,#158,#159);
#161=CYLINDRICAL_SURFACE('',#160,13.449999999999797);
#162=CARTESIAN_POINT('',(-3.149999999999831,90.0,0.0));
#163=VERTEX_POINT('',#162);
#164=CARTESIAN_POINT('',(10.299999999999974,90.0,0.0));
#165=DIRECTION('',(0.0,1.0,0.0));
#166=DIRECTION('',(-1.0,0.0,0.0));
#167=AXIS2_PLACEMENT_3D('',#164,#165,#166);
#168=CIRCLE('',#167,13.449999999999804);
#169=EDGE_CURVE('',#163,#163,#168,.T.);
#170=ORIENTED_EDGE('',*,*,#169,.F.);
#171=EDGE_LOOP('',(#170));
#172=FACE_OUTER_BOUND('',#171,.T.);
#173=CARTESIAN_POINT('',(-3.149999999999804,65.0,0.0));
#174=VERTEX_POINT('',#173);
#175=CARTESIAN_POINT('',(10.299999999999986,65.000000000000014,0.0));
#176=DIRECTION('',(0.0,1.0,0.0));
#177=DIRECTION('',(-1.0,0.0,0.0));
#178=AXIS2_PLACEMENT_3D('',#175,#176,#177);
#179=CIRCLE('',#178,13.449999999999791);
#180=EDGE_CURVE('',#174,#174,#179,.T.);
#181=ORIENTED_EDGE('',*,*,#180,.T.);
#182=EDGE_LOOP('',(#181));
#183=FACE_BOUND('',#182,.T.);
#184=ADVANCED_FACE('',(#172,#183),#161,.T.);
#185=CARTESIAN_POINT('',(3.575000000000071,90.0,0.0));
#186=DIRECTION('',(0.0,1.0,0.0));
#187=DIRECTION('',(0.0,0.0,1.0));
#188=AXIS2_PLACEMENT_3D('',#185,#186,#187);
#189=PLANE('',#188);
#190=ORIENTED_EDGE('',*,*,#169,.T.);
#191=EDGE_LOOP('',(#190));
#192=FACE_OUTER_BOUND('',#191,.T.);
#193=ORIENTED_EDGE('',*,*,#132,.T.);
#194=EDGE_LOOP('',(#193));
#195=FACE_BOUND('',#194,.T.);
#196=ADVANCED_FACE('',(#192,#195),#189,.T.);
#197=CARTESIAN_POINT('',(10.299999999999997,47.500000000000014,0.0));
#198=DIRECTION('',(5.551115E-016,-1.0,0.0));
#199=DIRECTION('',(-1.0,0.0,0.0));
#200=AXIS2_PLACEMENT_3D('',#197,#198,#199);
#201=CONICAL_SURFACE('',#200,23.949999999999896,30.963756532073795);
#202=CARTESIAN_POINT('',(-24.149999999999999,29.999999999999996,0.0));
#203=VERTEX_POINT('',#202);
#204=CARTESIAN_POINT('',(-24.150000000000013,29.999999999999993,0.0));
#205=CARTESIAN_POINT('',(-24.150000000000013,29.999999999999993,2.02574636066629));
#206=CARTESIAN_POINT('',(-23.87767927296489,30.135154460580168,4.216495094530176));
#207=CARTESIAN_POINT('',(-22.744948447977901,30.703755737929455,8.401768827039209));
#208=CARTESIAN_POINT('',(-21.885684570262853,31.137376279809747,10.396580359427494));
#209=CARTESIAN_POINT('',(-19.858043777337716,32.177498483848666,13.900881679350912));
#210=CARTESIAN_POINT('',(-18.494253475529,32.884802958649964,15.682354877942457));
#211=CARTESIAN_POINT('',(-15.387338946210658,34.540021403667005,18.740423844396854));
#212=CARTESIAN_POINT('',(-13.646307320304206,35.488638418282044,20.01876445938057));
#213=CARTESIAN_POINT('',(-10.248077937493708,37.395649872498772,21.956822170384637));
#214=CARTESIAN_POINT('',(-8.400333096557031,38.460104055696185,22.728347054162732));
#215=CARTESIAN_POINT('',(-4.585928504104498,40.742516260972124,23.7931212119957));
#216=CARTESIAN_POINT('',(-2.619484296642873,41.960724644599281,24.0866059376999));
#217=CARTESIAN_POINT('',(1.279780115706305,44.485112522738788,24.194810701821893));
#218=CARTESIAN_POINT('',(3.215209454057179,45.793358596030743,24.009687211011553));
#219=CARTESIAN_POINT('',(6.915294332435419,48.419580915451618,23.215972054178824));
#220=CARTESIAN_POINT('',(8.679804336154767,49.737752554591609,22.607348467244925));
#221=CARTESIAN_POINT('',(11.462764941647556,51.924877193728165,21.295073683762979));
#222=CARTESIAN_POINT('',(12.630602445384023,52.877902850023311,20.629279342914071));
#223=CARTESIAN_POINT('',(14.882542012107059,54.796654099128254,19.068540270526036));
#224=CARTESIAN_POINT('',(15.966682749655998,55.762506425214298,18.173807155393391));
#225=CARTESIAN_POINT('',(18.984659601322225,58.573563624345056,15.192246184300727));
#226=CARTESIAN_POINT('',(20.676819164485494,60.335595692067599,12.800056795453152));
#227=CARTESIAN_POINT('',(22.549045583618327,62.416731698828407,8.788352450251907));
#228=CARTESIAN_POINT('',(23.146944008872474,63.117091306710755,7.120853361234634));
#229=CARTESIAN_POINT('',(23.748394800850186,63.839579902519446,4.478002916611676));
#230=CARTESIAN_POINT('',(23.90141577132885,64.026923871499946,3.573387124328517));
#231=CARTESIAN_POINT('',(24.102247431684777,64.273891678988974,1.768739707902062));
#232=CARTESIAN_POINT('',(24.150000000000013,64.333333333332973,0.868676688770331));
#233=CARTESIAN_POINT('',(24.150000000000013,64.333333333332973,-0.868676688770329));
#234=CARTESIAN_POINT('',(24.102247431684777,64.273891678988974,-1.768739707902062));
#235=CARTESIAN_POINT('',(23.90141577132885,64.026923871499946,-3.573387124328518));
#236=CARTESIAN_POINT('',(23.748394800850186,63.839579902519446,-4.478002916611677));
#237=CARTESIAN_POINT('',(23.146944008872474,63.117091306710755,-7.120853361234635));
#238=CARTESIAN_POINT('',(22.549045583618334,62.4167316988284,-8.788352450251908));
#239=CARTESIAN_POINT('',(20.676819164485501,60.335595692067592,-12.800056795453155));
#240=CARTESIAN_POINT('',(18.984659601322228,58.573563624345077,-15.192246184300725));
#241=CARTESIAN_POINT('',(15.966682749656007,55.762506425214312,-18.173807155393384));
#242=CARTESIAN_POINT('',(14.882542012107079,54.796654099128268,-19.068540270526025));
#243=CARTESIAN_POINT('',(12.630602445384039,52.877902850023318,-20.629279342914067));
#244=CARTESIAN_POINT('',(11.462764941647563,51.924877193728179,-21.295073683762979));
#245=CARTESIAN_POINT('',(8.679804336154771,49.737752554591623,-22.607348467244925));
#246=CARTESIAN_POINT('',(6.915294332435426,48.419580915451618,-23.215972054178824));
#247=CARTESIAN_POINT('',(3.215209454057184,45.793358596030743,-24.009687211011553));
#248=CARTESIAN_POINT('',(1.279780115706312,44.485112522738781,-24.194810701821893));
#249=CARTESIAN_POINT('',(-2.61948429664286,41.960724644599281,-24.0866059376999));
#250=CARTESIAN_POINT('',(-4.585928504104486,40.742516260972138,-23.793121211995711));
#251=CARTESIAN_POINT('',(-8.400333096557018,38.460104055696192,-22.728347054162743));
#252=CARTESIAN_POINT('',(-10.248077937493692,37.395649872498772,-21.956822170384651));
#253=CARTESIAN_POINT('',(-13.646307320304199,35.488638418282044,-20.018764459380577));
#254=CARTESIAN_POINT('',(-15.387338946210651,34.540021403667012,-18.740423844396862));
#255=CARTESIAN_POINT('',(-18.494253475529,32.884802958649971,-15.682354877942462));
#256=CARTESIAN_POINT('',(-19.858043777337716,32.177498483848666,-13.900881679350912));
#257=CARTESIAN_POINT('',(-21.885684570262853,31.137376279809747,-10.396580359427494));
#258=CARTESIAN_POINT('',(-22.744948447977901,30.703755737929455,-8.401768827039209));
#259=CARTESIAN_POINT('',(-23.87767927296489,30.135154460580168,-4.216495094530176));
#260=CARTESIAN_POINT('',(-24.150000000000013,29.999999999999993,-2.02574636066629));
#261=CARTESIAN_POINT('',(-24.150000000000013,29.999999999999993,0.0));
#262=B_SPLINE_CURVE_WITH_KNOTS('',3,(#204,#205,#206,#207,#208,#209,#210,#211,#212,#213,#214,#215,#216,#217,#218,#219,#220,#221,#222,#223,#224,#225,#226,#227,#228,#229,#230,#231,#232,#233,#234,#235,#236,#237,#238,#239,#240,#241,#242,#243,#244,#245,#246,#247,#248,#249,#250,#251,#252,#253,#254,#255,#256,#257,#258,#259,#260,#261),.UNSPECIFIED.,.T.,.U.,(4,2,2,2,2,2,2,2,2,2,2,2,2,2,2,2,2,2,2,2,2,2,2,2,2,2,2,2,4),(0.0,0.607723908199887,1.215447816399774,1.861756531888652,2.50806524737753,3.167384770871844,3.826704294366157,4.48602381786047,5.145343341354784,5.618516825502683,6.091690309650582,7.03803727794638,7.559243291208578,7.819846297839677,8.080449304470776,8.341052311101874,8.601655317732973,9.122861330995171,10.069208299290969,10.542381783438866,11.015555267586766,11.674874791081081,12.334194314575393,12.993513838069706,13.652833361564021,14.299142077052899,14.945450792541777,15.553174700741664,16.160898608941551),.UNSPECIFIED.);
#263=EDGE_CURVE('',#203,#203,#262,.T.);
#264=ORIENTED_EDGE('',*,*,#263,.T.);
#265=EDGE_LOOP('',(#264));
#266=FACE_OUTER_BOUND('',#265,.T.);
#267=ORIENTED_EDGE('',*,*,#180,.F.);
#268=EDGE_LOOP('',(#267));
#269=FACE_BOUND('',#268,.T.);
#270=ADVANCED_FACE('',(#266,#269),#201,.T.);
#271=CARTESIAN_POINT('',(0.0,15.000000000000004,0.0));
#272=DIRECTION('',(0.0,-1.0,0.0));
#273=DIRECTION('',(1.0,0.0,0.0));
#274=AXIS2_PLACEMENT_3D('',#271,#272,#273);
#275=CYLINDRICAL_SURFACE('',#274,24.150000000000013);
#276=CARTESIAN_POINT('',(24.150000000000013,8.881784E-015,0.0));
#277=VERTEX_POINT('',#276);
#278=CARTESIAN_POINT('',(0.0,8.881784E-015,0.0));
#279=DIRECTION('',(0.0,-1.0,0.0));
#280=DIRECTION('',(1.0,0.0,0.0));
#281=AXIS2_PLACEMENT_3D('',#278,#279,#280);
#282=CIRCLE('',#281,24.150000000000013);
#283=EDGE_CURVE('',#277,#277,#282,.T.);
#284=ORIENTED_EDGE('',*,*,#283,.F.);
#285=EDGE_LOOP('',(#284));
#286=FACE_OUTER_BOUND('',#285,.T.);
#287=ORIENTED_EDGE('',*,*,#263,.F.);
#288=EDGE_LOOP('',(#287));
#289=FACE_BOUND('',#288,.T.);
#290=ADVANCED_FACE('',(#286,#289),#275,.T.);
#291=CARTESIAN_POINT('',(12.075000000000006,5.551115E-015,0.0));
#292=DIRECTION('',(0.0,-1.0,0.0));
#293=DIRECTION('',(0.0,0.0,-1.0));
#294=AXIS2_PLACEMENT_3D('',#291,#292,#293);
#295=PLANE('',#294);
#296=ORIENTED_EDGE('',*,*,#283,.T.);
#297=EDGE_LOOP('',(#296));
#298=FACE_OUTER_BOUND('',#297,.T.);
#299=ORIENTED_EDGE('',*,*,#149,.T.);
#300=EDGE_LOOP('',(#299));
#301=FACE_BOUND('',#300,.T.);
#302=ADVANCED_FACE('',(#298,#301),#295,.T.);
#303=CLOSED_SHELL('',(#116,#136,#156,#184,#196,#270,#290,#302));
#304=MANIFOLD_SOLID_BREP('Volumenk\S\vrper2',#303);
#305=COLOUR_RGB('Metall - Stahl',0.639216005802155,0.639216005802155,0.686275005340576);
#306=FILL_AREA_STYLE_COLOUR('Metall - Stahl',#305);
#307=FILL_AREA_STYLE('Metall - Stahl',(#306));
#308=SURFACE_STYLE_FILL_AREA(#307);
#309=SURFACE_SIDE_STYLE('Metall - Stahl',(#308));
#310=SURFACE_STYLE_USAGE(.BOTH.,#309);
#311=PRESENTATION_STYLE_ASSIGNMENT((#310));
#312=STYLED_ITEM('',(#311),#304);
#313=MECHANICAL_DESIGN_GEOMETRIC_PRESENTATION_REPRESENTATION('',(#312),#36);
#314=ADVANCED_BREP_SHAPE_REPRESENTATION('ABSR',(#304),#36);
#315=SHAPE_REPRESENTATION_RELATIONSHIP('SRR','None',#314,#41);
ENDSEC;
END-ISO-10303-21;
