ISO-10303-21;
HEADER;
FILE_DESCRIPTION (( 'STEP AP203' ),
    '1' );
FILE_NAME ('3D-LR-131-SE_60.3-55_17106640.STEP',
    '2024-09-02T20:32:26',
    ( '' ),
    ( '' ),
    'SwSTEP 2.0',
    'SolidWorks 2024',
    '' );
FILE_SCHEMA (( 'CONFIG_CONTROL_DESIGN' ));
ENDSEC;

DATA;
#1 = DIRECTION ( 'NONE',  ( -1.000000000000000000, -0.000000000000000000, -0.000000000000000000 ) ) ;
#2 = ORIENTED_EDGE ( 'NONE', *, *, #220, .F. ) ;
#3 = APPROVAL_STATUS ( 'not_yet_approved' ) ;
#4 = CARTESIAN_POINT ( 'NONE',  ( -12.00906048183104247, 4.172983968094606169E-15, -33.25000000000000000 ) ) ;
#5 = ORIENTED_EDGE ( 'NONE', *, *, #189, .T. ) ;
#6 =( GEOMETRIC_REPRESENTATION_CONTEXT ( 3 ) GLOBAL_UNCERTAINTY_ASSIGNED_CONTEXT ( ( #91 ) ) GLOBAL_UNIT_ASSIGNED_CONTEXT ( ( #82, #380, #304 ) ) REPRESENTATION_CONTEXT ( 'NONE', 'WORKASPACE' ) );
#7 = VERTEX_POINT ( 'NONE', #4 ) ;
#8 = EDGE_CURVE ( 'NONE', #9, #74, #228, .T. ) ;
#9 = VERTEX_POINT ( 'NONE', #363 ) ;
#10 = DIRECTION ( 'NONE',  ( 0.000000000000000000, 0.000000000000000000, 1.000000000000000000 ) ) ;
#11 = CIRCLE ( 'NONE', #250, 34.89999999999999858 ) ;
#12 = CARTESIAN_POINT ( 'NONE',  ( -36.70332301863295754, 0.000000000000000000, 0.000000000000000000 ) ) ;
#13 = AXIS2_PLACEMENT_3D ( 'NONE', #78, #207, #337 ) ;
#14 = DIRECTION ( 'NONE',  ( -1.000000000000000000, -0.000000000000000000, -0.000000000000000000 ) ) ;
#15 = FACE_OUTER_BOUND ( 'NONE', #291, .T. ) ;
#16 = CARTESIAN_POINT ( 'NONE',  ( -13.50000000000000533, 0.000000000000000000, 0.000000000000000000 ) ) ;
#17 = EDGE_CURVE ( 'NONE', #134, #65, #72, .T. ) ;
#18 = DESIGN_CONTEXT ( 'detailed design', #197, 'design' ) ;
#19 = DIRECTION ( 'NONE',  ( 0.000000000000000000, 0.000000000000000000, 1.000000000000000000 ) ) ;
#20 = DIRECTION ( 'NONE',  ( -1.000000000000000000, -0.000000000000000000, -0.000000000000000000 ) ) ;
#21 = CIRCLE ( 'NONE', #157, 27.49999999999999645 ) ;
#22 = EDGE_CURVE ( 'NONE', #105, #9, #372, .T. ) ;
#23 = APPROVAL_ROLE ( '' ) ;
#24 = PERSON_AND_ORGANIZATION_ROLE ( 'design_owner' ) ;
#25 = PERSON_AND_ORGANIZATION ( #49, #117 ) ;
#26 = EDGE_CURVE ( 'NONE', #300, #165, #294, .T. ) ;
#27 = VECTOR ( 'NONE', #266, 1000.000000000000000 ) ;
#28 = ADVANCED_BREP_SHAPE_REPRESENTATION ( '3D-LR-131-SE_60.3-55_17106640', ( #236, #61 ), #6 ) ;
#29 = EDGE_LOOP ( 'NONE', ( #68, #393, #94, #267 ) ) ;
#30 = DIRECTION ( 'NONE',  ( 0.000000000000000000, 0.000000000000000000, 1.000000000000000000 ) ) ;
#31 = EDGE_CURVE ( 'NONE', #300, #105, #212, .T. ) ;
#32 = VERTEX_POINT ( 'NONE', #167 ) ;
#33 = DATE_AND_TIME ( #287, #202 ) ;
#34 = LINE ( 'NONE', #297, #27 ) ;
#35 = EDGE_LOOP ( 'NONE', ( #156, #395 ) ) ;
#36 = FACE_OUTER_BOUND ( 'NONE', #98, .T. ) ;
#37 = ORIENTED_EDGE ( 'NONE', *, *, #31, .T. ) ;
#38 = ADVANCED_FACE ( 'NONE', ( #286 ), #405, .T. ) ;
#39 = AXIS2_PLACEMENT_3D ( 'NONE', #296, #128, #263 ) ;
#40 = EDGE_LOOP ( 'NONE', ( #264, #366 ) ) ;
#41 = EDGE_LOOP ( 'NONE', ( #302, #200, #71, #331 ) ) ;
#42 = DIRECTION ( 'NONE',  ( -1.000000000000000000, -0.000000000000000000, -0.000000000000000000 ) ) ;
#43 = DIRECTION ( 'NONE',  ( 0.000000000000000000, 0.000000000000000000, -1.000000000000000000 ) ) ;
#44 = CIRCLE ( 'NONE', #277, 27.49999999999999289 ) ;
#45 = CARTESIAN_POINT ( 'NONE',  ( -12.00906048183104247, 0.000000000000000000, 0.000000000000000000 ) ) ;
#46 = ORIENTED_EDGE ( 'NONE', *, *, #401, .F. ) ;
#47 = CYLINDRICAL_SURFACE ( 'NONE', #295, 27.49999999999999645 ) ;
#48 = DIRECTION ( 'NONE',  ( -0.1736481776669280552, 0.000000000000000000, 0.9848077530122085754 ) ) ;
#49 = PERSON ( 'UNSPECIFIED', 'UNSPECIFIED', 'UNSPECIFIED', ('UNSPECIFIED'), ('UNSPECIFIED'), ('UNSPECIFIED') ) ;
#50 = LINE ( 'NONE', #234, #133 ) ;
#51 = DIRECTION ( 'NONE',  ( -1.000000000000000000, -0.000000000000000000, -0.000000000000000000 ) ) ;
#52 = CARTESIAN_POINT ( 'NONE',  ( 13.49999999999999112, 0.000000000000000000, 0.000000000000000000 ) ) ;
#53 = ADVANCED_FACE ( 'NONE', ( #139, #169 ), #306, .T. ) ;
#54 = CARTESIAN_POINT ( 'NONE',  ( -36.70332301863295754, 0.000000000000000000, 0.000000000000000000 ) ) ;
#55 = VECTOR ( 'NONE', #51, 1000.000000000000000 ) ;
#56 = CIRCLE ( 'NONE', #332, 30.14999999999999858 ) ;
#57 = ORIENTED_EDGE ( 'NONE', *, *, #63, .F. ) ;
#58 = DIRECTION ( 'NONE',  ( 0.000000000000000000, 0.000000000000000000, 1.000000000000000000 ) ) ;
#59 = CALENDAR_DATE ( 2024, 2, 9 ) ;
#60 = PERSON_AND_ORGANIZATION ( #49, #117 ) ;
#61 = AXIS2_PLACEMENT_3D ( 'NONE', #127, #265, #86 ) ;
#62 = APPROVAL ( #226, 'UNSPECIFIED' ) ;
#63 = EDGE_CURVE ( 'NONE', #74, #389, #11, .T. ) ;
#64 = LINE ( 'NONE', #191, #95 ) ;
#65 = VERTEX_POINT ( 'NONE', #318 ) ;
#66 = AXIS2_PLACEMENT_3D ( 'NONE', #45, #176, #245 ) ;
#67 = CARTESIAN_POINT ( 'NONE',  ( 1.499999999999994449, 0.000000000000000000, 0.000000000000000000 ) ) ;
#68 = ORIENTED_EDGE ( 'NONE', *, *, #317, .F. ) ;
#69 = ADVANCED_FACE ( 'NONE', ( #36 ), #357, .T. ) ;
#70 = ORIENTED_EDGE ( 'NONE', *, *, #26, .F. ) ;
#71 = ORIENTED_EDGE ( 'NONE', *, *, #248, .F. ) ;
#72 = CIRCLE ( 'NONE', #313, 27.49999999999999645 ) ;
#73 = AXIS2_PLACEMENT_3D ( 'NONE', #259, #104, #365 ) ;
#74 = VERTEX_POINT ( 'NONE', #271 ) ;
#75 = CARTESIAN_POINT ( 'NONE',  ( 1.499999999999994449, 0.000000000000000000, 0.000000000000000000 ) ) ;
#76 = DIRECTION ( 'NONE',  ( 0.000000000000000000, 0.000000000000000000, 1.000000000000000000 ) ) ;
#77 = FACE_BOUND ( 'NONE', #198, .T. ) ;
#78 = CARTESIAN_POINT ( 'NONE',  ( -13.50000000000000533, 0.000000000000000000, 0.000000000000000000 ) ) ;
#79 = DIRECTION ( 'NONE',  ( -1.000000000000000000, -0.000000000000000000, -0.000000000000000000 ) ) ;
#80 = CARTESIAN_POINT ( 'NONE',  ( 1.499999999999994449, 0.000000000000000000, 33.25000000000000000 ) ) ;
#81 = DIRECTION ( 'NONE',  ( 0.000000000000000000, 0.000000000000000000, 1.000000000000000000 ) ) ;
#82 =( LENGTH_UNIT ( ) NAMED_UNIT ( * ) SI_UNIT ( .MILLI., .METRE. ) );
#83 = CYLINDRICAL_SURFACE ( 'NONE', #242, 34.89999999999999858 ) ;
#84 = CARTESIAN_POINT ( 'NONE',  ( -12.30000000000000604, 0.000000000000000000, 34.89999999999999858 ) ) ;
#85 = ORIENTED_EDGE ( 'NONE', *, *, #317, .T. ) ;
#86 = DIRECTION ( 'NONE',  ( 1.000000000000000000, 0.000000000000000000, 0.000000000000000000 ) ) ;
#87 = CIRCLE ( 'NONE', #268, 30.14999999999999503 ) ;
#88 = APPROVAL_PERSON_ORGANIZATION ( #351, #275, #130 ) ;
#89 = COORDINATED_UNIVERSAL_TIME_OFFSET ( 1, 0, .AHEAD. ) ;
#90 = ORIENTED_EDGE ( 'NONE', *, *, #22, .F. ) ;
#91 = UNCERTAINTY_MEASURE_WITH_UNIT (LENGTH_MEASURE( 1.000000000000000082E-05 ), #82, 'distance_accuracy_value', 'NONE');
#92 = DATE_AND_TIME ( #59, #142 ) ;
#93 = EDGE_LOOP ( 'NONE', ( #424, #5, #368, #90 ) ) ;
#94 = ORIENTED_EDGE ( 'NONE', *, *, #220, .T. ) ;
#95 = VECTOR ( 'NONE', #1, 1000.000000000000000 ) ;
#96 = ADVANCED_FACE ( 'NONE', ( #224 ), #125, .F. ) ;
#97 = PLANE ( 'NONE',  #121 ) ;
#98 = EDGE_LOOP ( 'NONE', ( #328, #356, #428, #423 ) ) ;
#99 = PERSON_AND_ORGANIZATION ( #49, #117 ) ;
#100 = DIRECTION ( 'NONE',  ( -0.000000000000000000, 0.000000000000000000, 1.000000000000000000 ) ) ;
#101 = VERTEX_POINT ( 'NONE', #330 ) ;
#102 = AXIS2_PLACEMENT_3D ( 'NONE', #274, #79, #282 ) ;
#103 = COORDINATED_UNIVERSAL_TIME_OFFSET ( 1, 0, .AHEAD. ) ;
#104 = DIRECTION ( 'NONE',  ( -1.000000000000000000, -0.000000000000000000, -0.000000000000000000 ) ) ;
#105 = VERTEX_POINT ( 'NONE', #164 ) ;
#106 = ORIENTED_EDGE ( 'NONE', *, *, #166, .T. ) ;
#107 = CC_DESIGN_PERSON_AND_ORGANIZATION_ASSIGNMENT ( #25, #249, ( #163 ) ) ;
#108 = DIRECTION ( 'NONE',  ( -1.000000000000000000, -0.000000000000000000, -0.000000000000000000 ) ) ;
#109 = CIRCLE ( 'NONE', #322, 34.89999999999999858 ) ;
#110 = DIRECTION ( 'NONE',  ( -1.000000000000000000, -0.000000000000000000, -0.000000000000000000 ) ) ;
#111 = DIRECTION ( 'NONE',  ( 0.000000000000000000, 0.000000000000000000, 1.000000000000000000 ) ) ;
#112 = DIRECTION ( 'NONE',  ( -1.000000000000000000, -0.000000000000000000, -0.000000000000000000 ) ) ;
#113 = DIRECTION ( 'NONE',  ( 0.000000000000000000, 0.000000000000000000, 1.000000000000000000 ) ) ;
#114 = CARTESIAN_POINT ( 'NONE',  ( 1.499999999999994449, 0.000000000000000000, 0.000000000000000000 ) ) ;
#115 = ADVANCED_FACE ( 'NONE', ( #394, #131 ), #97, .T. ) ;
#116 = DIRECTION ( 'NONE',  ( -1.000000000000000000, -0.000000000000000000, -0.000000000000000000 ) ) ;
#117 = ORGANIZATION ( 'UNSPECIFIED', 'UNSPECIFIED', '' ) ;
#118 = CARTESIAN_POINT ( 'NONE',  ( -13.50000000000000533, 0.000000000000000000, 27.49999999999999289 ) ) ;
#119 = FACE_OUTER_BOUND ( 'NONE', #29, .T. ) ;
#120 = DATE_AND_TIME ( #386, #338 ) ;
#121 = AXIS2_PLACEMENT_3D ( 'NONE', #161, #359, #100 ) ;
#122 = DATE_TIME_ROLE ( 'creation_date' ) ;
#123 = APPROVAL ( #361, 'UNSPECIFIED' ) ;
#124 = CIRCLE ( 'NONE', #208, 33.25000000000000000 ) ;
#125 = CYLINDRICAL_SURFACE ( 'NONE', #73, 27.49999999999999645 ) ;
#126 = EDGE_LOOP ( 'NONE', ( #402, #185 ) ) ;
#127 = CARTESIAN_POINT ( 'NONE',  ( 0.000000000000000000, 0.000000000000000000, 0.000000000000000000 ) ) ;
#128 = DIRECTION ( 'NONE',  ( -1.000000000000000000, -0.000000000000000000, -0.000000000000000000 ) ) ;
#129 = EDGE_LOOP ( 'NONE', ( #354, #85, #225, #2 ) ) ;
#130 = APPROVAL_ROLE ( '' ) ;
#131 = FACE_BOUND ( 'NONE', #126, .T. ) ;
#132 = CARTESIAN_POINT ( 'NONE',  ( 13.49999999999999112, 0.000000000000000000, 0.000000000000000000 ) ) ;
#133 = VECTOR ( 'NONE', #42, 1000.000000000000000 ) ;
#134 = VERTEX_POINT ( 'NONE', #227 ) ;
#135 = CC_DESIGN_DATE_AND_TIME_ASSIGNMENT ( #388, #150, ( #377 ) ) ;
#136 = ORIENTED_EDGE ( 'NONE', *, *, #137, .F. ) ;
#137 = EDGE_CURVE ( 'NONE', #352, #101, #64, .T. ) ;
#138 = DIRECTION ( 'NONE',  ( 0.000000000000000000, 0.000000000000000000, 1.000000000000000000 ) ) ;
#139 = FACE_BOUND ( 'NONE', #35, .T. ) ;
#140 = AXIS2_PLACEMENT_3D ( 'NONE', #414, #303, #10 ) ;
#141 = CONICAL_SURFACE ( 'NONE', #376, 34.89999999999999858, 1.396263401595466025 ) ;
#142 = LOCAL_TIME ( 22, 32, 26.00000000000000000, #89 ) ;
#143 = DIRECTION ( 'NONE',  ( 0.000000000000000000, 0.000000000000000000, 1.000000000000000000 ) ) ;
#144 = LINE ( 'NONE', #172, #348 ) ;
#145 = DIRECTION ( 'NONE',  ( -1.000000000000000000, -0.000000000000000000, -0.000000000000000000 ) ) ;
#146 = FACE_OUTER_BOUND ( 'NONE', #153, .T. ) ;
#147 = LINE ( 'NONE', #413, #233 ) ;
#148 = AXIS2_PLACEMENT_3D ( 'NONE', #67, #196, #327 ) ;
#149 = CC_DESIGN_APPROVAL ( #275, ( #163 ) ) ;
#150 = DATE_TIME_ROLE ( 'classification_date' ) ;
#151 = ORIENTED_EDGE ( 'NONE', *, *, #63, .T. ) ;
#152 = PERSON_AND_ORGANIZATION_ROLE ( 'creator' ) ;
#153 = EDGE_LOOP ( 'NONE', ( #205, #400, #223, #399 ) ) ;
#154 = ADVANCED_FACE ( 'NONE', ( #323 ), #159, .T. ) ;
#155 = ORIENTED_EDGE ( 'NONE', *, *, #422, .T. ) ;
#156 = ORIENTED_EDGE ( 'NONE', *, *, #17, .T. ) ;
#157 = AXIS2_PLACEMENT_3D ( 'NONE', #340, #309, #381 ) ;
#158 = CC_DESIGN_PERSON_AND_ORGANIZATION_ASSIGNMENT ( #429, #24, ( #290 ) ) ;
#159 = CYLINDRICAL_SURFACE ( 'NONE', #39, 33.25000000000000000 ) ;
#160 = COORDINATED_UNIVERSAL_TIME_OFFSET ( 1, 0, .AHEAD. ) ;
#161 = CARTESIAN_POINT ( 'NONE',  ( -13.50000000000000533, 27.49999999999999289, 0.000000000000000000 ) ) ;
#162 = ORIENTED_EDGE ( 'NONE', *, *, #334, .F. ) ;
#163 = PRODUCT_DEFINITION_FORMATION_WITH_SPECIFIED_SOURCE ( 'ANY', '', #290, .NOT_KNOWN. ) ;
#164 = CARTESIAN_POINT ( 'NONE',  ( -12.00906048183104247, 0.000000000000000000, 33.25000000000000000 ) ) ;
#165 = VERTEX_POINT ( 'NONE', #362 ) ;
#166 = EDGE_CURVE ( 'NONE', #101, #32, #283, .T. ) ;
#167 = CARTESIAN_POINT ( 'NONE',  ( 1.499999999999994449, 3.692310099429270397E-15, -30.15000000000000213 ) ) ;
#168 = FACE_OUTER_BOUND ( 'NONE', #232, .T. ) ;
#169 = FACE_OUTER_BOUND ( 'NONE', #40, .T. ) ;
#170 = DIRECTION ( 'NONE',  ( 0.000000000000000000, 0.000000000000000000, 1.000000000000000000 ) ) ;
#171 = AXIS2_PLACEMENT_3D ( 'NONE', #199, #427, #30 ) ;
#172 = CARTESIAN_POINT ( 'NONE',  ( -36.70332301863295754, 4.071950607164949987E-15, -33.25000000000000000 ) ) ;
#173 = EDGE_CURVE ( 'NONE', #292, #32, #34, .T. ) ;
#174 = CYLINDRICAL_SURFACE ( 'NONE', #419, 30.14999999999999503 ) ;
#175 = CARTESIAN_POINT ( 'NONE',  ( 1.499999999999994449, 0.000000000000000000, 0.000000000000000000 ) ) ;
#176 = DIRECTION ( 'NONE',  ( -1.000000000000000000, -0.000000000000000000, -0.000000000000000000 ) ) ;
#177 = FACE_OUTER_BOUND ( 'NONE', #324, .T. ) ;
#178 = DIRECTION ( 'NONE',  ( -1.000000000000000000, -0.000000000000000000, -0.000000000000000000 ) ) ;
#179 = PRODUCT_DEFINITION ( 'UNKNOWN', '', #163, #18 ) ;
#180 = AXIS2_PLACEMENT_3D ( 'NONE', #175, #379, #81 ) ;
#181 = CARTESIAN_POINT ( 'NONE',  ( -36.70332301863295754, 0.000000000000000000, 0.000000000000000000 ) ) ;
#182 = CALENDAR_DATE ( 2024, 2, 9 ) ;
#183 = ADVANCED_FACE ( 'NONE', ( #146 ), #174, .T. ) ;
#184 = PERSON_AND_ORGANIZATION ( #49, #117 ) ;
#185 = ORIENTED_EDGE ( 'NONE', *, *, #270, .F. ) ;
#186 = APPLICATION_PROTOCOL_DEFINITION ( 'international standard', 'config_control_design', 1994, #197 ) ;
#187 = PERSON_AND_ORGANIZATION_ROLE ( 'design_supplier' ) ;
#188 = CIRCLE ( 'NONE', #404, 30.14999999999999503 ) ;
#189 = EDGE_CURVE ( 'NONE', #7, #298, #147, .T. ) ;
#190 = CC_DESIGN_PERSON_AND_ORGANIZATION_ASSIGNMENT ( #60, #152, ( #179 ) ) ;
#191 = CARTESIAN_POINT ( 'NONE',  ( -36.70332301863295754, 0.000000000000000000, 30.14999999999999503 ) ) ;
#192 = AXIS2_PLACEMENT_3D ( 'NONE', #417, #288, #385 ) ;
#193 = EDGE_LOOP ( 'NONE', ( #70, #367 ) ) ;
#194 = AXIS2_PLACEMENT_3D ( 'NONE', #204, #307, #342 ) ;
#195 = MECHANICAL_CONTEXT ( 'NONE', #239, 'mechanical' ) ;
#196 = DIRECTION ( 'NONE',  ( -1.000000000000000000, -0.000000000000000000, -0.000000000000000000 ) ) ;
#197 = APPLICATION_CONTEXT ( 'configuration controlled 3d designs of mechanical parts and assemblies' ) ;
#198 = EDGE_LOOP ( 'NONE', ( #106, #272 ) ) ;
#199 = CARTESIAN_POINT ( 'NONE',  ( -36.70332301863295754, 0.000000000000000000, 0.000000000000000000 ) ) ;
#200 = ORIENTED_EDGE ( 'NONE', *, *, #334, .T. ) ;
#201 = EDGE_CURVE ( 'NONE', #165, #300, #124, .T. ) ;
#202 = LOCAL_TIME ( 22, 32, 26.00000000000000000, #103 ) ;
#203 = DIRECTION ( 'NONE',  ( -1.000000000000000000, -0.000000000000000000, -0.000000000000000000 ) ) ;
#204 = CARTESIAN_POINT ( 'NONE',  ( -12.30000000000000604, 0.000000000000000000, 0.000000000000000000 ) ) ;
#205 = ORIENTED_EDGE ( 'NONE', *, *, #173, .F. ) ;
#206 = CARTESIAN_POINT ( 'NONE',  ( -36.70332301863295754, 4.274017329024263139E-15, -34.89999999999999858 ) ) ;
#207 = DIRECTION ( 'NONE',  ( -1.000000000000000000, -0.000000000000000000, -0.000000000000000000 ) ) ;
#208 = AXIS2_PLACEMENT_3D ( 'NONE', #75, #335, #408 ) ;
#209 = LINE ( 'NONE', #206, #258 ) ;
#210 = CARTESIAN_POINT ( 'NONE',  ( -12.30000000000000604, 0.000000000000000000, 0.000000000000000000 ) ) ;
#211 = CARTESIAN_POINT ( 'NONE',  ( -36.70332301863295754, 0.000000000000000000, 0.000000000000000000 ) ) ;
#212 = LINE ( 'NONE', #344, #55 ) ;
#213 = CARTESIAN_POINT ( 'NONE',  ( -12.30000000000000604, 0.000000000000000000, 0.000000000000000000 ) ) ;
#214 = DIRECTION ( 'NONE',  ( -1.000000000000000000, -0.000000000000000000, -0.000000000000000000 ) ) ;
#215 = EDGE_CURVE ( 'NONE', #32, #101, #56, .T. ) ;
#216 = APPROVAL_PERSON_ORGANIZATION ( #99, #123, #217 ) ;
#217 = APPROVAL_ROLE ( '' ) ;
#218 = CARTESIAN_POINT ( 'NONE',  ( -13.50000000000000533, 0.000000000000000000, 0.000000000000000000 ) ) ;
#219 = APPROVAL_DATE_TIME ( #120, #62 ) ;
#220 = EDGE_CURVE ( 'NONE', #134, #391, #285, .T. ) ;
#221 = VECTOR ( 'NONE', #108, 1000.000000000000000 ) ;
#222 = AXIS2_PLACEMENT_3D ( 'NONE', #213, #20, #170 ) ;
#223 = ORIENTED_EDGE ( 'NONE', *, *, #137, .T. ) ;
#224 = FACE_OUTER_BOUND ( 'NONE', #129, .T. ) ;
#225 = ORIENTED_EDGE ( 'NONE', *, *, #270, .T. ) ;
#226 = APPROVAL_STATUS ( 'not_yet_approved' ) ;
#227 = CARTESIAN_POINT ( 'NONE',  ( 13.49999999999999112, 0.000000000000000000, 27.49999999999999645 ) ) ;
#228 = LINE ( 'NONE', #273, #221 ) ;
#229 = APPROVAL_PERSON_ORGANIZATION ( #396, #62, #23 ) ;
#230 = APPROVAL_DATE_TIME ( #33, #123 ) ;
#231 = ORIENTED_EDGE ( 'NONE', *, *, #416, .T. ) ;
#232 = EDGE_LOOP ( 'NONE', ( #382, #329, #57, #360 ) ) ;
#233 = VECTOR ( 'NONE', #310, 999.9999999999998863 ) ;
#234 = CARTESIAN_POINT ( 'NONE',  ( -36.70332301863295754, 3.367778697655220913E-15, -27.49999999999999645 ) ) ;
#235 = CC_DESIGN_PERSON_AND_ORGANIZATION_ASSIGNMENT ( #184, #383, ( #377 ) ) ;
#236 = MANIFOLD_SOLID_BREP ( 'Rotation1', #276 ) ;
#237 = CARTESIAN_POINT ( 'NONE',  ( 1.499999999999994449, 33.25000000000000000, 0.000000000000000000 ) ) ;
#238 = DIRECTION ( 'NONE',  ( -1.000000000000000000, -0.000000000000000000, -0.000000000000000000 ) ) ;
#239 = APPLICATION_CONTEXT ( 'configuration controlled 3d designs of mechanical parts and assemblies' ) ;
#240 = DIRECTION ( 'NONE',  ( -1.000000000000000000, -0.000000000000000000, -0.000000000000000000 ) ) ;
#241 = FACE_OUTER_BOUND ( 'NONE', #93, .T. ) ;
#242 = AXIS2_PLACEMENT_3D ( 'NONE', #181, #315, #138 ) ;
#243 = CC_DESIGN_PERSON_AND_ORGANIZATION_ASSIGNMENT ( #316, #187, ( #163 ) ) ;
#244 = CARTESIAN_POINT ( 'NONE',  ( 13.49999999999999112, 0.000000000000000000, 0.000000000000000000 ) ) ;
#245 = DIRECTION ( 'NONE',  ( 0.000000000000000000, 0.000000000000000000, 1.000000000000000000 ) ) ;
#246 = EDGE_LOOP ( 'NONE', ( #312, #289, #256, #136 ) ) ;
#247 = CARTESIAN_POINT ( 'NONE',  ( 13.49999999999999112, 3.692310099429269608E-15, -30.14999999999999503 ) ) ;
#248 = EDGE_CURVE ( 'NONE', #105, #7, #426, .T. ) ;
#249 = PERSON_AND_ORGANIZATION_ROLE ( 'creator' ) ;
#250 = AXIS2_PLACEMENT_3D ( 'NONE', #218, #350, #58 ) ;
#251 = CIRCLE ( 'NONE', #66, 33.25000000000000000 ) ;
#252 = APPLICATION_PROTOCOL_DEFINITION ( 'international standard', 'config_control_design', 1994, #239 ) ;
#253 = EDGE_LOOP ( 'NONE', ( #151, #231 ) ) ;
#254 = ADVANCED_FACE ( 'NONE', ( #119 ), #47, .F. ) ;
#255 = COORDINATED_UNIVERSAL_TIME_OFFSET ( 1, 0, .AHEAD. ) ;
#256 = ORIENTED_EDGE ( 'NONE', *, *, #166, .F. ) ;
#257 = VERTEX_POINT ( 'NONE', #278 ) ;
#258 = VECTOR ( 'NONE', #240, 1000.000000000000000 ) ;
#259 = CARTESIAN_POINT ( 'NONE',  ( -36.70332301863295754, 0.000000000000000000, 0.000000000000000000 ) ) ;
#260 = EDGE_CURVE ( 'NONE', #298, #389, #209, .T. ) ;
#261 = ORIENTED_EDGE ( 'NONE', *, *, #201, .T. ) ;
#262 = APPROVAL_DATE_TIME ( #92, #275 ) ;
#263 = DIRECTION ( 'NONE',  ( 0.000000000000000000, 0.000000000000000000, 1.000000000000000000 ) ) ;
#264 = ORIENTED_EDGE ( 'NONE', *, *, #390, .F. ) ;
#265 = DIRECTION ( 'NONE',  ( 0.000000000000000000, 0.000000000000000000, 1.000000000000000000 ) ) ;
#266 = DIRECTION ( 'NONE',  ( -1.000000000000000000, -0.000000000000000000, -0.000000000000000000 ) ) ;
#267 = ORIENTED_EDGE ( 'NONE', *, *, #341, .T. ) ;
#268 = AXIS2_PLACEMENT_3D ( 'NONE', #244, #203, #378 ) ;
#269 = CC_DESIGN_SECURITY_CLASSIFICATION ( #377, ( #163 ) ) ;
#270 = EDGE_CURVE ( 'NONE', #257, #391, #314, .T. ) ;
#271 = CARTESIAN_POINT ( 'NONE',  ( -13.50000000000000533, 0.000000000000000000, 34.89999999999999858 ) ) ;
#272 = ORIENTED_EDGE ( 'NONE', *, *, #215, .T. ) ;
#273 = CARTESIAN_POINT ( 'NONE',  ( -36.70332301863295754, 0.000000000000000000, 34.89999999999999858 ) ) ;
#274 = CARTESIAN_POINT ( 'NONE',  ( -12.00906048183104247, 0.000000000000000000, 0.000000000000000000 ) ) ;
#275 = APPROVAL ( #3, 'UNSPECIFIED' ) ;
#276 = CLOSED_SHELL ( 'NONE', ( #38, #154, #370, #326, #96, #53, #254, #115, #69, #355, #321, #333, #183 ) ) ;
#277 = AXIS2_PLACEMENT_3D ( 'NONE', #409, #345, #406 ) ;
#278 = CARTESIAN_POINT ( 'NONE',  ( -13.50000000000000533, 3.367778697655220519E-15, -27.49999999999999289 ) ) ;
#279 = DIRECTION ( 'NONE',  ( -1.000000000000000000, -0.000000000000000000, -0.000000000000000000 ) ) ;
#280 = CARTESIAN_POINT ( 'NONE',  ( -36.70332301863295754, 0.000000000000000000, 27.49999999999999645 ) ) ;
#281 = DIRECTION ( 'NONE',  ( 0.000000000000000000, 0.000000000000000000, 1.000000000000000000 ) ) ;
#282 = DIRECTION ( 'NONE',  ( 0.000000000000000000, 0.000000000000000000, 1.000000000000000000 ) ) ;
#283 = CIRCLE ( 'NONE', #148, 30.14999999999999858 ) ;
#284 = EDGE_CURVE ( 'NONE', #9, #298, #109, .T. ) ;
#285 = LINE ( 'NONE', #280, #411 ) ;
#286 = FACE_OUTER_BOUND ( 'NONE', #246, .T. ) ;
#287 = CALENDAR_DATE ( 2024, 2, 9 ) ;
#288 = DIRECTION ( 'NONE',  ( 1.000000000000000000, 0.000000000000000000, 0.000000000000000000 ) ) ;
#289 = ORIENTED_EDGE ( 'NONE', *, *, #173, .T. ) ;
#290 = PRODUCT ( '3D-LR-131-SE_60.3-55_17106640', '3D-LR-131-SE_60.3-55_17106640', '', ( #195 ) ) ;
#291 = EDGE_LOOP ( 'NONE', ( #418, #155, #358, #46 ) ) ;
#292 = VERTEX_POINT ( 'NONE', #247 ) ;
#293 = EDGE_CURVE ( 'NONE', #65, #134, #21, .T. ) ;
#294 = CIRCLE ( 'NONE', #180, 33.25000000000000000 ) ;
#295 = AXIS2_PLACEMENT_3D ( 'NONE', #211, #116, #113 ) ;
#296 = CARTESIAN_POINT ( 'NONE',  ( -36.70332301863295754, 0.000000000000000000, 0.000000000000000000 ) ) ;
#297 = CARTESIAN_POINT ( 'NONE',  ( -36.70332301863295754, 3.692310099429269608E-15, -30.14999999999999503 ) ) ;
#298 = VERTEX_POINT ( 'NONE', #410 ) ;
#299 = EDGE_CURVE ( 'NONE', #292, #352, #87, .T. ) ;
#300 = VERTEX_POINT ( 'NONE', #80 ) ;
#301 = CIRCLE ( 'NONE', #13, 34.89999999999999858 ) ;
#302 = ORIENTED_EDGE ( 'NONE', *, *, #26, .T. ) ;
#303 = DIRECTION ( 'NONE',  ( -1.000000000000000000, -0.000000000000000000, -0.000000000000000000 ) ) ;
#304 =( NAMED_UNIT ( * ) SI_UNIT ( $, .STERADIAN. ) SOLID_ANGLE_UNIT ( ) );
#305 = FACE_OUTER_BOUND ( 'NONE', #193, .T. ) ;
#306 = PLANE ( 'NONE',  #192 ) ;
#307 = DIRECTION ( 'NONE',  ( -1.000000000000000000, -0.000000000000000000, -0.000000000000000000 ) ) ;
#308 = AXIS2_PLACEMENT_3D ( 'NONE', #237, #374, #43 ) ;
#309 = DIRECTION ( 'NONE',  ( -1.000000000000000000, -0.000000000000000000, -0.000000000000000000 ) ) ;
#310 = DIRECTION ( 'NONE',  ( -0.1736481776669280552, 1.206041662501898361E-16, -0.9848077530122085754 ) ) ;
#311 = DIRECTION ( 'NONE',  ( -1.000000000000000000, -0.000000000000000000, -0.000000000000000000 ) ) ;
#312 = ORIENTED_EDGE ( 'NONE', *, *, #390, .T. ) ;
#313 = AXIS2_PLACEMENT_3D ( 'NONE', #132, #279, #111 ) ;
#314 = CIRCLE ( 'NONE', #369, 27.49999999999999289 ) ;
#315 = DIRECTION ( 'NONE',  ( -1.000000000000000000, -0.000000000000000000, -0.000000000000000000 ) ) ;
#316 = PERSON_AND_ORGANIZATION ( #49, #117 ) ;
#317 = EDGE_CURVE ( 'NONE', #65, #257, #50, .T. ) ;
#318 = CARTESIAN_POINT ( 'NONE',  ( 13.49999999999999112, 3.367778697655220913E-15, -27.49999999999999645 ) ) ;
#319 = COORDINATED_UNIVERSAL_TIME_OFFSET ( 1, 0, .AHEAD. ) ;
#320 = CONICAL_SURFACE ( 'NONE', #222, 34.89999999999999858, 1.396263401595466025 ) ;
#321 = ADVANCED_FACE ( 'NONE', ( #177 ), #336, .T. ) ;
#322 = AXIS2_PLACEMENT_3D ( 'NONE', #346, #214, #371 ) ;
#323 = FACE_OUTER_BOUND ( 'NONE', #41, .T. ) ;
#324 = EDGE_LOOP ( 'NONE', ( #162, #261, #37, #421 ) ) ;
#325 = DATE_AND_TIME ( #182, #353 ) ;
#326 = ADVANCED_FACE ( 'NONE', ( #168 ), #83, .T. ) ;
#327 = DIRECTION ( 'NONE',  ( 0.000000000000000000, 0.000000000000000000, 1.000000000000000000 ) ) ;
#328 = ORIENTED_EDGE ( 'NONE', *, *, #260, .F. ) ;
#329 = ORIENTED_EDGE ( 'NONE', *, *, #260, .T. ) ;
#330 = CARTESIAN_POINT ( 'NONE',  ( 1.499999999999994449, 0.000000000000000000, 30.14999999999999858 ) ) ;
#331 = ORIENTED_EDGE ( 'NONE', *, *, #31, .F. ) ;
#332 = AXIS2_PLACEMENT_3D ( 'NONE', #114, #14, #375 ) ;
#333 = ADVANCED_FACE ( 'NONE', ( #77, #305 ), #407, .T. ) ;
#334 = EDGE_CURVE ( 'NONE', #165, #7, #144, .T. ) ;
#335 = DIRECTION ( 'NONE',  ( -1.000000000000000000, -0.000000000000000000, -0.000000000000000000 ) ) ;
#336 = CYLINDRICAL_SURFACE ( 'NONE', #349, 33.25000000000000000 ) ;
#337 = DIRECTION ( 'NONE',  ( 0.000000000000000000, 0.000000000000000000, 1.000000000000000000 ) ) ;
#338 = LOCAL_TIME ( 22, 32, 26.00000000000000000, #319 ) ;
#339 = LOCAL_TIME ( 22, 32, 26.00000000000000000, #255 ) ;
#340 = CARTESIAN_POINT ( 'NONE',  ( 13.49999999999999112, 0.000000000000000000, 0.000000000000000000 ) ) ;
#341 = EDGE_CURVE ( 'NONE', #391, #257, #44, .T. ) ;
#342 = DIRECTION ( 'NONE',  ( 0.000000000000000000, 0.000000000000000000, 1.000000000000000000 ) ) ;
#343 = DIRECTION ( 'NONE',  ( 0.000000000000000000, 0.000000000000000000, 1.000000000000000000 ) ) ;
#344 = CARTESIAN_POINT ( 'NONE',  ( -36.70332301863295754, 0.000000000000000000, 33.25000000000000000 ) ) ;
#345 = DIRECTION ( 'NONE',  ( -1.000000000000000000, -0.000000000000000000, -0.000000000000000000 ) ) ;
#346 = CARTESIAN_POINT ( 'NONE',  ( -12.30000000000000604, 0.000000000000000000, 0.000000000000000000 ) ) ;
#347 = CC_DESIGN_DATE_AND_TIME_ASSIGNMENT ( #325, #122, ( #179 ) ) ;
#348 = VECTOR ( 'NONE', #112, 1000.000000000000000 ) ;
#349 = AXIS2_PLACEMENT_3D ( 'NONE', #54, #311, #19 ) ;
#350 = DIRECTION ( 'NONE',  ( -1.000000000000000000, -0.000000000000000000, -0.000000000000000000 ) ) ;
#351 = PERSON_AND_ORGANIZATION ( #49, #117 ) ;
#352 = VERTEX_POINT ( 'NONE', #373 ) ;
#353 = LOCAL_TIME ( 22, 32, 26.00000000000000000, #160 ) ;
#354 = ORIENTED_EDGE ( 'NONE', *, *, #293, .F. ) ;
#355 = ADVANCED_FACE ( 'NONE', ( #15 ), #320, .T. ) ;
#356 = ORIENTED_EDGE ( 'NONE', *, *, #401, .T. ) ;
#357 = CYLINDRICAL_SURFACE ( 'NONE', #171, 34.89999999999999858 ) ;
#358 = ORIENTED_EDGE ( 'NONE', *, *, #22, .T. ) ;
#359 = DIRECTION ( 'NONE',  ( -1.000000000000000000, 0.000000000000000000, -0.000000000000000000 ) ) ;
#360 = ORIENTED_EDGE ( 'NONE', *, *, #8, .F. ) ;
#361 = APPROVAL_STATUS ( 'not_yet_approved' ) ;
#362 = CARTESIAN_POINT ( 'NONE',  ( 1.499999999999994449, 4.071950607164949987E-15, -33.25000000000000000 ) ) ;
#363 = CARTESIAN_POINT ( 'NONE',  ( -12.30000000000000604, 0.000000000000000000, 34.89999999999999858 ) ) ;
#364 = SHAPE_DEFINITION_REPRESENTATION ( #387, #28 ) ;
#365 = DIRECTION ( 'NONE',  ( 0.000000000000000000, 0.000000000000000000, 1.000000000000000000 ) ) ;
#366 = ORIENTED_EDGE ( 'NONE', *, *, #299, .F. ) ;
#367 = ORIENTED_EDGE ( 'NONE', *, *, #201, .F. ) ;
#368 = ORIENTED_EDGE ( 'NONE', *, *, #284, .F. ) ;
#369 = AXIS2_PLACEMENT_3D ( 'NONE', #16, #145, #343 ) ;
#370 = ADVANCED_FACE ( 'NONE', ( #241 ), #141, .T. ) ;
#371 = DIRECTION ( 'NONE',  ( 0.000000000000000000, 0.000000000000000000, 1.000000000000000000 ) ) ;
#372 = LINE ( 'NONE', #84, #425 ) ;
#373 = CARTESIAN_POINT ( 'NONE',  ( 13.49999999999999112, 0.000000000000000000, 30.14999999999999503 ) ) ;
#374 = DIRECTION ( 'NONE',  ( 1.000000000000000000, 0.000000000000000000, 0.000000000000000000 ) ) ;
#375 = DIRECTION ( 'NONE',  ( 0.000000000000000000, 0.000000000000000000, 1.000000000000000000 ) ) ;
#376 = AXIS2_PLACEMENT_3D ( 'NONE', #210, #178, #281 ) ;
#377 = SECURITY_CLASSIFICATION ( '', '', #420 ) ;
#378 = DIRECTION ( 'NONE',  ( 0.000000000000000000, 0.000000000000000000, 1.000000000000000000 ) ) ;
#379 = DIRECTION ( 'NONE',  ( -1.000000000000000000, -0.000000000000000000, -0.000000000000000000 ) ) ;
#380 =( NAMED_UNIT ( * ) PLANE_ANGLE_UNIT ( ) SI_UNIT ( $, .RADIAN. ) );
#381 = DIRECTION ( 'NONE',  ( 0.000000000000000000, 0.000000000000000000, 1.000000000000000000 ) ) ;
#382 = ORIENTED_EDGE ( 'NONE', *, *, #284, .T. ) ;
#383 = PERSON_AND_ORGANIZATION_ROLE ( 'classification_officer' ) ;
#384 = CIRCLE ( 'NONE', #194, 34.89999999999999858 ) ;
#385 = DIRECTION ( 'NONE',  ( 0.000000000000000000, 0.000000000000000000, -1.000000000000000000 ) ) ;
#386 = CALENDAR_DATE ( 2024, 2, 9 ) ;
#387 = PRODUCT_DEFINITION_SHAPE ( 'NONE', 'NONE',  #179 ) ;
#388 = DATE_AND_TIME ( #397, #339 ) ;
#389 = VERTEX_POINT ( 'NONE', #415 ) ;
#390 = EDGE_CURVE ( 'NONE', #352, #292, #188, .T. ) ;
#391 = VERTEX_POINT ( 'NONE', #118 ) ;
#392 = CC_DESIGN_APPROVAL ( #123, ( #377 ) ) ;
#393 = ORIENTED_EDGE ( 'NONE', *, *, #17, .F. ) ;
#394 = FACE_OUTER_BOUND ( 'NONE', #253, .T. ) ;
#395 = ORIENTED_EDGE ( 'NONE', *, *, #293, .T. ) ;
#396 = PERSON_AND_ORGANIZATION ( #49, #117 ) ;
#397 = CALENDAR_DATE ( 2024, 2, 9 ) ;
#398 = CC_DESIGN_APPROVAL ( #62, ( #179 ) ) ;
#399 = ORIENTED_EDGE ( 'NONE', *, *, #215, .F. ) ;
#400 = ORIENTED_EDGE ( 'NONE', *, *, #299, .T. ) ;
#401 = EDGE_CURVE ( 'NONE', #298, #9, #384, .T. ) ;
#402 = ORIENTED_EDGE ( 'NONE', *, *, #341, .F. ) ;
#403 = DIRECTION ( 'NONE',  ( -1.000000000000000000, -0.000000000000000000, -0.000000000000000000 ) ) ;
#404 = AXIS2_PLACEMENT_3D ( 'NONE', #52, #238, #76 ) ;
#405 = CYLINDRICAL_SURFACE ( 'NONE', #140, 30.14999999999999503 ) ;
#406 = DIRECTION ( 'NONE',  ( 0.000000000000000000, 0.000000000000000000, 1.000000000000000000 ) ) ;
#407 = PLANE ( 'NONE',  #308 ) ;
#408 = DIRECTION ( 'NONE',  ( 0.000000000000000000, 0.000000000000000000, 1.000000000000000000 ) ) ;
#409 = CARTESIAN_POINT ( 'NONE',  ( -13.50000000000000533, 0.000000000000000000, 0.000000000000000000 ) ) ;
#410 = CARTESIAN_POINT ( 'NONE',  ( -12.30000000000000604, 4.274017329024263139E-15, -34.89999999999999858 ) ) ;
#411 = VECTOR ( 'NONE', #110, 1000.000000000000000 ) ;
#412 = PRODUCT_RELATED_PRODUCT_CATEGORY ( 'detail', '', ( #290 ) ) ;
#413 = CARTESIAN_POINT ( 'NONE',  ( -12.30000000000000604, 4.274017329024263139E-15, -34.89999999999999858 ) ) ;
#414 = CARTESIAN_POINT ( 'NONE',  ( -36.70332301863295754, 0.000000000000000000, 0.000000000000000000 ) ) ;
#415 = CARTESIAN_POINT ( 'NONE',  ( -13.50000000000000533, 4.274017329024263139E-15, -34.89999999999999858 ) ) ;
#416 = EDGE_CURVE ( 'NONE', #389, #74, #301, .T. ) ;
#417 = CARTESIAN_POINT ( 'NONE',  ( 13.49999999999999467, 30.14999999999999503, 0.000000000000000000 ) ) ;
#418 = ORIENTED_EDGE ( 'NONE', *, *, #189, .F. ) ;
#419 = AXIS2_PLACEMENT_3D ( 'NONE', #12, #403, #143 ) ;
#420 = SECURITY_CLASSIFICATION_LEVEL ( 'unclassified' ) ;
#421 = ORIENTED_EDGE ( 'NONE', *, *, #422, .F. ) ;
#422 = EDGE_CURVE ( 'NONE', #7, #105, #251, .T. ) ;
#423 = ORIENTED_EDGE ( 'NONE', *, *, #416, .F. ) ;
#424 = ORIENTED_EDGE ( 'NONE', *, *, #248, .T. ) ;
#425 = VECTOR ( 'NONE', #48, 999.9999999999998863 ) ;
#426 = CIRCLE ( 'NONE', #102, 33.25000000000000000 ) ;
#427 = DIRECTION ( 'NONE',  ( -1.000000000000000000, -0.000000000000000000, -0.000000000000000000 ) ) ;
#428 = ORIENTED_EDGE ( 'NONE', *, *, #8, .T. ) ;
#429 = PERSON_AND_ORGANIZATION ( #49, #117 ) ;
ENDSEC;
END-ISO-10303-21;
