ISO-10303-21;
HEADER;
FILE_DESCRIPTION (( 'STEP AP203' ),
    '1' );
FILE_NAME ('3D_GS5544-FI 7.3_188500510.STEP',
    '2024-09-24T17:10:08',
    ( '' ),
    ( '' ),
    'SwSTEP 2.0',
    'SolidWorks 2024',
    '' );
FILE_SCHEMA (( 'CONFIG_CONTROL_DESIGN' ));
ENDSEC;

DATA;
#1 = ORIENTED_EDGE ( 'NONE', *, *, #135, .T. ) ;
#2 = CARTESIAN_POINT ( 'NONE',  ( 0.000000000000000000, 10.00555349946515982, -6.500000000000000888 ) ) ;
#3 = DIRECTION ( 'NONE',  ( 0.000000000000000000, 0.000000000000000000, 1.000000000000000000 ) ) ;
#4 = CARTESIAN_POINT ( 'NONE',  ( 7.960204194457796463E-16, 2.500000000000000444, 6.500000000000000888 ) ) ;
#5 = CC_DESIGN_PERSON_AND_ORGANIZATION_ASSIGNMENT ( #8, #153, ( #53 ) ) ;
#6 = DIRECTION ( 'NONE',  ( 0.000000000000000000, 1.000000000000000000, 0.000000000000000000 ) ) ;
#7 = EDGE_CURVE ( 'NONE', #94, #193, #72, .T. ) ;
#8 = PERSON_AND_ORGANIZATION ( #123, #187 ) ;
#9 = MANIFOLD_SOLID_BREP ( 'Schnitt-Linear austragen1', #102 ) ;
#10 = APPROVAL_ROLE ( '' ) ;
#11 = DATE_AND_TIME ( #132, #232 ) ;
#12 = SECURITY_CLASSIFICATION_LEVEL ( 'unclassified' ) ;
#13 = CC_DESIGN_SECURITY_CLASSIFICATION ( #104, ( #205 ) ) ;
#14 = DIRECTION ( 'NONE',  ( 0.000000000000000000, 1.000000000000000000, 0.000000000000000000 ) ) ;
#15 = ORIENTED_EDGE ( 'NONE', *, *, #115, .T. ) ;
#16 =( BOUNDED_CURVE ( )  B_SPLINE_CURVE ( 3, ( #227, #158, #226, #137 ),
 .UNSPECIFIED., .F., .F. ) 
 B_SPLINE_CURVE_WITH_KNOTS ( ( 4, 4 ),
 ( 3.141592653589793116, 6.283185307179586232 ),
 .UNSPECIFIED. ) 
 CURVE ( )  GEOMETRIC_REPRESENTATION_ITEM ( )  RATIONAL_B_SPLINE_CURVE ( ( 1.000000000000000000, 0.3333333333333333703, 0.3333333333333333703, 1.000000000000000000 ) ) 
 REPRESENTATION_ITEM ( '' )  );
#17 = VERTEX_POINT ( 'NONE', #57 ) ;
#18 = ORIENTED_EDGE ( 'NONE', *, *, #245, .T. ) ;
#19 = CARTESIAN_POINT ( 'NONE',  ( 0.000000000000000000, 13.50000000000000000, 0.000000000000000000 ) ) ;
#20 = CIRCLE ( 'NONE', #237, 3.649999999999999911 ) ;
#21 = DIRECTION ( 'NONE',  ( 0.000000000000000000, 0.5000000000000011102, -0.8660254037844379305 ) ) ;
#22 =( NAMED_UNIT ( * ) PLANE_ANGLE_UNIT ( ) SI_UNIT ( $, .RADIAN. ) );
#23 = CARTESIAN_POINT ( 'NONE',  ( 0.000000000000000000, 0.000000000000000000, 0.000000000000000000 ) ) ;
#24 =( BOUNDED_CURVE ( )  B_SPLINE_CURVE ( 3, ( #197, #59, #74, #195 ),
 .UNSPECIFIED., .F., .F. ) 
 B_SPLINE_CURVE_WITH_KNOTS ( ( 4, 4 ),
 ( 0.000000000000000000, 3.141592653589793116 ),
 .UNSPECIFIED. ) 
 CURVE ( )  GEOMETRIC_REPRESENTATION_ITEM ( )  RATIONAL_B_SPLINE_CURVE ( ( 1.000000000000000000, 0.3333333333333333703, 0.3333333333333333703, 1.000000000000000000 ) ) 
 REPRESENTATION_ITEM ( '' )  );
#25 = LINE ( 'NONE', #147, #243 ) ;
#26 = APPROVAL_PERSON_ORGANIZATION ( #194, #70, #116 ) ;
#27 = PRODUCT_RELATED_PRODUCT_CATEGORY ( 'detail', '', ( #171 ) ) ;
#28 = MECHANICAL_CONTEXT ( 'NONE', #190, 'mechanical' ) ;
#29 = DIRECTION ( 'NONE',  ( 0.000000000000000000, 0.000000000000000000, 1.000000000000000000 ) ) ;
#30 = APPROVAL_PERSON_ORGANIZATION ( #170, #129, #90 ) ;
#31 = COORDINATED_UNIVERSAL_TIME_OFFSET ( 1, 0, .AHEAD. ) ;
#32 = ORIENTED_EDGE ( 'NONE', *, *, #115, .F. ) ;
#33 = CC_DESIGN_PERSON_AND_ORGANIZATION_ASSIGNMENT ( #91, #172, ( #104 ) ) ;
#34 = ORIENTED_EDGE ( 'NONE', *, *, #42, .T. ) ;
#35 = FACE_OUTER_BOUND ( 'NONE', #186, .T. ) ;
#36 = CC_DESIGN_PERSON_AND_ORGANIZATION_ASSIGNMENT ( #188, #50, ( #171 ) ) ;
#37 = FACE_OUTER_BOUND ( 'NONE', #178, .T. ) ;
#38 = ORIENTED_EDGE ( 'NONE', *, *, #93, .T. ) ;
#39 =( GEOMETRIC_REPRESENTATION_CONTEXT ( 3 ) GLOBAL_UNCERTAINTY_ASSIGNED_CONTEXT ( ( #189 ) ) GLOBAL_UNIT_ASSIGNED_CONTEXT ( ( #238, #22, #63 ) ) REPRESENTATION_CONTEXT ( 'NONE', 'WORKASPACE' ) );
#40 = CARTESIAN_POINT ( 'NONE',  ( 0.000000000000000000, 0.000000000000000000, -3.649999999999999911 ) ) ;
#41 = EDGE_LOOP ( 'NONE', ( #246, #32, #96, #145 ) ) ;
#42 = EDGE_CURVE ( 'NONE', #73, #17, #24, .T. ) ;
#43 = CARTESIAN_POINT ( 'NONE',  ( 0.000000000000000000, 13.50000000000000000, -6.500000000000000888 ) ) ;
#44 = DIRECTION ( 'NONE',  ( 0.000000000000000000, 0.000000000000000000, 1.000000000000000000 ) ) ;
#45 = PLANE ( 'NONE',  #196 ) ;
#46 = LINE ( 'NONE', #43, #168 ) ;
#47 = EDGE_LOOP ( 'NONE', ( #15, #34 ) ) ;
#48 = ADVANCED_BREP_SHAPE_REPRESENTATION ( '3D_GS5544-FI 7.3_188500510', ( #9, #179 ), #39 ) ;
#49 = ORIENTED_EDGE ( 'NONE', *, *, #93, .F. ) ;
#50 = PERSON_AND_ORGANIZATION_ROLE ( 'design_owner' ) ;
#51 = ORIENTED_EDGE ( 'NONE', *, *, #135, .F. ) ;
#52 = CYLINDRICAL_SURFACE ( 'NONE', #58, 6.500000000000000888 ) ;
#53 = PRODUCT_DEFINITION ( 'UNKNOWN', '', #205, #130 ) ;
#54 = DIRECTION ( 'NONE',  ( -0.000000000000000000, -1.000000000000000000, -0.000000000000000000 ) ) ;
#55 = APPROVAL_DATE_TIME ( #177, #70 ) ;
#56 = VERTEX_POINT ( 'NONE', #98 ) ;
#57 = CARTESIAN_POINT ( 'NONE',  ( 0.000000000000000000, 8.360105232274721132, -3.649999999999999911 ) ) ;
#58 = AXIS2_PLACEMENT_3D ( 'NONE', #211, #54, #113 ) ;
#59 = CARTESIAN_POINT ( 'NONE',  ( -7.299999999999998934, 4.145448267190439573, 3.650000000000000799 ) ) ;
#60 = PLANE ( 'NONE',  #62 ) ;
#61 = LINE ( 'NONE', #124, #173 ) ;
#62 = AXIS2_PLACEMENT_3D ( 'NONE', #146, #83, #21 ) ;
#63 =( NAMED_UNIT ( * ) SI_UNIT ( $, .STERADIAN. ) SOLID_ANGLE_UNIT ( ) );
#64 = DIRECTION ( 'NONE',  ( -0.000000000000000000, -1.000000000000000000, -0.000000000000000000 ) ) ;
#65 = CALENDAR_DATE ( 2024, 24, 9 ) ;
#66 = CIRCLE ( 'NONE', #138, 6.500000000000000888 ) ;
#67 = PERSON_AND_ORGANIZATION ( #123, #187 ) ;
#68 = LOCAL_TIME ( 19, 10, 8.000000000000000000, #85 ) ;
#69 = APPROVAL_DATE_TIME ( #11, #129 ) ;
#70 = APPROVAL ( #112, 'UNSPECIFIED' ) ;
#71 = DIRECTION ( 'NONE',  ( -0.000000000000000000, -1.000000000000000000, -0.000000000000000000 ) ) ;
#72 = CIRCLE ( 'NONE', #126, 3.649999999999999911 ) ;
#73 = VERTEX_POINT ( 'NONE', #180 ) ;
#74 = CARTESIAN_POINT ( 'NONE',  ( -7.300000000000001599, 8.360105232274721132, -3.650000000000000799 ) ) ;
#75 = CC_DESIGN_PERSON_AND_ORGANIZATION_ASSIGNMENT ( #167, #86, ( #205 ) ) ;
#76 = DATE_AND_TIME ( #156, #143 ) ;
#77 = CYLINDRICAL_SURFACE ( 'NONE', #183, 3.649999999999999911 ) ;
#78 =( BOUNDED_CURVE ( )  B_SPLINE_CURVE ( 3, ( #114, #219, #240, #4 ),
 .UNSPECIFIED., .F., .T. ) 
 B_SPLINE_CURVE_WITH_KNOTS ( ( 4, 4 ),
 ( 3.141592653589793116, 6.283185307179586232 ),
 .UNSPECIFIED. ) 
 CURVE ( )  GEOMETRIC_REPRESENTATION_ITEM ( )  RATIONAL_B_SPLINE_CURVE ( ( 1.000000000000000000, 0.3333333333333333703, 0.3333333333333333703, 1.000000000000000000 ) ) 
 REPRESENTATION_ITEM ( '' )  );
#79 = CARTESIAN_POINT ( 'NONE',  ( 0.000000000000000000, 0.000000000000000000, 0.000000000000000000 ) ) ;
#80 = ADVANCED_FACE ( 'NONE', ( #35 ), #214, .T. ) ;
#81 = FACE_BOUND ( 'NONE', #47, .T. ) ;
#82 = DIRECTION ( 'NONE',  ( 0.000000000000000000, -0.000000000000000000, 1.000000000000000000 ) ) ;
#83 = DIRECTION ( 'NONE',  ( 0.000000000000000000, -0.8660254037844380415, -0.5000000000000012212 ) ) ;
#84 = CARTESIAN_POINT ( 'NONE',  ( -13.00000000000000355, 10.00555349946515804, -6.500000000000001776 ) ) ;
#85 = COORDINATED_UNIVERSAL_TIME_OFFSET ( 1, 0, .AHEAD. ) ;
#86 = PERSON_AND_ORGANIZATION_ROLE ( 'creator' ) ;
#87 = PERSON_AND_ORGANIZATION_ROLE ( 'design_supplier' ) ;
#88 = DATE_AND_TIME ( #224, #68 ) ;
#89 = ORIENTED_EDGE ( 'NONE', *, *, #175, .F. ) ;
#90 = APPROVAL_ROLE ( '' ) ;
#91 = PERSON_AND_ORGANIZATION ( #123, #187 ) ;
#92 = AXIS2_PLACEMENT_3D ( 'NONE', #161, #100, #142 ) ;
#93 = EDGE_CURVE ( 'NONE', #162, #56, #181, .T. ) ;
#94 = VERTEX_POINT ( 'NONE', #40 ) ;
#95 = FACE_OUTER_BOUND ( 'NONE', #231, .T. ) ;
#96 = ORIENTED_EDGE ( 'NONE', *, *, #163, .T. ) ;
#97 = CC_DESIGN_APPROVAL ( #129, ( #205 ) ) ;
#98 = CARTESIAN_POINT ( 'NONE',  ( 7.960204194457796463E-16, 0.000000000000000000, 6.500000000000000888 ) ) ;
#99 = ADVANCED_FACE ( 'NONE', ( #95 ), #77, .F. ) ;
#100 = DIRECTION ( 'NONE',  ( -0.000000000000000000, -1.000000000000000000, -0.000000000000000000 ) ) ;
#101 = CARTESIAN_POINT ( 'NONE',  ( -13.00000000000000355, 2.500000000000000000, 6.500000000000004441 ) ) ;
#102 = CLOSED_SHELL ( 'NONE', ( #99, #125, #80, #140, #239, #233 ) ) ;
#103 = FACE_BOUND ( 'NONE', #169, .T. ) ;
#104 = SECURITY_CLASSIFICATION ( '', '', #12 ) ;
#105 = DIRECTION ( 'NONE',  ( -0.000000000000000000, -1.000000000000000000, -0.000000000000000000 ) ) ;
#106 = COORDINATED_UNIVERSAL_TIME_OFFSET ( 1, 0, .AHEAD. ) ;
#107 = ORIENTED_EDGE ( 'NONE', *, *, #149, .T. ) ;
#108 = PERSON_AND_ORGANIZATION ( #123, #187 ) ;
#109 = LOCAL_TIME ( 19, 10, 8.000000000000000000, #106 ) ;
#110 = DIRECTION ( 'NONE',  ( 1.000000000000000000, 0.000000000000000000, 0.000000000000000000 ) ) ;
#111 = AXIS2_PLACEMENT_3D ( 'NONE', #23, #128, #184 ) ;
#112 = APPROVAL_STATUS ( 'not_yet_approved' ) ;
#113 = DIRECTION ( 'NONE',  ( 0.000000000000000000, 0.000000000000000000, -1.000000000000000000 ) ) ;
#114 = CARTESIAN_POINT ( 'NONE',  ( 0.000000000000000000, 10.00555349946515982, -6.500000000000000888 ) ) ;
#115 = EDGE_CURVE ( 'NONE', #17, #73, #16, .T. ) ;
#116 = APPROVAL_ROLE ( '' ) ;
#117 = DIRECTION ( 'NONE',  ( 0.000000000000000000, 0.000000000000000000, 1.000000000000000000 ) ) ;
#118 = ORIENTED_EDGE ( 'NONE', *, *, #163, .F. ) ;
#119 = ORIENTED_EDGE ( 'NONE', *, *, #245, .F. ) ;
#120 = CC_DESIGN_PERSON_AND_ORGANIZATION_ASSIGNMENT ( #108, #87, ( #205 ) ) ;
#121 = VECTOR ( 'NONE', #213, 1000.000000000000000 ) ;
#122 = DIRECTION ( 'NONE',  ( 0.000000000000000000, 0.000000000000000000, -1.000000000000000000 ) ) ;
#123 = PERSON ( 'UNSPECIFIED', 'UNSPECIFIED', 'UNSPECIFIED', ('UNSPECIFIED'), ('UNSPECIFIED'), ('UNSPECIFIED') ) ;
#124 = CARTESIAN_POINT ( 'NONE',  ( 4.469960816887839416E-16, 13.50000000000000000, 3.649999999999999911 ) ) ;
#125 = ADVANCED_FACE ( 'NONE', ( #157 ), #52, .T. ) ;
#126 = AXIS2_PLACEMENT_3D ( 'NONE', #248, #14, #117 ) ;
#127 = CC_DESIGN_APPROVAL ( #70, ( #104 ) ) ;
#128 = DIRECTION ( 'NONE',  ( 0.000000000000000000, 1.000000000000000000, 0.000000000000000000 ) ) ;
#129 = APPROVAL ( #207, 'UNSPECIFIED' ) ;
#130 = DESIGN_CONTEXT ( 'detailed design', #215, 'design' ) ;
#131 = DATE_TIME_ROLE ( 'creation_date' ) ;
#132 = CALENDAR_DATE ( 2024, 24, 9 ) ;
#133 = VERTEX_POINT ( 'NONE', #139 ) ;
#134 = PRODUCT_DEFINITION_SHAPE ( 'NONE', 'NONE',  #53 ) ;
#135 = EDGE_CURVE ( 'NONE', #133, #162, #78, .T. ) ;
#136 = ORIENTED_EDGE ( 'NONE', *, *, #42, .F. ) ;
#137 = CARTESIAN_POINT ( 'NONE',  ( 4.469960816887839416E-16, 4.145448267190441349, 3.649999999999999911 ) ) ;
#138 = AXIS2_PLACEMENT_3D ( 'NONE', #217, #200, #3 ) ;
#139 = CARTESIAN_POINT ( 'NONE',  ( 0.000000000000000000, 10.00555349946515982, -6.500000000000000888 ) ) ;
#140 = ADVANCED_FACE ( 'NONE', ( #37, #103 ), #45, .F. ) ;
#141 = ORIENTED_EDGE ( 'NONE', *, *, #7, .F. ) ;
#142 = DIRECTION ( 'NONE',  ( 0.000000000000000000, 0.000000000000000000, -1.000000000000000000 ) ) ;
#143 = LOCAL_TIME ( 19, 10, 8.000000000000000000, #244 ) ;
#144 = SHAPE_DEFINITION_REPRESENTATION ( #134, #48 ) ;
#145 = ORIENTED_EDGE ( 'NONE', *, *, #206, .F. ) ;
#146 = CARTESIAN_POINT ( 'NONE',  ( -6.500000000000000888, 2.500000000000000000, 6.500000000000000888 ) ) ;
#147 = CARTESIAN_POINT ( 'NONE',  ( 0.000000000000000000, 13.50000000000000000, -3.649999999999999911 ) ) ;
#148 = CC_DESIGN_APPROVAL ( #209, ( #53 ) ) ;
#149 = EDGE_CURVE ( 'NONE', #223, #56, #242, .T. ) ;
#150 = CARTESIAN_POINT ( 'NONE',  ( 7.960204194457796463E-16, 2.500000000000000444, 6.500000000000000888 ) ) ;
#151 = DATE_AND_TIME ( #65, #109 ) ;
#152 = EDGE_CURVE ( 'NONE', #73, #193, #61, .T. ) ;
#153 = PERSON_AND_ORGANIZATION_ROLE ( 'creator' ) ;
#154 = CC_DESIGN_DATE_AND_TIME_ASSIGNMENT ( #76, #228, ( #104 ) ) ;
#155 = APPLICATION_PROTOCOL_DEFINITION ( 'international standard', 'config_control_design', 1994, #215 ) ;
#156 = CALENDAR_DATE ( 2024, 24, 9 ) ;
#157 = FACE_OUTER_BOUND ( 'NONE', #212, .T. ) ;
#158 = CARTESIAN_POINT ( 'NONE',  ( 7.299999999999998934, 8.360105232274721132, -3.650000000000002132 ) ) ;
#159 = AXIS2_PLACEMENT_3D ( 'NONE', #216, #166, #122 ) ;
#160 = ORIENTED_EDGE ( 'NONE', *, *, #149, .F. ) ;
#161 = CARTESIAN_POINT ( 'NONE',  ( 0.000000000000000000, 13.50000000000000000, 0.000000000000000000 ) ) ;
#162 = VERTEX_POINT ( 'NONE', #150 ) ;
#163 = EDGE_CURVE ( 'NONE', #17, #94, #25, .T. ) ;
#164 = CARTESIAN_POINT ( 'NONE',  ( 0.000000000000000000, 0.000000000000000000, -6.500000000000000888 ) ) ;
#165 = FACE_OUTER_BOUND ( 'NONE', #41, .T. ) ;
#166 = DIRECTION ( 'NONE',  ( -0.000000000000000000, -1.000000000000000000, -0.000000000000000000 ) ) ;
#167 = PERSON_AND_ORGANIZATION ( #123, #187 ) ;
#168 = VECTOR ( 'NONE', #105, 1000.000000000000000 ) ;
#169 = EDGE_LOOP ( 'NONE', ( #241, #249 ) ) ;
#170 = PERSON_AND_ORGANIZATION ( #123, #187 ) ;
#171 = PRODUCT ( '3D_GS5544-FI 7.3_188500510', '3D_GS5544-FI 7.3_188500510', '', ( #28 ) ) ;
#172 = PERSON_AND_ORGANIZATION_ROLE ( 'classification_officer' ) ;
#173 = VECTOR ( 'NONE', #221, 1000.000000000000000 ) ;
#174 = DIRECTION ( 'NONE',  ( 0.000000000000000000, 0.000000000000000000, -1.000000000000000000 ) ) ;
#175 = EDGE_CURVE ( 'NONE', #56, #223, #66, .T. ) ;
#176 = ORIENTED_EDGE ( 'NONE', *, *, #175, .T. ) ;
#177 = DATE_AND_TIME ( #230, #202 ) ;
#178 = EDGE_LOOP ( 'NONE', ( #160, #89 ) ) ;
#179 = AXIS2_PLACEMENT_3D ( 'NONE', #220, #29, #110 ) ;
#180 = CARTESIAN_POINT ( 'NONE',  ( 4.469960816887839416E-16, 4.145448267190441349, 3.649999999999999911 ) ) ;
#181 = LINE ( 'NONE', #247, #121 ) ;
#182 = CARTESIAN_POINT ( 'NONE',  ( 0.000000000000000000, 0.000000000000000000, 0.000000000000000000 ) ) ;
#183 = AXIS2_PLACEMENT_3D ( 'NONE', #19, #71, #174 ) ;
#184 = DIRECTION ( 'NONE',  ( 0.000000000000000000, 0.000000000000000000, 1.000000000000000000 ) ) ;
#185 = CARTESIAN_POINT ( 'NONE',  ( 4.469960816887839416E-16, 0.000000000000000000, 3.649999999999999911 ) ) ;
#186 = EDGE_LOOP ( 'NONE', ( #49, #229, #18, #107 ) ) ;
#187 = ORGANIZATION ( 'UNSPECIFIED', 'UNSPECIFIED', '' ) ;
#188 = PERSON_AND_ORGANIZATION ( #123, #187 ) ;
#189 = UNCERTAINTY_MEASURE_WITH_UNIT (LENGTH_MEASURE( 1.000000000000000082E-05 ), #238, 'distance_accuracy_value', 'NONE');
#190 = APPLICATION_CONTEXT ( 'configuration controlled 3d designs of mechanical parts and assemblies' ) ;
#191 =( BOUNDED_CURVE ( )  B_SPLINE_CURVE ( 3, ( #203, #101, #84, #2 ),
 .UNSPECIFIED., .F., .T. ) 
 B_SPLINE_CURVE_WITH_KNOTS ( ( 4, 4 ),
 ( 0.000000000000000000, 3.141592653589793116 ),
 .UNSPECIFIED. ) 
 CURVE ( )  GEOMETRIC_REPRESENTATION_ITEM ( )  RATIONAL_B_SPLINE_CURVE ( ( 1.000000000000000000, 0.3333333333333333703, 0.3333333333333333703, 1.000000000000000000 ) ) 
 REPRESENTATION_ITEM ( '' )  );
#192 = ORIENTED_EDGE ( 'NONE', *, *, #152, .T. ) ;
#193 = VERTEX_POINT ( 'NONE', #185 ) ;
#194 = PERSON_AND_ORGANIZATION ( #123, #187 ) ;
#195 = CARTESIAN_POINT ( 'NONE',  ( 0.000000000000000000, 8.360105232274721132, -3.649999999999999911 ) ) ;
#196 = AXIS2_PLACEMENT_3D ( 'NONE', #182, #6, #82 ) ;
#197 = CARTESIAN_POINT ( 'NONE',  ( 4.469960816887839416E-16, 4.145448267190441349, 3.649999999999999911 ) ) ;
#198 = ORIENTED_EDGE ( 'NONE', *, *, #204, .F. ) ;
#199 = CC_DESIGN_DATE_AND_TIME_ASSIGNMENT ( #88, #131, ( #53 ) ) ;
#200 = DIRECTION ( 'NONE',  ( 0.000000000000000000, 1.000000000000000000, 0.000000000000000000 ) ) ;
#201 = FACE_OUTER_BOUND ( 'NONE', #208, .T. ) ;
#202 = LOCAL_TIME ( 19, 10, 8.000000000000000000, #210 ) ;
#203 = CARTESIAN_POINT ( 'NONE',  ( 7.960204194457796463E-16, 2.500000000000000444, 6.500000000000000888 ) ) ;
#204 = EDGE_CURVE ( 'NONE', #162, #133, #191, .T. ) ;
#205 = PRODUCT_DEFINITION_FORMATION_WITH_SPECIFIED_SOURCE ( 'ANY', '', #171, .NOT_KNOWN. ) ;
#206 = EDGE_CURVE ( 'NONE', #193, #94, #20, .T. ) ;
#207 = APPROVAL_STATUS ( 'not_yet_approved' ) ;
#208 = EDGE_LOOP ( 'NONE', ( #51, #198 ) ) ;
#209 = APPROVAL ( #225, 'UNSPECIFIED' ) ;
#210 = COORDINATED_UNIVERSAL_TIME_OFFSET ( 1, 0, .AHEAD. ) ;
#211 = CARTESIAN_POINT ( 'NONE',  ( 0.000000000000000000, 13.50000000000000000, 0.000000000000000000 ) ) ;
#212 = EDGE_LOOP ( 'NONE', ( #1, #38, #176, #119 ) ) ;
#213 = DIRECTION ( 'NONE',  ( -0.000000000000000000, -1.000000000000000000, -0.000000000000000000 ) ) ;
#214 = CYLINDRICAL_SURFACE ( 'NONE', #92, 6.500000000000000888 ) ;
#215 = APPLICATION_CONTEXT ( 'configuration controlled 3d designs of mechanical parts and assemblies' ) ;
#216 = CARTESIAN_POINT ( 'NONE',  ( 0.000000000000000000, 13.50000000000000000, 0.000000000000000000 ) ) ;
#217 = CARTESIAN_POINT ( 'NONE',  ( 0.000000000000000000, 0.000000000000000000, 0.000000000000000000 ) ) ;
#218 = APPROVAL_PERSON_ORGANIZATION ( #67, #209, #10 ) ;
#219 = CARTESIAN_POINT ( 'NONE',  ( 13.00000000000000355, 10.00555349946516159, -6.500000000000004441 ) ) ;
#220 = CARTESIAN_POINT ( 'NONE',  ( 0.000000000000000000, 0.000000000000000000, 0.000000000000000000 ) ) ;
#221 = DIRECTION ( 'NONE',  ( -0.000000000000000000, -1.000000000000000000, -0.000000000000000000 ) ) ;
#222 = APPROVAL_DATE_TIME ( #151, #209 ) ;
#223 = VERTEX_POINT ( 'NONE', #164 ) ;
#224 = CALENDAR_DATE ( 2024, 24, 9 ) ;
#225 = APPROVAL_STATUS ( 'not_yet_approved' ) ;
#226 = CARTESIAN_POINT ( 'NONE',  ( 7.299999999999998934, 4.145448267190439573, 3.650000000000000799 ) ) ;
#227 = CARTESIAN_POINT ( 'NONE',  ( 0.000000000000000000, 8.360105232274721132, -3.649999999999999911 ) ) ;
#228 = DATE_TIME_ROLE ( 'classification_date' ) ;
#229 = ORIENTED_EDGE ( 'NONE', *, *, #204, .T. ) ;
#230 = CALENDAR_DATE ( 2024, 24, 9 ) ;
#231 = EDGE_LOOP ( 'NONE', ( #136, #192, #141, #118 ) ) ;
#232 = LOCAL_TIME ( 19, 10, 8.000000000000000000, #31 ) ;
#233 = ADVANCED_FACE ( 'NONE', ( #81, #201 ), #60, .F. ) ;
#234 = DIRECTION ( 'NONE',  ( 0.000000000000000000, 1.000000000000000000, 0.000000000000000000 ) ) ;
#235 = CYLINDRICAL_SURFACE ( 'NONE', #159, 3.649999999999999911 ) ;
#236 = APPLICATION_PROTOCOL_DEFINITION ( 'international standard', 'config_control_design', 1994, #190 ) ;
#237 = AXIS2_PLACEMENT_3D ( 'NONE', #79, #234, #44 ) ;
#238 =( LENGTH_UNIT ( ) NAMED_UNIT ( * ) SI_UNIT ( .MILLI., .METRE. ) );
#239 = ADVANCED_FACE ( 'NONE', ( #165 ), #235, .F. ) ;
#240 = CARTESIAN_POINT ( 'NONE',  ( 13.00000000000000355, 2.500000000000000000, 6.500000000000004441 ) ) ;
#241 = ORIENTED_EDGE ( 'NONE', *, *, #7, .T. ) ;
#242 = CIRCLE ( 'NONE', #111, 6.500000000000000888 ) ;
#243 = VECTOR ( 'NONE', #64, 1000.000000000000000 ) ;
#244 = COORDINATED_UNIVERSAL_TIME_OFFSET ( 1, 0, .AHEAD. ) ;
#245 = EDGE_CURVE ( 'NONE', #133, #223, #46, .T. ) ;
#246 = ORIENTED_EDGE ( 'NONE', *, *, #152, .F. ) ;
#247 = CARTESIAN_POINT ( 'NONE',  ( 7.960204194457796463E-16, 13.50000000000000000, 6.500000000000000888 ) ) ;
#248 = CARTESIAN_POINT ( 'NONE',  ( 0.000000000000000000, 0.000000000000000000, 0.000000000000000000 ) ) ;
#249 = ORIENTED_EDGE ( 'NONE', *, *, #206, .T. ) ;
ENDSEC;
END-ISO-10303-21;
