ISO-10303-21;
HEADER;
FILE_DESCRIPTION (( 'STEP AP203' ),
    '1' );
FILE_NAME ('3D_GT3522_12 x 25_188734040.STEP',
    '2024-10-21T10:48:18',
    ( '' ),
    ( '' ),
    'SwSTEP 2.0',
    'SolidWorks 2023',
    '' );
FILE_SCHEMA (( 'CONFIG_CONTROL_DESIGN' ));
ENDSEC;

DATA;
#1 = DIRECTION ( 'NONE',  ( 0.000000000000000000, 0.000000000000000000, -1.000000000000000000 ) ) ;
#2 = LINE ( 'NONE', #126, #127 ) ;
#3 = VECTOR ( 'NONE', #81, 999.9999999999998863 ) ;
#4 = PERSON_AND_ORGANIZATION_ROLE ( 'design_supplier' ) ;
#5 = CARTESIAN_POINT ( 'NONE',  ( 1.000000000000001332, 993.1696470377779633, 0.000000000000000000 ) ) ;
#6 = DIRECTION ( 'NONE',  ( 0.000000000000000000, 0.000000000000000000, -1.000000000000000000 ) ) ;
#7 = CALENDAR_DATE ( 2024, 21, 10 ) ;
#8 = AXIS2_PLACEMENT_3D ( 'NONE', #160, #157, #104 ) ;
#9 = EDGE_CURVE ( 'NONE', #183, #16, #176, .T. ) ;
#10 = DIRECTION ( 'NONE',  ( 1.000000000000000000, 0.000000000000000000, 0.000000000000000000 ) ) ;
#11 = UNCERTAINTY_MEASURE_WITH_UNIT (LENGTH_MEASURE( 1.000000000000000082E-05 ), #28, 'distance_accuracy_value', 'NONE');
#12 = AXIS2_PLACEMENT_3D ( 'NONE', #105, #90, #71 ) ;
#13 = DIRECTION ( 'NONE',  ( 0.000000000000000000, 0.000000000000000000, 1.000000000000000000 ) ) ;
#14 = ORIENTED_EDGE ( 'NONE', *, *, #168, .T. ) ;
#15 = CARTESIAN_POINT ( 'NONE',  ( 1.000000000000001332, -6.830352962222058899, -6.000000000000000888 ) ) ;
#16 = VERTEX_POINT ( 'NONE', #58 ) ;
#17 = ORGANIZATION ( 'UNSPECIFIED', 'UNSPECIFIED', '' ) ;
#18 = PERSON_AND_ORGANIZATION_ROLE ( 'design_owner' ) ;
#19 = DIRECTION ( 'NONE',  ( 0.000000000000000000, 1.000000000000000000, 0.000000000000000000 ) ) ;
#20 = DIRECTION ( 'NONE',  ( 0.000000000000000000, 0.000000000000000000, 1.000000000000000000 ) ) ;
#21 = LOCAL_TIME ( 12, 48, 18.00000000000000000, #92 ) ;
#22 = DIRECTION ( 'NONE',  ( -0.000000000000000000, -1.000000000000000000, -0.000000000000000000 ) ) ;
#23 = APPROVAL_STATUS ( 'not_yet_approved' ) ;
#24 = CLOSED_SHELL ( 'NONE', ( #197, #112, #33, #57, #37, #89 ) ) ;
#25 = TOROIDAL_SURFACE ( 'NONE', #12, 1.000000000000001332, 12.50000000000000178 ) ;
#26 = EDGE_CURVE ( 'NONE', #135, #206, #76, .T. ) ;
#27 = COORDINATED_UNIVERSAL_TIME_OFFSET ( 1, 0, .AHEAD. ) ;
#28 =( LENGTH_UNIT ( ) NAMED_UNIT ( * ) SI_UNIT ( .MILLI., .METRE. ) );
#29 =( NAMED_UNIT ( * ) SI_UNIT ( $, .STERADIAN. ) SOLID_ANGLE_UNIT ( ) );
#30 = EDGE_LOOP ( 'NONE', ( #51, #212, #196 ) ) ;
#31 = APPLICATION_CONTEXT ( 'configuration controlled 3d designs of mechanical parts and assemblies' ) ;
#32 = DIRECTION ( 'NONE',  ( 0.000000000000000000, 0.000000000000000000, -1.000000000000000000 ) ) ;
#33 = ADVANCED_FACE ( 'NONE', ( #190 ), #25, .T. ) ;
#34 = DIRECTION ( 'NONE',  ( 0.000000000000000000, 0.000000000000000000, 1.000000000000000000 ) ) ;
#35 = PERSON_AND_ORGANIZATION ( #83, #17 ) ;
#36 = CYLINDRICAL_SURFACE ( 'NONE', #50, 6.000000000000000888 ) ;
#37 = ADVANCED_FACE ( 'NONE', ( #159 ), #93, .F. ) ;
#38 = PERSON_AND_ORGANIZATION_ROLE ( 'creator' ) ;
#39 = ORIENTED_EDGE ( 'NONE', *, *, #168, .F. ) ;
#40 = CARTESIAN_POINT ( 'NONE',  ( 1.000000000000001332, 0.000000000000000000, 0.000000000000000000 ) ) ;
#41 = APPROVAL_PERSON_ORGANIZATION ( #46, #44, #132 ) ;
#42 = APPROVAL_DATE_TIME ( #193, #87 ) ;
#43 = PRODUCT_DEFINITION_SHAPE ( 'NONE', 'NONE',  #136 ) ;
#44 = APPROVAL ( #165, 'UNSPECIFIED' ) ;
#45 = LOCAL_TIME ( 12, 48, 18.00000000000000000, #91 ) ;
#46 = PERSON_AND_ORGANIZATION ( #83, #17 ) ;
#47 = ORIENTED_EDGE ( 'NONE', *, *, #52, .T. ) ;
#48 = CC_DESIGN_PERSON_AND_ORGANIZATION_ASSIGNMENT ( #178, #123, ( #182 ) ) ;
#49 = DIRECTION ( 'NONE',  ( 0.000000000000000000, 0.000000000000000000, -1.000000000000000000 ) ) ;
#50 = AXIS2_PLACEMENT_3D ( 'NONE', #124, #22, #61 ) ;
#51 = ORIENTED_EDGE ( 'NONE', *, *, #98, .F. ) ;
#52 = EDGE_CURVE ( 'NONE', #68, #206, #222, .T. ) ;
#53 = DIRECTION ( 'NONE',  ( -0.000000000000000000, -1.000000000000000000, -0.000000000000000000 ) ) ;
#54 = ORIENTED_EDGE ( 'NONE', *, *, #26, .T. ) ;
#55 = FACE_OUTER_BOUND ( 'NONE', #30, .T. ) ;
#56 = DATE_AND_TIME ( #179, #113 ) ;
#57 = ADVANCED_FACE ( 'NONE', ( #192 ), #164, .T. ) ;
#58 = CARTESIAN_POINT ( 'NONE',  ( 1.000000000000001998, -3.543560762610397763, -5.999999999999999112 ) ) ;
#59 = AXIS2_PLACEMENT_3D ( 'NONE', #185, #210, #32 ) ;
#60 = DIRECTION ( 'NONE',  ( 0.000000000000000000, 0.000000000000000000, -1.000000000000000000 ) ) ;
#61 = DIRECTION ( 'NONE',  ( 0.000000000000000000, 0.000000000000000000, -1.000000000000000000 ) ) ;
#62 = DATE_TIME_ROLE ( 'classification_date' ) ;
#63 = APPROVAL_PERSON_ORGANIZATION ( #66, #181, #114 ) ;
#64 = MECHANICAL_CONTEXT ( 'NONE', #31, 'mechanical' ) ;
#65 = DESIGN_CONTEXT ( 'detailed design', #128, 'design' ) ;
#66 = PERSON_AND_ORGANIZATION ( #83, #17 ) ;
#67 = PRODUCT_DEFINITION_FORMATION_WITH_SPECIFIED_SOURCE ( 'ANY', '', #148, .NOT_KNOWN. ) ;
#68 = VERTEX_POINT ( 'NONE', #172 ) ;
#69 = CC_DESIGN_PERSON_AND_ORGANIZATION_ASSIGNMENT ( #188, #78, ( #136 ) ) ;
#70 = LINE ( 'NONE', #154, #3 ) ;
#71 = DIRECTION ( 'NONE',  ( 0.000000000000000000, 0.000000000000000000, -1.000000000000000000 ) ) ;
#72 = DIRECTION ( 'NONE',  ( -0.000000000000000000, -1.000000000000000000, -0.000000000000000000 ) ) ;
#73 = CC_DESIGN_PERSON_AND_ORGANIZATION_ASSIGNMENT ( #35, #4, ( #67 ) ) ;
#74 =( GEOMETRIC_REPRESENTATION_CONTEXT ( 3 ) GLOBAL_UNCERTAINTY_ASSIGNED_CONTEXT ( ( #11 ) ) GLOBAL_UNIT_ASSIGNED_CONTEXT ( ( #28, #100, #29 ) ) REPRESENTATION_CONTEXT ( 'NONE', 'WORKASPACE' ) );
#75 = EDGE_CURVE ( 'NONE', #135, #68, #116, .T. ) ;
#76 = CIRCLE ( 'NONE', #207, 12.50000000000000178 ) ;
#77 = EDGE_LOOP ( 'NONE', ( #204, #138, #131, #174 ) ) ;
#78 = PERSON_AND_ORGANIZATION_ROLE ( 'creator' ) ;
#79 = DATE_TIME_ROLE ( 'creation_date' ) ;
#80 = CIRCLE ( 'NONE', #216, 6.000000000000000000 ) ;
#81 = DIRECTION ( 'NONE',  ( 1.074051837820151885E-16, 0.4804358291963169436, -0.8770298820590137767 ) ) ;
#82 = DIRECTION ( 'NONE',  ( 0.000000000000000000, 0.000000000000000000, 1.000000000000000000 ) ) ;
#83 = PERSON ( 'UNSPECIFIED', 'UNSPECIFIED', 'UNSPECIFIED', ('UNSPECIFIED'), ('UNSPECIFIED'), ('UNSPECIFIED') ) ;
#84 = PERSON_AND_ORGANIZATION ( #83, #17 ) ;
#85 = CARTESIAN_POINT ( 'NONE',  ( 1.000000000000001332, 0.000000000000000000, -1.000000000000001332 ) ) ;
#86 = EDGE_LOOP ( 'NONE', ( #175, #47, #96 ) ) ;
#87 = APPROVAL ( #23, 'UNSPECIFIED' ) ;
#88 = CC_DESIGN_APPROVAL ( #181, ( #136 ) ) ;
#89 = ADVANCED_FACE ( 'NONE', ( #144 ), #36, .F. ) ;
#90 = DIRECTION ( 'NONE',  ( -0.000000000000000000, -1.000000000000000000, -0.000000000000000000 ) ) ;
#91 = COORDINATED_UNIVERSAL_TIME_OFFSET ( 1, 0, .AHEAD. ) ;
#92 = COORDINATED_UNIVERSAL_TIME_OFFSET ( 1, 0, .AHEAD. ) ;
#93 = CONICAL_SURFACE ( 'NONE', #109, 1825.488085528774263, 1.069644744308463569 ) ;
#94 = CC_DESIGN_APPROVAL ( #44, ( #67 ) ) ;
#95 = CC_DESIGN_DATE_AND_TIME_ASSIGNMENT ( #203, #79, ( #136 ) ) ;
#96 = ORIENTED_EDGE ( 'NONE', *, *, #26, .F. ) ;
#97 = APPROVAL_DATE_TIME ( #134, #181 ) ;
#98 = EDGE_CURVE ( 'NONE', #213, #183, #2, .T. ) ;
#99 = CONICAL_SURFACE ( 'NONE', #199, 1825.488085528774263, 1.069644744308463569 ) ;
#100 =( NAMED_UNIT ( * ) PLANE_ANGLE_UNIT ( ) SI_UNIT ( $, .RADIAN. ) );
#101 = ORIENTED_EDGE ( 'NONE', *, *, #162, .F. ) ;
#102 = DIRECTION ( 'NONE',  ( -0.000000000000000000, -1.000000000000000000, -0.000000000000000000 ) ) ;
#103 = LINE ( 'NONE', #15, #180 ) ;
#104 = DIRECTION ( 'NONE',  ( -1.214306433183764720E-16, 0.000000000000000000, -1.000000000000000000 ) ) ;
#105 = CARTESIAN_POINT ( 'NONE',  ( 1.000000000000001332, 0.000000000000000000, 0.000000000000000000 ) ) ;
#106 = CC_DESIGN_PERSON_AND_ORGANIZATION_ASSIGNMENT ( #84, #38, ( #67 ) ) ;
#107 = EDGE_LOOP ( 'NONE', ( #141, #14, #54 ) ) ;
#108 = DIRECTION ( 'NONE',  ( -1.000000000000000000, 0.000000000000000000, 0.000000000000000000 ) ) ;
#109 = AXIS2_PLACEMENT_3D ( 'NONE', #5, #215, #34 ) ;
#110 = ADVANCED_BREP_SHAPE_REPRESENTATION ( '3D_GT3522_12 x 25_188734040', ( #147, #133 ), #74 ) ;
#111 = AXIS2_PLACEMENT_3D ( 'NONE', #117, #53, #49 ) ;
#112 = ADVANCED_FACE ( 'NONE', ( #55 ), #99, .F. ) ;
#113 = LOCAL_TIME ( 12, 48, 18.00000000000000000, #173 ) ;
#114 = APPROVAL_ROLE ( '' ) ;
#115 = FACE_OUTER_BOUND ( 'NONE', #186, .T. ) ;
#116 = CIRCLE ( 'NONE', #191, 6.000000000000001776 ) ;
#117 = CARTESIAN_POINT ( 'NONE',  ( 1.000000000000001332, -6.830352962222058899, 0.000000000000000000 ) ) ;
#118 = CARTESIAN_POINT ( 'NONE',  ( 0.000000000000000000, 0.000000000000000000, 0.000000000000000000 ) ) ;
#119 = CARTESIAN_POINT ( 'NONE',  ( 1.000000000000001332, 993.1696470377779633, 0.000000000000000000 ) ) ;
#120 = SECURITY_CLASSIFICATION_LEVEL ( 'unclassified' ) ;
#121 = CIRCLE ( 'NONE', #59, 6.000000000000001776 ) ;
#122 = ORIENTED_EDGE ( 'NONE', *, *, #98, .T. ) ;
#123 = PERSON_AND_ORGANIZATION_ROLE ( 'classification_officer' ) ;
#124 = CARTESIAN_POINT ( 'NONE',  ( 1.000000000000001332, -6.830352962222058899, 0.000000000000000000 ) ) ;
#125 = APPROVAL_ROLE ( '' ) ;
#126 = CARTESIAN_POINT ( 'NONE',  ( 1.000000000000001332, -6.830352962222058899, 0.000000000000000000 ) ) ;
#127 = VECTOR ( 'NONE', #177, 999.9999999999998863 ) ;
#128 = APPLICATION_CONTEXT ( 'configuration controlled 3d designs of mechanical parts and assemblies' ) ;
#129 = PRODUCT_RELATED_PRODUCT_CATEGORY ( 'detail', '', ( #148 ) ) ;
#130 = APPLICATION_PROTOCOL_DEFINITION ( 'international standard', 'config_control_design', 1994, #31 ) ;
#131 = ORIENTED_EDGE ( 'NONE', *, *, #200, .T. ) ;
#132 = APPROVAL_ROLE ( '' ) ;
#133 = AXIS2_PLACEMENT_3D ( 'NONE', #118, #13, #10 ) ;
#134 = DATE_AND_TIME ( #208, #187 ) ;
#135 = VERTEX_POINT ( 'NONE', #156 ) ;
#136 = PRODUCT_DEFINITION ( 'UNKNOWN', '', #67, #65 ) ;
#137 = CARTESIAN_POINT ( 'NONE',  ( 1.000000000000001332, 11.45643923738960090, 0.000000000000000000 ) ) ;
#138 = ORIENTED_EDGE ( 'NONE', *, *, #75, .F. ) ;
#139 = AXIS2_PLACEMENT_3D ( 'NONE', #40, #72, #60 ) ;
#140 = VECTOR ( 'NONE', #225, 1000.000000000000000 ) ;
#141 = ORIENTED_EDGE ( 'NONE', *, *, #52, .F. ) ;
#142 = DIRECTION ( 'NONE',  ( -0.000000000000000000, -1.000000000000000000, -0.000000000000000000 ) ) ;
#143 = PERSON_AND_ORGANIZATION ( #83, #17 ) ;
#144 = FACE_OUTER_BOUND ( 'NONE', #77, .T. ) ;
#145 = APPROVAL_PERSON_ORGANIZATION ( #143, #87, #125 ) ;
#146 = CC_DESIGN_DATE_AND_TIME_ASSIGNMENT ( #56, #62, ( #182 ) ) ;
#147 = MANIFOLD_SOLID_BREP ( 'Rotation1', #24 ) ;
#148 = PRODUCT ( '3D_GT3522_12 x 25_188734040', '3D_GT3522_12 x 25_188734040', '', ( #64 ) ) ;
#149 = ORIENTED_EDGE ( 'NONE', *, *, #200, .F. ) ;
#150 = COORDINATED_UNIVERSAL_TIME_OFFSET ( 1, 0, .AHEAD. ) ;
#151 = CARTESIAN_POINT ( 'NONE',  ( 1.000000000000001998, -6.830352962222058899, 6.000000000000000888 ) ) ;
#152 = APPLICATION_PROTOCOL_DEFINITION ( 'international standard', 'config_control_design', 1994, #128 ) ;
#153 = ORIENTED_EDGE ( 'NONE', *, *, #214, .T. ) ;
#154 = CARTESIAN_POINT ( 'NONE',  ( 1.000000000000001332, -6.830352962222058899, 0.000000000000000000 ) ) ;
#155 = DIRECTION ( 'NONE',  ( -0.000000000000000000, -1.000000000000000000, -0.000000000000000000 ) ) ;
#156 = CARTESIAN_POINT ( 'NONE',  ( 1.000000000000001332, 11.45643923738959913, -6.000000000000001776 ) ) ;
#157 = DIRECTION ( 'NONE',  ( 1.000000000000000000, 0.000000000000000000, -1.224646799147353207E-16 ) ) ;
#158 = DATE_AND_TIME ( #198, #21 ) ;
#159 = FACE_OUTER_BOUND ( 'NONE', #209, .T. ) ;
#160 = CARTESIAN_POINT ( 'NONE',  ( 1.000000000000001554, 0.000000000000000000, 1.000000000000001332 ) ) ;
#161 = SHAPE_DEFINITION_REPRESENTATION ( #43, #110 ) ;
#162 = EDGE_CURVE ( 'NONE', #213, #16, #70, .T. ) ;
#163 = CARTESIAN_POINT ( 'NONE',  ( 1.000000000000001332, -3.543560762610397763, 5.999999999999999112 ) ) ;
#164 = TOROIDAL_SURFACE ( 'NONE', #139, 1.000000000000001332, 12.50000000000000178 ) ;
#165 = APPROVAL_STATUS ( 'not_yet_approved' ) ;
#166 = ORIENTED_EDGE ( 'NONE', *, *, #205, .F. ) ;
#167 = LINE ( 'NONE', #151, #140 ) ;
#168 = EDGE_CURVE ( 'NONE', #68, #135, #121, .T. ) ;
#169 = CYLINDRICAL_SURFACE ( 'NONE', #111, 6.000000000000000888 ) ;
#170 = CC_DESIGN_APPROVAL ( #87, ( #182 ) ) ;
#171 = CARTESIAN_POINT ( 'NONE',  ( 1.000000000000001332, -6.830352962222058899, 0.000000000000000000 ) ) ;
#172 = CARTESIAN_POINT ( 'NONE',  ( 1.000000000000002220, 11.45643923738959913, 6.000000000000001776 ) ) ;
#173 = COORDINATED_UNIVERSAL_TIME_OFFSET ( 1, 0, .AHEAD. ) ;
#174 = ORIENTED_EDGE ( 'NONE', *, *, #205, .T. ) ;
#175 = ORIENTED_EDGE ( 'NONE', *, *, #75, .T. ) ;
#176 = CIRCLE ( 'NONE', #201, 6.000000000000000000 ) ;
#177 = DIRECTION ( 'NONE',  ( 0.000000000000000000, 0.4804358291963169436, 0.8770298820590137767 ) ) ;
#178 = PERSON_AND_ORGANIZATION ( #83, #17 ) ;
#179 = CALENDAR_DATE ( 2024, 21, 10 ) ;
#180 = VECTOR ( 'NONE', #102, 1000.000000000000000 ) ;
#181 = APPROVAL ( #184, 'UNSPECIFIED' ) ;
#182 = SECURITY_CLASSIFICATION ( '', '', #120 ) ;
#183 = VERTEX_POINT ( 'NONE', #163 ) ;
#184 = APPROVAL_STATUS ( 'not_yet_approved' ) ;
#185 = CARTESIAN_POINT ( 'NONE',  ( 1.000000000000001332, 11.45643923738960090, 0.000000000000000000 ) ) ;
#186 = EDGE_LOOP ( 'NONE', ( #39, #153, #224, #149 ) ) ;
#187 = LOCAL_TIME ( 12, 48, 18.00000000000000000, #27 ) ;
#188 = PERSON_AND_ORGANIZATION ( #83, #17 ) ;
#189 = CARTESIAN_POINT ( 'NONE',  ( 1.000000000000001332, -3.543560762610397763, 0.000000000000000000 ) ) ;
#190 = FACE_OUTER_BOUND ( 'NONE', #86, .T. ) ;
#191 = AXIS2_PLACEMENT_3D ( 'NONE', #137, #142, #1 ) ;
#192 = FACE_OUTER_BOUND ( 'NONE', #107, .T. ) ;
#193 = DATE_AND_TIME ( #7, #45 ) ;
#194 = DIRECTION ( 'NONE',  ( -0.000000000000000000, -1.000000000000000000, -0.000000000000000000 ) ) ;
#195 = APPROVAL_DATE_TIME ( #158, #44 ) ;
#196 = ORIENTED_EDGE ( 'NONE', *, *, #9, .F. ) ;
#197 = ADVANCED_FACE ( 'NONE', ( #115 ), #169, .F. ) ;
#198 = CALENDAR_DATE ( 2024, 21, 10 ) ;
#199 = AXIS2_PLACEMENT_3D ( 'NONE', #119, #19, #82 ) ;
#200 = EDGE_CURVE ( 'NONE', #135, #16, #103, .T. ) ;
#201 = AXIS2_PLACEMENT_3D ( 'NONE', #211, #194, #6 ) ;
#202 = CC_DESIGN_SECURITY_CLASSIFICATION ( #182, ( #67 ) ) ;
#203 = DATE_AND_TIME ( #219, #217 ) ;
#204 = ORIENTED_EDGE ( 'NONE', *, *, #214, .F. ) ;
#205 = EDGE_CURVE ( 'NONE', #16, #183, #80, .T. ) ;
#206 = VERTEX_POINT ( 'NONE', #221 ) ;
#207 = AXIS2_PLACEMENT_3D ( 'NONE', #85, #108, #20 ) ;
#208 = CALENDAR_DATE ( 2024, 21, 10 ) ;
#209 = EDGE_LOOP ( 'NONE', ( #101, #122, #166 ) ) ;
#210 = DIRECTION ( 'NONE',  ( -0.000000000000000000, -1.000000000000000000, -0.000000000000000000 ) ) ;
#211 = CARTESIAN_POINT ( 'NONE',  ( 1.000000000000001332, -3.543560762610397763, 0.000000000000000000 ) ) ;
#212 = ORIENTED_EDGE ( 'NONE', *, *, #162, .T. ) ;
#213 = VERTEX_POINT ( 'NONE', #171 ) ;
#214 = EDGE_CURVE ( 'NONE', #68, #183, #167, .T. ) ;
#215 = DIRECTION ( 'NONE',  ( 0.000000000000000000, 1.000000000000000000, 0.000000000000000000 ) ) ;
#216 = AXIS2_PLACEMENT_3D ( 'NONE', #189, #155, #223 ) ;
#217 = LOCAL_TIME ( 12, 48, 18.00000000000000000, #150 ) ;
#218 = CC_DESIGN_PERSON_AND_ORGANIZATION_ASSIGNMENT ( #220, #18, ( #148 ) ) ;
#219 = CALENDAR_DATE ( 2024, 21, 10 ) ;
#220 = PERSON_AND_ORGANIZATION ( #83, #17 ) ;
#221 = CARTESIAN_POINT ( 'NONE',  ( 1.000000000000002220, -12.45993579437711496, 0.000000000000000000 ) ) ;
#222 = CIRCLE ( 'NONE', #8, 12.50000000000000178 ) ;
#223 = DIRECTION ( 'NONE',  ( 0.000000000000000000, 0.000000000000000000, -1.000000000000000000 ) ) ;
#224 = ORIENTED_EDGE ( 'NONE', *, *, #9, .T. ) ;
#225 = DIRECTION ( 'NONE',  ( -0.000000000000000000, -1.000000000000000000, -0.000000000000000000 ) ) ;
ENDSEC;
END-ISO-10303-21;
