ISO-10303-21;
HEADER;
FILE_DESCRIPTION (( 'STEP AP203' ),
    '1' );
FILE_NAME ('3D_R1650_33.7x2.6_17351210.STEP',
    '2024-08-03T08:52:10',
    ( '' ),
    ( '' ),
    'SwSTEP 2.0',
    'SolidWorks 2024',
    '' );
FILE_SCHEMA (( 'CONFIG_CONTROL_DESIGN' ));
ENDSEC;

DATA;
#1 = CARTESIAN_POINT ( 'NONE',  ( 0.000000000000000000, 0.000000000000000000, 0.000000000000000000 ) ) ;
#2 = DIRECTION ( 'NONE',  ( 0.7071067811865505703, 0.000000000000000000, 0.7071067811865444641 ) ) ;
#3 = CARTESIAN_POINT ( 'NONE',  ( -26.87005768508893055, 0.000000000000000000, -26.87005768508866410 ) ) ;
#4 = FACE_OUTER_BOUND ( 'NONE', #58, .T. ) ;
#5 = PERSON_AND_ORGANIZATION_ROLE ( 'design_owner' ) ;
#6 = DIRECTION ( 'NONE',  ( -0.7071067811865444641, 0.000000000000000000, 0.7071067811865506814 ) ) ;
#7 = DIRECTION ( 'NONE',  ( 0.000000000000000000, 0.000000000000000000, 1.000000000000000000 ) ) ;
#8 = DIRECTION ( 'NONE',  ( -5.551115123125782702E-16, 0.000000000000000000, 1.000000000000000000 ) ) ;
#9 = AXIS2_PLACEMENT_3D ( 'NONE', #198, #96, #93 ) ;
#10 = APPROVAL_STATUS ( 'not_yet_approved' ) ;
#11 = DIRECTION ( 'NONE',  ( -5.551115123125782702E-16, 0.000000000000000000, 1.000000000000000000 ) ) ;
#12 = AXIS2_PLACEMENT_3D ( 'NONE', #179, #28, #165 ) ;
#13 = COORDINATED_UNIVERSAL_TIME_OFFSET ( 1, 0, .AHEAD. ) ;
#14 = PRODUCT_RELATED_PRODUCT_CATEGORY ( 'detail', '', ( #84 ) ) ;
#15 = EDGE_LOOP ( 'NONE', ( #245, #150, #143, #92 ) ) ;
#16 = EDGE_CURVE ( 'NONE', #56, #44, #211, .T. ) ;
#17 = PRODUCT_DEFINITION_FORMATION_WITH_SPECIFIED_SOURCE ( 'ANY', '', #84, .NOT_KNOWN. ) ;
#18 = ORIENTED_EDGE ( 'NONE', *, *, #71, .F. ) ;
#19 = AXIS2_PLACEMENT_3D ( 'NONE', #242, #65, #113 ) ;
#20 = AXIS2_PLACEMENT_3D ( 'NONE', #216, #133, #115 ) ;
#21 = ADVANCED_FACE ( 'NONE', ( #181 ), #192, .T. ) ;
#22 = FACE_BOUND ( 'NONE', #121, .T. ) ;
#23 = CARTESIAN_POINT ( 'NONE',  ( -37.99999999999998579, 0.000000000000000000, -2.109423746787796480E-14 ) ) ;
#24 = DIRECTION ( 'NONE',  ( 0.000000000000000000, 0.000000000000000000, 1.000000000000000000 ) ) ;
#25 =( LENGTH_UNIT ( ) NAMED_UNIT ( * ) SI_UNIT ( .MILLI., .METRE. ) );
#26 = MECHANICAL_CONTEXT ( 'NONE', #60, 'mechanical' ) ;
#27 = APPROVAL ( #10, 'UNSPECIFIED' ) ;
#28 = DIRECTION ( 'NONE',  ( -5.551115123125782702E-16, 0.000000000000000000, 1.000000000000000000 ) ) ;
#29 = PERSON_AND_ORGANIZATION ( #122, #97 ) ;
#30 = ORIENTED_EDGE ( 'NONE', *, *, #244, .F. ) ;
#31 = CARTESIAN_POINT ( 'NONE',  ( 0.000000000000000000, 0.000000000000000000, 0.000000000000000000 ) ) ;
#32 = LOCAL_TIME ( 10, 52, 10.00000000000000000, #77 ) ;
#33 = PERSON_AND_ORGANIZATION ( #122, #97 ) ;
#34 = COORDINATED_UNIVERSAL_TIME_OFFSET ( 1, 0, .AHEAD. ) ;
#35 = AXIS2_PLACEMENT_3D ( 'NONE', #127, #196, #145 ) ;
#36 = PERSON_AND_ORGANIZATION_ROLE ( 'classification_officer' ) ;
#37 = CC_DESIGN_DATE_AND_TIME_ASSIGNMENT ( #52, #154, ( #135 ) ) ;
#38 = AXIS2_PLACEMENT_3D ( 'NONE', #1, #90, #126 ) ;
#39 = EDGE_LOOP ( 'NONE', ( #105, #241 ) ) ;
#40 = APPROVAL ( #169, 'UNSPECIFIED' ) ;
#41 = ORIENTED_EDGE ( 'NONE', *, *, #207, .T. ) ;
#42 = APPROVAL_PERSON_ORGANIZATION ( #29, #40, #202 ) ;
#43 = CC_DESIGN_PERSON_AND_ORGANIZATION_ASSIGNMENT ( #149, #5, ( #84 ) ) ;
#44 = VERTEX_POINT ( 'NONE', #218 ) ;
#45 = AXIS2_PLACEMENT_3D ( 'NONE', #72, #11, #226 ) ;
#46 = CARTESIAN_POINT ( 'NONE',  ( -21.14999999999998437, 0.000000000000000000, 5.884182030513330453E-15 ) ) ;
#47 = DIRECTION ( 'NONE',  ( 1.000000000000000000, 0.000000000000000000, 5.551115123125784674E-16 ) ) ;
#48 = ORIENTED_EDGE ( 'NONE', *, *, #16, .T. ) ;
#49 = APPROVAL_ROLE ( '' ) ;
#50 = APPROVAL_STATUS ( 'not_yet_approved' ) ;
#51 = PERSON_AND_ORGANIZATION_ROLE ( 'creator' ) ;
#52 = DATE_AND_TIME ( #54, #104 ) ;
#53 = AXIS2_PLACEMENT_3D ( 'NONE', #166, #246, #144 ) ;
#54 = CALENDAR_DATE ( 2024, 3, 8 ) ;
#55 = CLOSED_SHELL ( 'NONE', ( #233, #158, #21, #190, #139, #95 ) ) ;
#56 = VERTEX_POINT ( 'NONE', #110 ) ;
#57 = ORIENTED_EDGE ( 'NONE', *, *, #146, .T. ) ;
#58 = EDGE_LOOP ( 'NONE', ( #30, #18 ) ) ;
#59 = ORIENTED_EDGE ( 'NONE', *, *, #225, .F. ) ;
#60 = APPLICATION_CONTEXT ( 'configuration controlled 3d designs of mechanical parts and assemblies' ) ;
#61 = EDGE_LOOP ( 'NONE', ( #173, #239, #140, #251 ) ) ;
#62 = FACE_OUTER_BOUND ( 'NONE', #81, .T. ) ;
#63 = LOCAL_TIME ( 10, 52, 10.00000000000000000, #13 ) ;
#64 = DIRECTION ( 'NONE',  ( 0.7071067811865506814, 0.000000000000000000, 0.7071067811865443531 ) ) ;
#65 = DIRECTION ( 'NONE',  ( 0.000000000000000000, 1.000000000000000000, 0.000000000000000000 ) ) ;
#66 = AXIS2_PLACEMENT_3D ( 'NONE', #3, #87, #64 ) ;
#67 = AXIS2_PLACEMENT_3D ( 'NONE', #141, #200, #2 ) ;
#68 = ORIENTED_EDGE ( 'NONE', *, *, #225, .T. ) ;
#69 = DIRECTION ( 'NONE',  ( 0.7071067811865505703, 0.000000000000000000, 0.7071067811865444641 ) ) ;
#70 = CARTESIAN_POINT ( 'NONE',  ( -38.78480694808231277, 0.000000000000000000, -38.78480694808193618 ) ) ;
#71 = EDGE_CURVE ( 'NONE', #213, #234, #175, .T. ) ;
#72 = CARTESIAN_POINT ( 'NONE',  ( -37.99999999999998579, 0.000000000000000000, -3.469446951953614189E-15 ) ) ;
#73 = CALENDAR_DATE ( 2024, 3, 8 ) ;
#74 = PERSON_AND_ORGANIZATION_ROLE ( 'design_supplier' ) ;
#75 = CC_DESIGN_DATE_AND_TIME_ASSIGNMENT ( #227, #103, ( #164 ) ) ;
#76 = APPROVAL_DATE_TIME ( #185, #40 ) ;
#77 = COORDINATED_UNIVERSAL_TIME_OFFSET ( 1, 0, .AHEAD. ) ;
#78 = VERTEX_POINT ( 'NONE', #86 ) ;
#79 = LOCAL_TIME ( 10, 52, 10.00000000000000000, #116 ) ;
#80 = ORIENTED_EDGE ( 'NONE', *, *, #180, .T. ) ;
#81 = EDGE_LOOP ( 'NONE', ( #155, #68, #57, #123 ) ) ;
#82 = TOROIDAL_SURFACE ( 'NONE', #19, 37.99999999999998579, 16.85000000000000142 ) ;
#83 = CC_DESIGN_PERSON_AND_ORGANIZATION_ASSIGNMENT ( #210, #51, ( #17 ) ) ;
#84 = PRODUCT ( '3D_R1650_33.7x2.6_17351210', '3D_R1650_33.7x2.6_17351210', '', ( #26 ) ) ;
#85 = UNCERTAINTY_MEASURE_WITH_UNIT (LENGTH_MEASURE( 1.000000000000000082E-05 ), #25, 'distance_accuracy_value', 'NONE');
#86 = CARTESIAN_POINT ( 'NONE',  ( -23.74999999999998579, 0.000000000000000000, -1.318389841742372445E-14 ) ) ;
#87 = DIRECTION ( 'NONE',  ( -0.7071067811865443531, 0.000000000000000000, 0.7071067811865506814 ) ) ;
#88 = DIRECTION ( 'NONE',  ( -5.551115123125782702E-16, 0.000000000000000000, 1.000000000000000000 ) ) ;
#89 = DIRECTION ( 'NONE',  ( 0.000000000000000000, 0.000000000000000000, 1.000000000000000000 ) ) ;
#90 = DIRECTION ( 'NONE',  ( 0.000000000000000000, 1.000000000000000000, 0.000000000000000000 ) ) ;
#91 = DIRECTION ( 'NONE',  ( -0.7071067811865444641, 0.000000000000000000, 0.7071067811865506814 ) ) ;
#92 = ORIENTED_EDGE ( 'NONE', *, *, #223, .F. ) ;
#93 = DIRECTION ( 'NONE',  ( 1.000000000000000000, 0.000000000000000000, 0.000000000000000000 ) ) ;
#94 = CIRCLE ( 'NONE', #35, 16.85000000000000142 ) ;
#95 = ADVANCED_FACE ( 'NONE', ( #159 ), #170, .F. ) ;
#96 = DIRECTION ( 'NONE',  ( 0.000000000000000000, 0.000000000000000000, 1.000000000000000000 ) ) ;
#97 = ORGANIZATION ( 'UNSPECIFIED', 'UNSPECIFIED', '' ) ;
#98 = CARTESIAN_POINT ( 'NONE',  ( -52.24999999999998579, 0.000000000000000000, -2.900457651833221462E-14 ) ) ;
#99 = PERSON_AND_ORGANIZATION ( #122, #97 ) ;
#100 = CARTESIAN_POINT ( 'NONE',  ( 0.000000000000000000, -1.745121688784978228E-15, 0.000000000000000000 ) ) ;
#101 = FACE_OUTER_BOUND ( 'NONE', #39, .T. ) ;
#102 = CALENDAR_DATE ( 2024, 3, 8 ) ;
#103 = DATE_TIME_ROLE ( 'creation_date' ) ;
#104 = LOCAL_TIME ( 10, 52, 10.00000000000000000, #248 ) ;
#105 = ORIENTED_EDGE ( 'NONE', *, *, #106, .T. ) ;
#106 = EDGE_CURVE ( 'NONE', #177, #212, #94, .T. ) ;
#107 = AXIS2_PLACEMENT_3D ( 'NONE', #112, #220, #148 ) ;
#108 = AXIS2_PLACEMENT_3D ( 'NONE', #194, #160, #24 ) ;
#109 = ORIENTED_EDGE ( 'NONE', *, *, #16, .F. ) ;
#110 = CARTESIAN_POINT ( 'NONE',  ( -16.79378605318056827, -1.745121688784978228E-15, -16.79378605318041906 ) ) ;
#111 = CARTESIAN_POINT ( 'NONE',  ( -54.84999999999998010, 0.000000000000000000, -1.282307593442055489E-14 ) ) ;
#112 = CARTESIAN_POINT ( 'NONE',  ( 0.000000000000000000, 0.000000000000000000, 0.000000000000000000 ) ) ;
#113 = DIRECTION ( 'NONE',  ( 0.000000000000000000, 0.000000000000000000, 1.000000000000000000 ) ) ;
#114 = APPLICATION_PROTOCOL_DEFINITION ( 'international standard', 'config_control_design', 1994, #60 ) ;
#115 = DIRECTION ( 'NONE',  ( 0.7071067811865505703, 0.000000000000000000, 0.7071067811865444641 ) ) ;
#116 = COORDINATED_UNIVERSAL_TIME_OFFSET ( 1, 0, .AHEAD. ) ;
#117 = CC_DESIGN_PERSON_AND_ORGANIZATION_ASSIGNMENT ( #99, #231, ( #164 ) ) ;
#118 = DATE_AND_TIME ( #73, #63 ) ;
#119 = CIRCLE ( 'NONE', #253, 23.74999999999998579 ) ;
#120 = APPROVAL_ROLE ( '' ) ;
#121 = EDGE_LOOP ( 'NONE', ( #48, #80 ) ) ;
#122 = PERSON ( 'UNSPECIFIED', 'UNSPECIFIED', 'UNSPECIFIED', ('UNSPECIFIED'), ('UNSPECIFIED'), ('UNSPECIFIED') ) ;
#123 = ORIENTED_EDGE ( 'NONE', *, *, #207, .F. ) ;
#124 = CIRCLE ( 'NONE', #147, 21.14999999999998437 ) ;
#125 = APPROVAL_PERSON_ORGANIZATION ( #171, #27, #120 ) ;
#126 = DIRECTION ( 'NONE',  ( 0.000000000000000000, 0.000000000000000000, 1.000000000000000000 ) ) ;
#127 = CARTESIAN_POINT ( 'NONE',  ( -37.99999999999998579, 0.000000000000000000, -3.469446951953614189E-15 ) ) ;
#128 = AXIS2_PLACEMENT_3D ( 'NONE', #182, #88, #129 ) ;
#129 = DIRECTION ( 'NONE',  ( 1.000000000000000000, 0.000000000000000000, 5.551115123125784674E-16 ) ) ;
#130 = CARTESIAN_POINT ( 'NONE',  ( -26.87005768508891634, 0.000000000000000000, -26.87005768508867831 ) ) ;
#131 = APPLICATION_PROTOCOL_DEFINITION ( 'international standard', 'config_control_design', 1994, #172 ) ;
#132 = EDGE_CURVE ( 'NONE', #212, #177, #174, .T. ) ;
#133 = DIRECTION ( 'NONE',  ( -0.7071067811865444641, 0.000000000000000000, 0.7071067811865506814 ) ) ;
#134 = PERSON_AND_ORGANIZATION ( #122, #97 ) ;
#135 = SECURITY_CLASSIFICATION ( '', '', #187 ) ;
#136 = CALENDAR_DATE ( 2024, 3, 8 ) ;
#137 = TOROIDAL_SURFACE ( 'NONE', #53, 37.99999999999998579, 14.25000000000000000 ) ;
#138 = SHAPE_DEFINITION_REPRESENTATION ( #235, #236 ) ;
#139 = ADVANCED_FACE ( 'NONE', ( #22, #4 ), #178, .F. ) ;
#140 = ORIENTED_EDGE ( 'NONE', *, *, #223, .T. ) ;
#141 = CARTESIAN_POINT ( 'NONE',  ( -26.87005768508893055, 0.000000000000000000, -26.87005768508866410 ) ) ;
#142 = LOCAL_TIME ( 10, 52, 10.00000000000000000, #34 ) ;
#143 = ORIENTED_EDGE ( 'NONE', *, *, #106, .F. ) ;
#144 = DIRECTION ( 'NONE',  ( 0.000000000000000000, 0.000000000000000000, 1.000000000000000000 ) ) ;
#145 = DIRECTION ( 'NONE',  ( 1.000000000000000000, 0.000000000000000000, 5.551115123125782702E-16 ) ) ;
#146 = EDGE_CURVE ( 'NONE', #188, #78, #186, .T. ) ;
#147 = AXIS2_PLACEMENT_3D ( 'NONE', #217, #224, #89 ) ;
#148 = DIRECTION ( 'NONE',  ( 0.000000000000000000, 0.000000000000000000, 1.000000000000000000 ) ) ;
#149 = PERSON_AND_ORGANIZATION ( #122, #97 ) ;
#150 = ORIENTED_EDGE ( 'NONE', *, *, #176, .T. ) ;
#151 = PLANE ( 'NONE',  #45 ) ;
#152 = APPROVAL_DATE_TIME ( #206, #203 ) ;
#153 = PERSON_AND_ORGANIZATION ( #122, #97 ) ;
#154 = DATE_TIME_ROLE ( 'classification_date' ) ;
#155 = ORIENTED_EDGE ( 'NONE', *, *, #180, .F. ) ;
#156 = EDGE_LOOP ( 'NONE', ( #168, #163 ) ) ;
#157 = AXIS2_PLACEMENT_3D ( 'NONE', #130, #6, #69 ) ;
#158 = ADVANCED_FACE ( 'NONE', ( #197 ), #82, .T. ) ;
#159 = FACE_OUTER_BOUND ( 'NONE', #201, .T. ) ;
#160 = DIRECTION ( 'NONE',  ( 0.000000000000000000, 1.000000000000000000, 0.000000000000000000 ) ) ;
#161 =( NAMED_UNIT ( * ) SI_UNIT ( $, .STERADIAN. ) SOLID_ANGLE_UNIT ( ) );
#162 = CC_DESIGN_APPROVAL ( #27, ( #135 ) ) ;
#163 = ORIENTED_EDGE ( 'NONE', *, *, #146, .F. ) ;
#164 = PRODUCT_DEFINITION ( 'UNKNOWN', '', #17, #238 ) ;
#165 = DIRECTION ( 'NONE',  ( 1.000000000000000000, 0.000000000000000000, 5.551115123125782702E-16 ) ) ;
#166 = CARTESIAN_POINT ( 'NONE',  ( 0.000000000000000000, 0.000000000000000000, 0.000000000000000000 ) ) ;
#167 = CIRCLE ( 'NONE', #107, 54.84999999999998010 ) ;
#168 = ORIENTED_EDGE ( 'NONE', *, *, #252, .F. ) ;
#169 = APPROVAL_STATUS ( 'not_yet_approved' ) ;
#170 = TOROIDAL_SURFACE ( 'NONE', #108, 37.99999999999998579, 14.25000000000000000 ) ;
#171 = PERSON_AND_ORGANIZATION ( #122, #97 ) ;
#172 = APPLICATION_CONTEXT ( 'configuration controlled 3d designs of mechanical parts and assemblies' ) ;
#173 = ORIENTED_EDGE ( 'NONE', *, *, #176, .F. ) ;
#174 = CIRCLE ( 'NONE', #12, 16.85000000000000142 ) ;
#175 = CIRCLE ( 'NONE', #67, 16.85000000000000142 ) ;
#176 = EDGE_CURVE ( 'NONE', #213, #212, #167, .T. ) ;
#177 = VERTEX_POINT ( 'NONE', #46 ) ;
#178 = PLANE ( 'NONE',  #66 ) ;
#179 = CARTESIAN_POINT ( 'NONE',  ( -37.99999999999998579, 0.000000000000000000, -3.469446951953614189E-15 ) ) ;
#180 = EDGE_CURVE ( 'NONE', #44, #56, #219, .T. ) ;
#181 = FACE_OUTER_BOUND ( 'NONE', #61, .T. ) ;
#182 = CARTESIAN_POINT ( 'NONE',  ( -37.99999999999998579, 0.000000000000000000, -2.109423746787796480E-14 ) ) ;
#183 = DIRECTION ( 'NONE',  ( 0.7071067811865505703, 0.000000000000000000, 0.7071067811865444641 ) ) ;
#184 =( GEOMETRIC_REPRESENTATION_CONTEXT ( 3 ) GLOBAL_UNCERTAINTY_ASSIGNED_CONTEXT ( ( #85 ) ) GLOBAL_UNIT_ASSIGNED_CONTEXT ( ( #25, #222, #161 ) ) REPRESENTATION_CONTEXT ( 'NONE', 'WORKASPACE' ) );
#185 = DATE_AND_TIME ( #204, #79 ) ;
#186 = CIRCLE ( 'NONE', #128, 14.24999999999999822 ) ;
#187 = SECURITY_CLASSIFICATION_LEVEL ( 'unclassified' ) ;
#188 = VERTEX_POINT ( 'NONE', #98 ) ;
#189 = AXIS2_PLACEMENT_3D ( 'NONE', #23, #8, #47 ) ;
#190 = ADVANCED_FACE ( 'NONE', ( #247, #101 ), #151, .T. ) ;
#191 = AXIS2_PLACEMENT_3D ( 'NONE', #195, #91, #183 ) ;
#192 = TOROIDAL_SURFACE ( 'NONE', #38, 37.99999999999998579, 16.85000000000000142 ) ;
#193 = CC_DESIGN_APPROVAL ( #203, ( #17 ) ) ;
#194 = CARTESIAN_POINT ( 'NONE',  ( 0.000000000000000000, 0.000000000000000000, 0.000000000000000000 ) ) ;
#195 = CARTESIAN_POINT ( 'NONE',  ( -26.87005768508893055, 0.000000000000000000, -26.87005768508866410 ) ) ;
#196 = DIRECTION ( 'NONE',  ( -5.551115123125782702E-16, 0.000000000000000000, 1.000000000000000000 ) ) ;
#197 = FACE_OUTER_BOUND ( 'NONE', #15, .T. ) ;
#198 = CARTESIAN_POINT ( 'NONE',  ( 0.000000000000000000, 0.000000000000000000, 0.000000000000000000 ) ) ;
#199 = MANIFOLD_SOLID_BREP ( 'Wandung1', #55 ) ;
#200 = DIRECTION ( 'NONE',  ( -0.7071067811865444641, 0.000000000000000000, 0.7071067811865506814 ) ) ;
#201 = EDGE_LOOP ( 'NONE', ( #59, #109, #41, #215 ) ) ;
#202 = APPROVAL_ROLE ( '' ) ;
#203 = APPROVAL ( #50, 'UNSPECIFIED' ) ;
#204 = CALENDAR_DATE ( 2024, 3, 8 ) ;
#205 = CC_DESIGN_SECURITY_CLASSIFICATION ( #135, ( #17 ) ) ;
#206 = DATE_AND_TIME ( #136, #32 ) ;
#207 = EDGE_CURVE ( 'NONE', #56, #78, #119, .T. ) ;
#208 = APPROVAL_DATE_TIME ( #118, #27 ) ;
#209 = CIRCLE ( 'NONE', #243, 52.24999999999998579 ) ;
#210 = PERSON_AND_ORGANIZATION ( #122, #97 ) ;
#211 = CIRCLE ( 'NONE', #20, 14.25000000000000000 ) ;
#212 = VERTEX_POINT ( 'NONE', #111 ) ;
#213 = VERTEX_POINT ( 'NONE', #70 ) ;
#214 = CC_DESIGN_PERSON_AND_ORGANIZATION_ASSIGNMENT ( #134, #74, ( #17 ) ) ;
#215 = ORIENTED_EDGE ( 'NONE', *, *, #252, .T. ) ;
#216 = CARTESIAN_POINT ( 'NONE',  ( -26.87005768508891634, 0.000000000000000000, -26.87005768508867831 ) ) ;
#217 = CARTESIAN_POINT ( 'NONE',  ( 0.000000000000000000, -2.063529856563290244E-15, 0.000000000000000000 ) ) ;
#218 = CARTESIAN_POINT ( 'NONE',  ( -36.94632931699726441, 0.000000000000000000, -36.94632931699693756 ) ) ;
#219 = CIRCLE ( 'NONE', #157, 14.25000000000000000 ) ;
#220 = DIRECTION ( 'NONE',  ( 0.000000000000000000, 1.000000000000000000, 0.000000000000000000 ) ) ;
#221 = CARTESIAN_POINT ( 'NONE',  ( -14.95530842209555011, -2.063529856563290244E-15, -14.95530842209539024 ) ) ;
#222 =( NAMED_UNIT ( * ) PLANE_ANGLE_UNIT ( ) SI_UNIT ( $, .RADIAN. ) );
#223 = EDGE_CURVE ( 'NONE', #234, #177, #124, .T. ) ;
#224 = DIRECTION ( 'NONE',  ( 0.000000000000000000, 1.000000000000000000, 0.000000000000000000 ) ) ;
#225 = EDGE_CURVE ( 'NONE', #44, #188, #209, .T. ) ;
#226 = DIRECTION ( 'NONE',  ( 1.000000000000000000, 0.000000000000000000, 5.551115123125782702E-16 ) ) ;
#227 = DATE_AND_TIME ( #102, #142 ) ;
#228 = DIRECTION ( 'NONE',  ( 0.000000000000000000, 0.000000000000000000, 1.000000000000000000 ) ) ;
#229 = CIRCLE ( 'NONE', #189, 14.24999999999999822 ) ;
#230 = DIRECTION ( 'NONE',  ( 0.000000000000000000, 1.000000000000000000, 0.000000000000000000 ) ) ;
#231 = PERSON_AND_ORGANIZATION_ROLE ( 'creator' ) ;
#232 = APPROVAL_PERSON_ORGANIZATION ( #153, #203, #49 ) ;
#233 = ADVANCED_FACE ( 'NONE', ( #62 ), #137, .F. ) ;
#234 = VERTEX_POINT ( 'NONE', #221 ) ;
#235 = PRODUCT_DEFINITION_SHAPE ( 'NONE', 'NONE',  #164 ) ;
#236 = ADVANCED_BREP_SHAPE_REPRESENTATION ( '3D_R1650_33.7x2.6_17351210', ( #199, #9 ), #184 ) ;
#237 = CIRCLE ( 'NONE', #191, 16.85000000000000142 ) ;
#238 = DESIGN_CONTEXT ( 'detailed design', #172, 'design' ) ;
#239 = ORIENTED_EDGE ( 'NONE', *, *, #71, .T. ) ;
#240 = DIRECTION ( 'NONE',  ( 0.000000000000000000, 1.000000000000000000, 0.000000000000000000 ) ) ;
#241 = ORIENTED_EDGE ( 'NONE', *, *, #132, .T. ) ;
#242 = CARTESIAN_POINT ( 'NONE',  ( 0.000000000000000000, 0.000000000000000000, 0.000000000000000000 ) ) ;
#243 = AXIS2_PLACEMENT_3D ( 'NONE', #31, #240, #7 ) ;
#244 = EDGE_CURVE ( 'NONE', #234, #213, #237, .T. ) ;
#245 = ORIENTED_EDGE ( 'NONE', *, *, #244, .T. ) ;
#246 = DIRECTION ( 'NONE',  ( 0.000000000000000000, 1.000000000000000000, 0.000000000000000000 ) ) ;
#247 = FACE_BOUND ( 'NONE', #156, .T. ) ;
#248 = COORDINATED_UNIVERSAL_TIME_OFFSET ( 1, 0, .AHEAD. ) ;
#249 = CC_DESIGN_PERSON_AND_ORGANIZATION_ASSIGNMENT ( #33, #36, ( #135 ) ) ;
#250 = CC_DESIGN_APPROVAL ( #40, ( #164 ) ) ;
#251 = ORIENTED_EDGE ( 'NONE', *, *, #132, .F. ) ;
#252 = EDGE_CURVE ( 'NONE', #78, #188, #229, .T. ) ;
#253 = AXIS2_PLACEMENT_3D ( 'NONE', #100, #230, #228 ) ;
ENDSEC;
END-ISO-10303-21;
