ISO-10303-21;
HEADER;
/* Generated by software containing ST-Developer
 * from STEP Tools, Inc. (www.steptools.com) 
 */

FILE_DESCRIPTION(
/* description */ (''),
/* implementation_level */ '2;1');

FILE_NAME(
/* name */ 
'C:\\Users\\cad\\Desktop\\Zeichnungen neu von Ralph\\3D_Kupplung_R666-
G\\3D_R666-G-DN20-DN32_17113530.stp',
/* time_stamp */ '2021-06-21T14:50:51+02:00',
/* author */ ('cad'),
/* organization */ (''),
/* preprocessor_version */ 'ST-DEVELOPER v18.1',
/* originating_system */ 'Autodesk Inventor 2022',
/* authorisation */ '');

FILE_SCHEMA (('AUTOMOTIVE_DESIGN { 1 0 10303 214 3 1 1 }'));
ENDSEC;

DATA;
#10=MECHANICAL_DESIGN_GEOMETRIC_PRESENTATION_REPRESENTATION('',(#13),#571);
#11=SHAPE_REPRESENTATION_RELATIONSHIP('SRR','None',#578,#12);
#12=ADVANCED_BREP_SHAPE_REPRESENTATION('',(#14),#570);
#13=STYLED_ITEM('',(#587),#14);
#14=MANIFOLD_SOLID_BREP('Volumenk\X\F6rper1',#308);
#15=CYLINDRICAL_SURFACE('',#349,15.5);
#16=CYLINDRICAL_SURFACE('',#356,12.0585);
#17=CYLINDRICAL_SURFACE('',#365,20.9);
#18=TOROIDAL_SURFACE('',#343,16.,0.5);
#19=CONICAL_SURFACE('',#338,15.35,0.785398163397452);
#20=CONICAL_SURFACE('',#340,15.35,0.785398163397452);
#21=CONICAL_SURFACE('',#350,17.2,0.847816973393406);
#22=CONICAL_SURFACE('',#353,12.2085,0.785398163397452);
#23=CONICAL_SURFACE('',#361,12.8085,0.785398163397451);
#24=CONICAL_SURFACE('',#362,19.9,0.785398163397448);
#25=CONICAL_SURFACE('',#368,19.9,0.785398163397448);
#26=FACE_BOUND('',#74,.T.);
#27=FACE_BOUND('',#83,.T.);
#28=CIRCLE('',#335,15.2);
#29=CIRCLE('',#336,15.2);
#30=CIRCLE('',#337,13.5585);
#31=CIRCLE('',#339,15.5);
#32=CIRCLE('',#341,15.5);
#33=CIRCLE('',#342,15.5);
#34=CIRCLE('',#344,15.5);
#35=CIRCLE('',#345,0.5);
#36=CIRCLE('',#346,15.6691891814566);
#37=CIRCLE('',#347,15.6691891814566);
#38=CIRCLE('',#348,15.5);
#39=CIRCLE('',#351,18.9);
#40=CIRCLE('',#352,18.9);
#41=CIRCLE('',#354,12.3585);
#42=CIRCLE('',#355,12.0585);
#43=CIRCLE('',#357,12.0585);
#44=CIRCLE('',#358,12.0585);
#45=CIRCLE('',#360,18.9);
#46=CIRCLE('',#363,20.9);
#47=CIRCLE('',#364,20.9);
#48=CIRCLE('',#366,20.9);
#49=CIRCLE('',#367,20.9);
#50=ELLIPSE('',#330,21.920310216783,15.5);
#51=ELLIPSE('',#333,21.920310216783,15.5);
#52=FACE_OUTER_BOUND('',#69,.T.);
#53=FACE_OUTER_BOUND('',#70,.T.);
#54=FACE_OUTER_BOUND('',#71,.T.);
#55=FACE_OUTER_BOUND('',#72,.T.);
#56=FACE_OUTER_BOUND('',#73,.T.);
#57=FACE_OUTER_BOUND('',#75,.T.);
#58=FACE_OUTER_BOUND('',#76,.T.);
#59=FACE_OUTER_BOUND('',#77,.T.);
#60=FACE_OUTER_BOUND('',#78,.T.);
#61=FACE_OUTER_BOUND('',#79,.T.);
#62=FACE_OUTER_BOUND('',#80,.T.);
#63=FACE_OUTER_BOUND('',#81,.T.);
#64=FACE_OUTER_BOUND('',#82,.T.);
#65=FACE_OUTER_BOUND('',#84,.T.);
#66=FACE_OUTER_BOUND('',#85,.T.);
#67=FACE_OUTER_BOUND('',#86,.T.);
#68=FACE_OUTER_BOUND('',#87,.T.);
#69=EDGE_LOOP('',(#197,#198,#199,#200,#201,#202));
#70=EDGE_LOOP('',(#203,#204));
#71=EDGE_LOOP('',(#205,#206,#207,#208,#209,#210));
#72=EDGE_LOOP('',(#211,#212));
#73=EDGE_LOOP('',(#213,#214,#215,#216));
#74=EDGE_LOOP('',(#217));
#75=EDGE_LOOP('',(#218,#219,#220,#221));
#76=EDGE_LOOP('',(#222,#223,#224,#225,#226));
#77=EDGE_LOOP('',(#227,#228,#229,#230,#231,#232));
#78=EDGE_LOOP('',(#233,#234,#235,#236,#237,#238,#239,#240,#241,#242,#243,
#244,#245));
#79=EDGE_LOOP('',(#246,#247,#248,#249,#250,#251));
#80=EDGE_LOOP('',(#252,#253,#254,#255));
#81=EDGE_LOOP('',(#256,#257,#258,#259,#260));
#82=EDGE_LOOP('',(#261));
#83=EDGE_LOOP('',(#262));
#84=EDGE_LOOP('',(#263,#264,#265,#266,#267));
#85=EDGE_LOOP('',(#268,#269,#270,#271,#272,#273));
#86=EDGE_LOOP('',(#274,#275,#276,#277,#278,#279));
#87=EDGE_LOOP('',(#280,#281,#282,#283,#284));
#88=LINE('',#477,#104);
#89=LINE('',#479,#105);
#90=LINE('',#481,#106);
#91=LINE('',#486,#107);
#92=LINE('',#496,#108);
#93=LINE('',#498,#109);
#94=LINE('',#500,#110);
#95=LINE('',#505,#111);
#96=LINE('',#530,#112);
#97=LINE('',#536,#113);
#98=LINE('',#541,#114);
#99=LINE('',#548,#115);
#100=LINE('',#553,#116);
#101=LINE('',#559,#117);
#102=LINE('',#565,#118);
#103=LINE('',#567,#119);
#104=VECTOR('',#373,10.);
#105=VECTOR('',#374,10.);
#106=VECTOR('',#375,10.);
#107=VECTOR('',#376,10.);
#108=VECTOR('',#383,10.);
#109=VECTOR('',#384,10.);
#110=VECTOR('',#385,10.);
#111=VECTOR('',#386,10.);
#112=VECTOR('',#423,15.5);
#113=VECTOR('',#430,17.2);
#114=VECTOR('',#435,12.2085);
#115=VECTOR('',#444,12.0585);
#116=VECTOR('',#451,12.8085);
#117=VECTOR('',#458,19.9);
#118=VECTOR('',#465,20.9);
#119=VECTOR('',#468,19.9);
#120=(
BOUNDED_CURVE()
B_SPLINE_CURVE(2,(#473,#474,#475),.UNSPECIFIED.,.F.,.F.)
B_SPLINE_CURVE_WITH_KNOTS((3,3),(0.,0.0965485715533429),.UNSPECIFIED.)
CURVE()
GEOMETRIC_REPRESENTATION_ITEM()
RATIONAL_B_SPLINE_CURVE((1.,1.00044700298938,1.))
REPRESENTATION_ITEM('')
);
#121=(
BOUNDED_CURVE()
B_SPLINE_CURVE(2,(#483,#484,#485),.UNSPECIFIED.,.F.,.F.)
B_SPLINE_CURVE_WITH_KNOTS((3,3),(0.,0.0965485715533429),.UNSPECIFIED.)
CURVE()
GEOMETRIC_REPRESENTATION_ITEM()
RATIONAL_B_SPLINE_CURVE((1.,1.00044700298938,1.))
REPRESENTATION_ITEM('')
);
#122=(
BOUNDED_CURVE()
B_SPLINE_CURVE(2,(#492,#493,#494),.UNSPECIFIED.,.F.,.F.)
B_SPLINE_CURVE_WITH_KNOTS((3,3),(0.,0.0965485715533414),.UNSPECIFIED.)
CURVE()
GEOMETRIC_REPRESENTATION_ITEM()
RATIONAL_B_SPLINE_CURVE((1.,1.00044700298991,1.))
REPRESENTATION_ITEM('')
);
#123=(
BOUNDED_CURVE()
B_SPLINE_CURVE(2,(#502,#503,#504),.UNSPECIFIED.,.F.,.F.)
B_SPLINE_CURVE_WITH_KNOTS((3,3),(0.,0.0965485715533414),.UNSPECIFIED.)
CURVE()
GEOMETRIC_REPRESENTATION_ITEM()
RATIONAL_B_SPLINE_CURVE((1.,1.00044700298991,1.))
REPRESENTATION_ITEM('')
);
#124=VERTEX_POINT('',#471);
#125=VERTEX_POINT('',#472);
#126=VERTEX_POINT('',#476);
#127=VERTEX_POINT('',#478);
#128=VERTEX_POINT('',#480);
#129=VERTEX_POINT('',#482);
#130=VERTEX_POINT('',#490);
#131=VERTEX_POINT('',#491);
#132=VERTEX_POINT('',#495);
#133=VERTEX_POINT('',#497);
#134=VERTEX_POINT('',#499);
#135=VERTEX_POINT('',#501);
#136=VERTEX_POINT('',#511);
#137=VERTEX_POINT('',#516);
#138=VERTEX_POINT('',#520);
#139=VERTEX_POINT('',#521);
#140=VERTEX_POINT('',#523);
#141=VERTEX_POINT('',#525);
#142=VERTEX_POINT('',#532);
#143=VERTEX_POINT('',#533);
#144=VERTEX_POINT('',#538);
#145=VERTEX_POINT('',#540);
#146=VERTEX_POINT('',#544);
#147=VERTEX_POINT('',#545);
#148=VERTEX_POINT('',#550);
#149=VERTEX_POINT('',#555);
#150=VERTEX_POINT('',#556);
#151=VERTEX_POINT('',#561);
#152=VERTEX_POINT('',#562);
#153=EDGE_CURVE('',#124,#125,#120,.T.);
#154=EDGE_CURVE('',#126,#124,#88,.T.);
#155=EDGE_CURVE('',#126,#127,#89,.T.);
#156=EDGE_CURVE('',#128,#127,#90,.T.);
#157=EDGE_CURVE('',#129,#128,#121,.T.);
#158=EDGE_CURVE('',#125,#129,#91,.T.);
#159=EDGE_CURVE('',#127,#126,#50,.T.);
#160=EDGE_CURVE('',#130,#131,#122,.T.);
#161=EDGE_CURVE('',#132,#130,#92,.T.);
#162=EDGE_CURVE('',#132,#133,#93,.T.);
#163=EDGE_CURVE('',#134,#133,#94,.T.);
#164=EDGE_CURVE('',#135,#134,#123,.T.);
#165=EDGE_CURVE('',#131,#135,#95,.T.);
#166=EDGE_CURVE('',#133,#132,#51,.T.);
#167=EDGE_CURVE('',#131,#129,#28,.T.);
#168=EDGE_CURVE('',#125,#135,#29,.T.);
#169=EDGE_CURVE('',#136,#136,#30,.T.);
#170=EDGE_CURVE('',#128,#130,#31,.T.);
#171=EDGE_CURVE('',#134,#137,#32,.T.);
#172=EDGE_CURVE('',#137,#124,#33,.T.);
#173=EDGE_CURVE('',#138,#139,#34,.T.);
#174=EDGE_CURVE('',#139,#140,#35,.T.);
#175=EDGE_CURVE('',#140,#141,#36,.T.);
#176=EDGE_CURVE('',#141,#140,#37,.T.);
#177=EDGE_CURVE('',#139,#138,#38,.T.);
#178=EDGE_CURVE('',#138,#137,#96,.T.);
#179=EDGE_CURVE('',#142,#143,#39,.T.);
#180=EDGE_CURVE('',#143,#142,#40,.T.);
#181=EDGE_CURVE('',#143,#141,#97,.T.);
#182=EDGE_CURVE('',#144,#144,#41,.T.);
#183=EDGE_CURVE('',#144,#145,#98,.T.);
#184=EDGE_CURVE('',#145,#145,#42,.T.);
#185=EDGE_CURVE('',#146,#147,#43,.T.);
#186=EDGE_CURVE('',#147,#146,#44,.T.);
#187=EDGE_CURVE('',#147,#145,#99,.T.);
#188=EDGE_CURVE('',#148,#148,#45,.T.);
#189=EDGE_CURVE('',#136,#146,#100,.T.);
#190=EDGE_CURVE('',#149,#150,#46,.T.);
#191=EDGE_CURVE('',#150,#149,#47,.T.);
#192=EDGE_CURVE('',#149,#142,#101,.T.);
#193=EDGE_CURVE('',#151,#152,#48,.T.);
#194=EDGE_CURVE('',#152,#151,#49,.T.);
#195=EDGE_CURVE('',#152,#150,#102,.T.);
#196=EDGE_CURVE('',#148,#151,#103,.T.);
#197=ORIENTED_EDGE('',*,*,#153,.F.);
#198=ORIENTED_EDGE('',*,*,#154,.F.);
#199=ORIENTED_EDGE('',*,*,#155,.T.);
#200=ORIENTED_EDGE('',*,*,#156,.F.);
#201=ORIENTED_EDGE('',*,*,#157,.F.);
#202=ORIENTED_EDGE('',*,*,#158,.F.);
#203=ORIENTED_EDGE('',*,*,#159,.F.);
#204=ORIENTED_EDGE('',*,*,#155,.F.);
#205=ORIENTED_EDGE('',*,*,#160,.F.);
#206=ORIENTED_EDGE('',*,*,#161,.F.);
#207=ORIENTED_EDGE('',*,*,#162,.T.);
#208=ORIENTED_EDGE('',*,*,#163,.F.);
#209=ORIENTED_EDGE('',*,*,#164,.F.);
#210=ORIENTED_EDGE('',*,*,#165,.F.);
#211=ORIENTED_EDGE('',*,*,#166,.F.);
#212=ORIENTED_EDGE('',*,*,#162,.F.);
#213=ORIENTED_EDGE('',*,*,#158,.T.);
#214=ORIENTED_EDGE('',*,*,#167,.F.);
#215=ORIENTED_EDGE('',*,*,#165,.T.);
#216=ORIENTED_EDGE('',*,*,#168,.F.);
#217=ORIENTED_EDGE('',*,*,#169,.F.);
#218=ORIENTED_EDGE('',*,*,#157,.T.);
#219=ORIENTED_EDGE('',*,*,#170,.T.);
#220=ORIENTED_EDGE('',*,*,#160,.T.);
#221=ORIENTED_EDGE('',*,*,#167,.T.);
#222=ORIENTED_EDGE('',*,*,#153,.T.);
#223=ORIENTED_EDGE('',*,*,#168,.T.);
#224=ORIENTED_EDGE('',*,*,#164,.T.);
#225=ORIENTED_EDGE('',*,*,#171,.T.);
#226=ORIENTED_EDGE('',*,*,#172,.T.);
#227=ORIENTED_EDGE('',*,*,#173,.T.);
#228=ORIENTED_EDGE('',*,*,#174,.T.);
#229=ORIENTED_EDGE('',*,*,#175,.T.);
#230=ORIENTED_EDGE('',*,*,#176,.T.);
#231=ORIENTED_EDGE('',*,*,#174,.F.);
#232=ORIENTED_EDGE('',*,*,#177,.T.);
#233=ORIENTED_EDGE('',*,*,#173,.F.);
#234=ORIENTED_EDGE('',*,*,#178,.T.);
#235=ORIENTED_EDGE('',*,*,#171,.F.);
#236=ORIENTED_EDGE('',*,*,#163,.T.);
#237=ORIENTED_EDGE('',*,*,#166,.T.);
#238=ORIENTED_EDGE('',*,*,#161,.T.);
#239=ORIENTED_EDGE('',*,*,#170,.F.);
#240=ORIENTED_EDGE('',*,*,#156,.T.);
#241=ORIENTED_EDGE('',*,*,#159,.T.);
#242=ORIENTED_EDGE('',*,*,#154,.T.);
#243=ORIENTED_EDGE('',*,*,#172,.F.);
#244=ORIENTED_EDGE('',*,*,#178,.F.);
#245=ORIENTED_EDGE('',*,*,#177,.F.);
#246=ORIENTED_EDGE('',*,*,#179,.F.);
#247=ORIENTED_EDGE('',*,*,#180,.F.);
#248=ORIENTED_EDGE('',*,*,#181,.T.);
#249=ORIENTED_EDGE('',*,*,#175,.F.);
#250=ORIENTED_EDGE('',*,*,#176,.F.);
#251=ORIENTED_EDGE('',*,*,#181,.F.);
#252=ORIENTED_EDGE('',*,*,#182,.T.);
#253=ORIENTED_EDGE('',*,*,#183,.T.);
#254=ORIENTED_EDGE('',*,*,#184,.T.);
#255=ORIENTED_EDGE('',*,*,#183,.F.);
#256=ORIENTED_EDGE('',*,*,#185,.F.);
#257=ORIENTED_EDGE('',*,*,#186,.F.);
#258=ORIENTED_EDGE('',*,*,#187,.T.);
#259=ORIENTED_EDGE('',*,*,#184,.F.);
#260=ORIENTED_EDGE('',*,*,#187,.F.);
#261=ORIENTED_EDGE('',*,*,#188,.F.);
#262=ORIENTED_EDGE('',*,*,#182,.F.);
#263=ORIENTED_EDGE('',*,*,#169,.T.);
#264=ORIENTED_EDGE('',*,*,#189,.T.);
#265=ORIENTED_EDGE('',*,*,#185,.T.);
#266=ORIENTED_EDGE('',*,*,#186,.T.);
#267=ORIENTED_EDGE('',*,*,#189,.F.);
#268=ORIENTED_EDGE('',*,*,#190,.T.);
#269=ORIENTED_EDGE('',*,*,#191,.T.);
#270=ORIENTED_EDGE('',*,*,#192,.T.);
#271=ORIENTED_EDGE('',*,*,#179,.T.);
#272=ORIENTED_EDGE('',*,*,#180,.T.);
#273=ORIENTED_EDGE('',*,*,#192,.F.);
#274=ORIENTED_EDGE('',*,*,#193,.F.);
#275=ORIENTED_EDGE('',*,*,#194,.F.);
#276=ORIENTED_EDGE('',*,*,#195,.T.);
#277=ORIENTED_EDGE('',*,*,#190,.F.);
#278=ORIENTED_EDGE('',*,*,#191,.F.);
#279=ORIENTED_EDGE('',*,*,#195,.F.);
#280=ORIENTED_EDGE('',*,*,#188,.T.);
#281=ORIENTED_EDGE('',*,*,#196,.T.);
#282=ORIENTED_EDGE('',*,*,#193,.T.);
#283=ORIENTED_EDGE('',*,*,#194,.T.);
#284=ORIENTED_EDGE('',*,*,#196,.F.);
#285=PLANE('',#328);
#286=PLANE('',#329);
#287=PLANE('',#331);
#288=PLANE('',#332);
#289=PLANE('',#334);
#290=PLANE('',#359);
#291=ADVANCED_FACE('',(#52),#285,.F.);
#292=ADVANCED_FACE('',(#53),#286,.F.);
#293=ADVANCED_FACE('',(#54),#287,.F.);
#294=ADVANCED_FACE('',(#55),#288,.F.);
#295=ADVANCED_FACE('',(#56,#26),#289,.T.);
#296=ADVANCED_FACE('',(#57),#19,.T.);
#297=ADVANCED_FACE('',(#58),#20,.T.);
#298=ADVANCED_FACE('',(#59),#18,.F.);
#299=ADVANCED_FACE('',(#60),#15,.T.);
#300=ADVANCED_FACE('',(#61),#21,.T.);
#301=ADVANCED_FACE('',(#62),#22,.F.);
#302=ADVANCED_FACE('',(#63),#16,.F.);
#303=ADVANCED_FACE('',(#64,#27),#290,.T.);
#304=ADVANCED_FACE('',(#65),#23,.F.);
#305=ADVANCED_FACE('',(#66),#24,.T.);
#306=ADVANCED_FACE('',(#67),#17,.T.);
#307=ADVANCED_FACE('',(#68),#25,.T.);
#308=CLOSED_SHELL('',(#291,#292,#293,#294,#295,#296,#297,#298,#299,#300,
#301,#302,#303,#304,#305,#306,#307));
#309=DERIVED_UNIT_ELEMENT(#311,1.);
#310=DERIVED_UNIT_ELEMENT(#573,-3.);
#311=(
MASS_UNIT()
NAMED_UNIT(*)
SI_UNIT($,.GRAM.)
);
#312=DERIVED_UNIT((#309,#310));
#313=MEASURE_REPRESENTATION_ITEM('density measure',
POSITIVE_RATIO_MEASURE(1.),#312);
#314=PROPERTY_DEFINITION_REPRESENTATION(#319,#316);
#315=PROPERTY_DEFINITION_REPRESENTATION(#320,#317);
#316=REPRESENTATION('material name',(#318),#570);
#317=REPRESENTATION('density',(#313),#570);
#318=DESCRIPTIVE_REPRESENTATION_ITEM('Generisch','Generisch');
#319=PROPERTY_DEFINITION('material property','material name',#580);
#320=PROPERTY_DEFINITION('material property','density of part',#580);
#321=DATE_TIME_ROLE('creation_date');
#322=APPLIED_DATE_AND_TIME_ASSIGNMENT(#323,#321,(#580));
#323=DATE_AND_TIME(#324,#325);
#324=CALENDAR_DATE(2021,21,6);
#325=LOCAL_TIME(0,0,0.,#326);
#326=COORDINATED_UNIVERSAL_TIME_OFFSET(0,0,.BEHIND.);
#327=AXIS2_PLACEMENT_3D('placement',#469,#369,#370);
#328=AXIS2_PLACEMENT_3D('',#470,#371,#372);
#329=AXIS2_PLACEMENT_3D('',#487,#377,#378);
#330=AXIS2_PLACEMENT_3D('',#488,#379,#380);
#331=AXIS2_PLACEMENT_3D('',#489,#381,#382);
#332=AXIS2_PLACEMENT_3D('',#506,#387,#388);
#333=AXIS2_PLACEMENT_3D('',#507,#389,#390);
#334=AXIS2_PLACEMENT_3D('',#508,#391,#392);
#335=AXIS2_PLACEMENT_3D('',#509,#393,#394);
#336=AXIS2_PLACEMENT_3D('',#510,#395,#396);
#337=AXIS2_PLACEMENT_3D('',#512,#397,#398);
#338=AXIS2_PLACEMENT_3D('',#513,#399,#400);
#339=AXIS2_PLACEMENT_3D('',#514,#401,#402);
#340=AXIS2_PLACEMENT_3D('',#515,#403,#404);
#341=AXIS2_PLACEMENT_3D('',#517,#405,#406);
#342=AXIS2_PLACEMENT_3D('',#518,#407,#408);
#343=AXIS2_PLACEMENT_3D('',#519,#409,#410);
#344=AXIS2_PLACEMENT_3D('',#522,#411,#412);
#345=AXIS2_PLACEMENT_3D('',#524,#413,#414);
#346=AXIS2_PLACEMENT_3D('',#526,#415,#416);
#347=AXIS2_PLACEMENT_3D('',#527,#417,#418);
#348=AXIS2_PLACEMENT_3D('',#528,#419,#420);
#349=AXIS2_PLACEMENT_3D('',#529,#421,#422);
#350=AXIS2_PLACEMENT_3D('',#531,#424,#425);
#351=AXIS2_PLACEMENT_3D('',#534,#426,#427);
#352=AXIS2_PLACEMENT_3D('',#535,#428,#429);
#353=AXIS2_PLACEMENT_3D('',#537,#431,#432);
#354=AXIS2_PLACEMENT_3D('',#539,#433,#434);
#355=AXIS2_PLACEMENT_3D('',#542,#436,#437);
#356=AXIS2_PLACEMENT_3D('',#543,#438,#439);
#357=AXIS2_PLACEMENT_3D('',#546,#440,#441);
#358=AXIS2_PLACEMENT_3D('',#547,#442,#443);
#359=AXIS2_PLACEMENT_3D('',#549,#445,#446);
#360=AXIS2_PLACEMENT_3D('',#551,#447,#448);
#361=AXIS2_PLACEMENT_3D('',#552,#449,#450);
#362=AXIS2_PLACEMENT_3D('',#554,#452,#453);
#363=AXIS2_PLACEMENT_3D('',#557,#454,#455);
#364=AXIS2_PLACEMENT_3D('',#558,#456,#457);
#365=AXIS2_PLACEMENT_3D('',#560,#459,#460);
#366=AXIS2_PLACEMENT_3D('',#563,#461,#462);
#367=AXIS2_PLACEMENT_3D('',#564,#463,#464);
#368=AXIS2_PLACEMENT_3D('',#566,#466,#467);
#369=DIRECTION('axis',(0.,0.,1.));
#370=DIRECTION('refdir',(1.,0.,0.));
#371=DIRECTION('center_axis',(0.,4.52574651986215E-16,-1.));
#372=DIRECTION('ref_axis',(0.,1.,4.52574651986215E-16));
#373=DIRECTION('',(-1.,0.,0.));
#374=DIRECTION('',(0.,1.,4.52574651986215E-16));
#375=DIRECTION('',(1.,0.,0.));
#376=DIRECTION('',(0.,1.,4.52574651986215E-16));
#377=DIRECTION('center_axis',(0.707106781186548,3.20018605412595E-16,-0.707106781186548));
#378=DIRECTION('ref_axis',(-0.707106781186548,-1.32556046573621E-16,-0.707106781186548));
#379=DIRECTION('center_axis',(0.707106781186548,3.20018605412595E-16,-0.707106781186548));
#380=DIRECTION('ref_axis',(0.707106781186548,0.,0.707106781186548));
#381=DIRECTION('center_axis',(0.,0.,1.));
#382=DIRECTION('ref_axis',(0.,-1.,0.));
#383=DIRECTION('',(-1.,0.,0.));
#384=DIRECTION('',(0.,-1.,0.));
#385=DIRECTION('',(1.,0.,0.));
#386=DIRECTION('',(0.,-1.,0.));
#387=DIRECTION('center_axis',(0.707106781186548,0.,0.707106781186548));
#388=DIRECTION('ref_axis',(0.707106781186548,0.,-0.707106781186548));
#389=DIRECTION('center_axis',(0.707106781186548,0.,0.707106781186548));
#390=DIRECTION('ref_axis',(-0.707106781186548,0.,0.707106781186548));
#391=DIRECTION('center_axis',(-1.,0.,0.));
#392=DIRECTION('ref_axis',(0.,0.,1.));
#393=DIRECTION('center_axis',(1.,0.,0.));
#394=DIRECTION('ref_axis',(0.,-1.,0.));
#395=DIRECTION('center_axis',(1.,0.,0.));
#396=DIRECTION('ref_axis',(0.,-1.,0.));
#397=DIRECTION('center_axis',(-1.,0.,0.));
#398=DIRECTION('ref_axis',(0.,0.,-1.));
#399=DIRECTION('center_axis',(1.,0.,0.));
#400=DIRECTION('ref_axis',(0.,1.,1.89882151931499E-15));
#401=DIRECTION('center_axis',(-1.,0.,0.));
#402=DIRECTION('ref_axis',(0.,-1.,0.));
#403=DIRECTION('center_axis',(1.,0.,0.));
#404=DIRECTION('ref_axis',(0.,-1.,0.));
#405=DIRECTION('center_axis',(-1.,0.,0.));
#406=DIRECTION('ref_axis',(0.,-1.,0.));
#407=DIRECTION('center_axis',(-1.,0.,0.));
#408=DIRECTION('ref_axis',(0.,-1.,0.));
#409=DIRECTION('center_axis',(1.,0.,0.));
#410=DIRECTION('ref_axis',(0.,0.,-1.));
#411=DIRECTION('center_axis',(1.,0.,0.));
#412=DIRECTION('ref_axis',(0.,-1.,1.83697019872103E-16));
#413=DIRECTION('center_axis',(0.,-1.,-1.22464679914735E-16));
#414=DIRECTION('ref_axis',(0.,-1.22464679914735E-16,1.));
#415=DIRECTION('center_axis',(-1.,0.,0.));
#416=DIRECTION('ref_axis',(0.,-1.,3.06161699786838E-17));
#417=DIRECTION('center_axis',(-1.,0.,0.));
#418=DIRECTION('ref_axis',(0.,-1.,3.06161699786838E-17));
#419=DIRECTION('center_axis',(1.,0.,0.));
#420=DIRECTION('ref_axis',(0.,-1.,1.83697019872103E-16));
#421=DIRECTION('center_axis',(1.,0.,0.));
#422=DIRECTION('ref_axis',(0.,1.,0.));
#423=DIRECTION('',(-1.,0.,0.));
#424=DIRECTION('center_axis',(1.,0.,0.));
#425=DIRECTION('ref_axis',(0.,1.,0.));
#426=DIRECTION('center_axis',(1.,0.,0.));
#427=DIRECTION('ref_axis',(0.,0.,-1.));
#428=DIRECTION('center_axis',(1.,0.,0.));
#429=DIRECTION('ref_axis',(0.,0.,-1.));
#430=DIRECTION('',(-0.661621637086846,0.749837855365093,9.18286529452376E-17));
#431=DIRECTION('center_axis',(1.,0.,0.));
#432=DIRECTION('ref_axis',(0.,0.,1.));
#433=DIRECTION('center_axis',(1.,0.,0.));
#434=DIRECTION('ref_axis',(0.,0.,1.));
#435=DIRECTION('',(-0.707106781186545,-8.65956056235497E-17,0.70710678118655));
#436=DIRECTION('center_axis',(-1.,0.,0.));
#437=DIRECTION('ref_axis',(0.,0.,1.));
#438=DIRECTION('center_axis',(-1.,0.,0.));
#439=DIRECTION('ref_axis',(0.,0.,1.));
#440=DIRECTION('center_axis',(1.,0.,0.));
#441=DIRECTION('ref_axis',(0.,0.,-1.));
#442=DIRECTION('center_axis',(1.,0.,0.));
#443=DIRECTION('ref_axis',(0.,0.,-1.));
#444=DIRECTION('',(1.,0.,0.));
#445=DIRECTION('center_axis',(1.,0.,0.));
#446=DIRECTION('ref_axis',(0.,0.,-1.));
#447=DIRECTION('center_axis',(-1.,0.,0.));
#448=DIRECTION('ref_axis',(0.,-1.,0.));
#449=DIRECTION('center_axis',(-1.,0.,0.));
#450=DIRECTION('ref_axis',(0.,0.,-1.));
#451=DIRECTION('',(0.707106781186546,-8.65956056235495E-17,-0.707106781186549));
#452=DIRECTION('center_axis',(1.,0.,0.));
#453=DIRECTION('ref_axis',(0.,-1.,0.));
#454=DIRECTION('center_axis',(-1.,0.,0.));
#455=DIRECTION('ref_axis',(0.,-1.,0.));
#456=DIRECTION('center_axis',(-1.,0.,0.));
#457=DIRECTION('ref_axis',(0.,-1.,0.));
#458=DIRECTION('',(-0.707106781186547,-0.707106781186547,-8.65956056235493E-17));
#459=DIRECTION('center_axis',(1.,0.,0.));
#460=DIRECTION('ref_axis',(0.,1.,0.));
#461=DIRECTION('center_axis',(1.,0.,0.));
#462=DIRECTION('ref_axis',(0.,-1.,0.));
#463=DIRECTION('center_axis',(1.,0.,0.));
#464=DIRECTION('ref_axis',(0.,-1.,0.));
#465=DIRECTION('',(-1.,0.,0.));
#466=DIRECTION('center_axis',(-1.,0.,0.));
#467=DIRECTION('ref_axis',(0.,-1.,0.));
#468=DIRECTION('',(-0.707106781186548,0.707106781186547,8.65956056235493E-17));
#469=CARTESIAN_POINT('',(0.,0.,0.));
#470=CARTESIAN_POINT('Origin',(-29.5,-27.3546079483832,14.5));
#471=CARTESIAN_POINT('',(-29.2,-5.4772255750516,14.5));
#472=CARTESIAN_POINT('',(-29.5,-4.55960524607112,14.5));
#473=CARTESIAN_POINT('Ctrl Pts',(-29.2,-5.4772255750516,14.5));
#474=CARTESIAN_POINT('Ctrl Pts',(-29.3637137958983,-5.01393192361201,14.5));
#475=CARTESIAN_POINT('Ctrl Pts',(-29.5,-4.55960524607112,14.5));
#476=CARTESIAN_POINT('',(-18.5,-5.47722557505161,14.5));
#477=CARTESIAN_POINT('',(-22.,-5.4772255750516,14.5));
#478=CARTESIAN_POINT('',(-18.5,5.4772255750516,14.5));
#479=CARTESIAN_POINT('',(-18.5,26.6141824700811,14.5));
#480=CARTESIAN_POINT('',(-29.2,5.47722557505159,14.5));
#481=CARTESIAN_POINT('',(-22.,5.47722557505159,14.5));
#482=CARTESIAN_POINT('',(-29.5,4.55960524607111,14.5));
#483=CARTESIAN_POINT('Ctrl Pts',(-29.5,4.55960524607111,14.5));
#484=CARTESIAN_POINT('Ctrl Pts',(-29.3637137958983,5.013931923612,14.5));
#485=CARTESIAN_POINT('Ctrl Pts',(-29.2,5.47722557505159,14.5));
#486=CARTESIAN_POINT('',(-29.5,-5.9273039741916,14.5));
#487=CARTESIAN_POINT('Origin',(-14.2242606975912,-0.370212739151044,18.7757393024089));
#488=CARTESIAN_POINT('Origin',(-33.,0.,0.));
#489=CARTESIAN_POINT('Origin',(-29.5,26.6141824700811,-14.5));
#490=CARTESIAN_POINT('',(-29.2,5.47722557505163,-14.5));
#491=CARTESIAN_POINT('',(-29.5,4.55960524607116,-14.5));
#492=CARTESIAN_POINT('Ctrl Pts',(-29.2,5.47722557505162,-14.5));
#493=CARTESIAN_POINT('Ctrl Pts',(-29.3637137958983,5.01393192361198,-14.5));
#494=CARTESIAN_POINT('Ctrl Pts',(-29.5,4.55960524607116,-14.5));
#495=CARTESIAN_POINT('',(-18.5,5.47722557505163,-14.5));
#496=CARTESIAN_POINT('',(-22.,5.47722557505163,-14.5));
#497=CARTESIAN_POINT('',(-18.5,-5.47722557505163,-14.5));
#498=CARTESIAN_POINT('',(-18.5,-27.3546079483832,-14.5));
#499=CARTESIAN_POINT('',(-29.2,-5.47722557505163,-14.5));
#500=CARTESIAN_POINT('',(-22.,-5.47722557505163,-14.5));
#501=CARTESIAN_POINT('',(-29.5,-4.55960524607116,-14.5));
#502=CARTESIAN_POINT('Ctrl Pts',(-29.5,-4.55960524607116,-14.5));
#503=CARTESIAN_POINT('Ctrl Pts',(-29.3637137958983,-5.01393192361198,-14.5));
#504=CARTESIAN_POINT('Ctrl Pts',(-29.2,-5.47722557505162,-14.5));
#505=CARTESIAN_POINT('',(-29.5,21.0570912350405,-14.5));
#506=CARTESIAN_POINT('Origin',(-12.4936043132828,-0.370212739151046,-20.5063956867172));
#507=CARTESIAN_POINT('Origin',(-33.,0.,0.));
#508=CARTESIAN_POINT('Origin',(-29.5,15.5,0.));
#509=CARTESIAN_POINT('Origin',(-29.5,0.,0.));
#510=CARTESIAN_POINT('Origin',(-29.5,0.,0.));
#511=CARTESIAN_POINT('',(-29.5,1.66043736262394E-15,13.5585));
#512=CARTESIAN_POINT('Origin',(-29.5,0.,0.));
#513=CARTESIAN_POINT('Origin',(-29.35,0.,0.));
#514=CARTESIAN_POINT('Origin',(-29.2,0.,0.));
#515=CARTESIAN_POINT('Origin',(-29.35,0.,0.));
#516=CARTESIAN_POINT('',(-29.2,-15.5,-1.8982025386784E-15));
#517=CARTESIAN_POINT('Origin',(-29.2,0.,0.));
#518=CARTESIAN_POINT('Origin',(-29.2,0.,0.));
#519=CARTESIAN_POINT('Origin',(-14.7256343558091,0.,0.));
#520=CARTESIAN_POINT('',(-14.7256343558091,-15.5,-1.8982025386784E-15));
#521=CARTESIAN_POINT('',(-14.7256343558091,-1.8982025386784E-15,15.5));
#522=CARTESIAN_POINT('Origin',(-14.7256343558091,0.,0.));
#523=CARTESIAN_POINT('',(-14.3507154281266,-1.91892223763051E-15,15.6691891814566));
#524=CARTESIAN_POINT('Origin',(-14.7256343558091,-1.95943487863576E-15,
16.));
#525=CARTESIAN_POINT('',(-14.3507154281266,-15.6691891814566,-1.91892223763051E-15));
#526=CARTESIAN_POINT('Origin',(-14.3507154281266,0.,-2.39865279703814E-15));
#527=CARTESIAN_POINT('Origin',(-14.3507154281266,0.,-2.39865279703814E-15));
#528=CARTESIAN_POINT('Origin',(-14.7256343558091,0.,0.));
#529=CARTESIAN_POINT('Origin',(-22.,0.,0.));
#530=CARTESIAN_POINT('',(-22.,-15.5,-1.8982025386784E-15));
#531=CARTESIAN_POINT('Origin',(-13.,0.,0.));
#532=CARTESIAN_POINT('',(-11.5,18.9,0.));
#533=CARTESIAN_POINT('',(-11.5,-18.9,-2.3145824503885E-15));
#534=CARTESIAN_POINT('Origin',(-11.5,0.,0.));
#535=CARTESIAN_POINT('Origin',(-11.5,0.,0.));
#536=CARTESIAN_POINT('',(-13.,-17.2,-2.10639249453345E-15));
#537=CARTESIAN_POINT('Origin',(-0.149999999999999,0.,0.));
#538=CARTESIAN_POINT('',(0.,1.51347974672626E-15,-12.3585));
#539=CARTESIAN_POINT('Origin',(0.,0.,0.));
#540=CARTESIAN_POINT('',(-0.299999999999998,-1.47674034275184E-15,-12.0585));
#541=CARTESIAN_POINT('',(-0.149999999999999,1.49511004473905E-15,-12.2085));
#542=CARTESIAN_POINT('Origin',(-0.299999999999998,0.,0.));
#543=CARTESIAN_POINT('Origin',(36.5661032602953,0.,0.));
#544=CARTESIAN_POINT('',(-28.,-1.47674034275184E-15,12.0585));
#545=CARTESIAN_POINT('',(-28.,-1.47674034275184E-15,-12.0585));
#546=CARTESIAN_POINT('Origin',(-28.,0.,0.));
#547=CARTESIAN_POINT('Origin',(-28.,0.,0.));
#548=CARTESIAN_POINT('',(36.5661032602953,-1.47674034275184E-15,-12.0585));
#549=CARTESIAN_POINT('Origin',(0.,0.,0.));
#550=CARTESIAN_POINT('',(0.,18.9,-2.3145824503885E-15));
#551=CARTESIAN_POINT('Origin',(0.,0.,0.));
#552=CARTESIAN_POINT('Origin',(-28.75,0.,0.));
#553=CARTESIAN_POINT('',(-28.75,1.56858885268789E-15,12.8085));
#554=CARTESIAN_POINT('Origin',(-10.5,0.,0.));
#555=CARTESIAN_POINT('',(-9.5,20.9,-2.55951181021797E-15));
#556=CARTESIAN_POINT('',(-9.5,-20.9,-2.55951181021797E-15));
#557=CARTESIAN_POINT('Origin',(-9.5,0.,0.));
#558=CARTESIAN_POINT('Origin',(-9.5,0.,0.));
#559=CARTESIAN_POINT('',(-10.5,19.9,2.43704713030323E-15));
#560=CARTESIAN_POINT('Origin',(-5.75,0.,0.));
#561=CARTESIAN_POINT('',(-2.,20.9,2.55951181021797E-15));
#562=CARTESIAN_POINT('',(-2.,-20.9,-2.55951181021797E-15));
#563=CARTESIAN_POINT('Origin',(-2.,0.,0.));
#564=CARTESIAN_POINT('Origin',(-2.,0.,0.));
#565=CARTESIAN_POINT('',(-5.75,-20.9,-2.55951181021797E-15));
#566=CARTESIAN_POINT('Origin',(-1.,0.,0.));
#567=CARTESIAN_POINT('',(-1.,19.9,2.43704713030323E-15));
#568=UNCERTAINTY_MEASURE_WITH_UNIT(LENGTH_MEASURE(0.01),#572,
'DISTANCE_ACCURACY_VALUE',
'Maximum model space distance between geometric entities at asserted c
onnectivities');
#569=UNCERTAINTY_MEASURE_WITH_UNIT(LENGTH_MEASURE(0.01),#572,
'DISTANCE_ACCURACY_VALUE',
'Maximum model space distance between geometric entities at asserted c
onnectivities');
#570=(
GEOMETRIC_REPRESENTATION_CONTEXT(3)
GLOBAL_UNCERTAINTY_ASSIGNED_CONTEXT((#568))
GLOBAL_UNIT_ASSIGNED_CONTEXT((#572,#574,#575))
REPRESENTATION_CONTEXT('','3D')
);
#571=(
GEOMETRIC_REPRESENTATION_CONTEXT(3)
GLOBAL_UNCERTAINTY_ASSIGNED_CONTEXT((#569))
GLOBAL_UNIT_ASSIGNED_CONTEXT((#572,#574,#575))
REPRESENTATION_CONTEXT('','3D')
);
#572=(
LENGTH_UNIT()
NAMED_UNIT(*)
SI_UNIT(.MILLI.,.METRE.)
);
#573=(
LENGTH_UNIT()
NAMED_UNIT(*)
SI_UNIT(.CENTI.,.METRE.)
);
#574=(
NAMED_UNIT(*)
PLANE_ANGLE_UNIT()
SI_UNIT($,.RADIAN.)
);
#575=(
NAMED_UNIT(*)
SI_UNIT($,.STERADIAN.)
SOLID_ANGLE_UNIT()
);
#576=SHAPE_DEFINITION_REPRESENTATION(#577,#578);
#577=PRODUCT_DEFINITION_SHAPE('',$,#580);
#578=SHAPE_REPRESENTATION('',(#327),#570);
#579=PRODUCT_DEFINITION_CONTEXT('part definition',#584,'design');
#580=PRODUCT_DEFINITION('3D_R666-G-DN20-DN32_17113530',
'3D_R666-G-DN20-DN32_17113530',#581,#579);
#581=PRODUCT_DEFINITION_FORMATION('',$,#586);
#582=PRODUCT_RELATED_PRODUCT_CATEGORY('3D_R666-G-DN20-DN32_17113530',
'3D_R666-G-DN20-DN32_17113530',(#586));
#583=APPLICATION_PROTOCOL_DEFINITION('international standard',
'automotive_design',2009,#584);
#584=APPLICATION_CONTEXT(
'Core Data for Automotive Mechanical Design Process');
#585=PRODUCT_CONTEXT('part definition',#584,'mechanical');
#586=PRODUCT('3D_R666-G-DN20-DN32_17113530',
'3D_R666-G-DN20-DN32_17113530',$,(#585));
#587=PRESENTATION_STYLE_ASSIGNMENT((#588));
#588=SURFACE_STYLE_USAGE(.BOTH.,#591);
#589=SURFACE_STYLE_RENDERING_WITH_PROPERTIES($,#595,(#590));
#590=SURFACE_STYLE_TRANSPARENT(0.);
#591=SURFACE_SIDE_STYLE('',(#592,#589));
#592=SURFACE_STYLE_FILL_AREA(#593);
#593=FILL_AREA_STYLE('',(#594));
#594=FILL_AREA_STYLE_COLOUR('',#595);
#595=COLOUR_RGB('',0.749019607843137,0.749019607843137,0.749019607843137);
ENDSEC;
END-ISO-10303-21;
