ISO-10303-21;
HEADER;
/* Generated by software containing ST-Developer
 * from STEP Tools, Inc. (www.steptools.com) 
 */

FILE_DESCRIPTION(
/* description */ ('GK_48,3x2_Fl64'),
/* implementation_level */ '2;1');

FILE_NAME(
/* name */ 'GK_48,3x2_Fl64.stp',
/* time_stamp */ '2014-08-29T11:53:03+02:00',
/* author */ ('DOCKWEILER AG'),
/* organization */ ('DOCKWEILER AG'),
/* preprocessor_version */ 'ST-DEVELOPER v15.6',
/* originating_system */ 'Autodesk Inventor 2015',
/* authorisation */ '');

FILE_SCHEMA (('CONFIG_CONTROL_DESIGN'));
ENDSEC;

DATA;
#10=MECHANICAL_DESIGN_GEOMETRIC_PRESENTATION_REPRESENTATION('',(#13),#383);
#11=SHAPE_REPRESENTATION_RELATIONSHIP('SRR','None',#392,#12);
#12=ADVANCED_BREP_SHAPE_REPRESENTATION($,(#14),#382);
#13=STYLED_ITEM('',(#401),#14);
#14=MANIFOLD_SOLID_BREP('Volumenk\X\F6rper1',#213);
#15=CYLINDRICAL_SURFACE('',#220,27.05);
#16=CYLINDRICAL_SURFACE('',#224,29.45);
#17=CYLINDRICAL_SURFACE('',#230,33.1);
#18=CYLINDRICAL_SURFACE('',#234,32.);
#19=CYLINDRICAL_SURFACE('',#240,29.45);
#20=CYLINDRICAL_SURFACE('',#244,27.05);
#21=CYLINDRICAL_SURFACE('',#250,22.25);
#22=TOROIDAL_SURFACE('',#218,26.65,0.4);
#23=TOROIDAL_SURFACE('',#222,28.25,1.20000000000001);
#24=TOROIDAL_SURFACE('',#226,29.85,0.399999999999998);
#25=TOROIDAL_SURFACE('',#238,29.85,0.399999999999997);
#26=TOROIDAL_SURFACE('',#242,28.25,1.20000000000001);
#27=TOROIDAL_SURFACE('',#246,26.65,0.4);
#28=FACE_BOUND('',#65,.T.);
#29=FACE_BOUND('',#67,.T.);
#30=FACE_BOUND('',#69,.T.);
#31=FACE_BOUND('',#71,.T.);
#32=FACE_BOUND('',#73,.T.);
#33=FACE_BOUND('',#75,.T.);
#34=FACE_BOUND('',#77,.T.);
#35=FACE_BOUND('',#79,.T.);
#36=FACE_BOUND('',#81,.T.);
#37=FACE_BOUND('',#83,.T.);
#38=FACE_BOUND('',#85,.T.);
#39=FACE_BOUND('',#87,.T.);
#40=FACE_BOUND('',#89,.T.);
#41=FACE_BOUND('',#91,.T.);
#42=FACE_BOUND('',#93,.T.);
#43=FACE_BOUND('',#95,.T.);
#44=FACE_BOUND('',#97,.T.);
#45=FACE_BOUND('',#99,.T.);
#46=FACE_OUTER_BOUND('',#64,.T.);
#47=FACE_OUTER_BOUND('',#66,.T.);
#48=FACE_OUTER_BOUND('',#68,.T.);
#49=FACE_OUTER_BOUND('',#70,.T.);
#50=FACE_OUTER_BOUND('',#72,.T.);
#51=FACE_OUTER_BOUND('',#74,.T.);
#52=FACE_OUTER_BOUND('',#76,.T.);
#53=FACE_OUTER_BOUND('',#78,.T.);
#54=FACE_OUTER_BOUND('',#80,.T.);
#55=FACE_OUTER_BOUND('',#82,.T.);
#56=FACE_OUTER_BOUND('',#84,.T.);
#57=FACE_OUTER_BOUND('',#86,.T.);
#58=FACE_OUTER_BOUND('',#88,.T.);
#59=FACE_OUTER_BOUND('',#90,.T.);
#60=FACE_OUTER_BOUND('',#92,.T.);
#61=FACE_OUTER_BOUND('',#94,.T.);
#62=FACE_OUTER_BOUND('',#96,.T.);
#63=FACE_OUTER_BOUND('',#98,.T.);
#64=EDGE_LOOP('',(#154));
#65=EDGE_LOOP('',(#155));
#66=EDGE_LOOP('',(#156));
#67=EDGE_LOOP('',(#157));
#68=EDGE_LOOP('',(#158));
#69=EDGE_LOOP('',(#159));
#70=EDGE_LOOP('',(#160));
#71=EDGE_LOOP('',(#161));
#72=EDGE_LOOP('',(#162));
#73=EDGE_LOOP('',(#163));
#74=EDGE_LOOP('',(#164));
#75=EDGE_LOOP('',(#165));
#76=EDGE_LOOP('',(#166));
#77=EDGE_LOOP('',(#167));
#78=EDGE_LOOP('',(#168));
#79=EDGE_LOOP('',(#169));
#80=EDGE_LOOP('',(#170));
#81=EDGE_LOOP('',(#171));
#82=EDGE_LOOP('',(#172));
#83=EDGE_LOOP('',(#173));
#84=EDGE_LOOP('',(#174));
#85=EDGE_LOOP('',(#175));
#86=EDGE_LOOP('',(#176));
#87=EDGE_LOOP('',(#177));
#88=EDGE_LOOP('',(#178));
#89=EDGE_LOOP('',(#179));
#90=EDGE_LOOP('',(#180));
#91=EDGE_LOOP('',(#181));
#92=EDGE_LOOP('',(#182));
#93=EDGE_LOOP('',(#183));
#94=EDGE_LOOP('',(#184));
#95=EDGE_LOOP('',(#185));
#96=EDGE_LOOP('',(#186));
#97=EDGE_LOOP('',(#187));
#98=EDGE_LOOP('',(#188));
#99=EDGE_LOOP('',(#189));
#100=CIRCLE('',#216,26.65);
#101=CIRCLE('',#217,22.25);
#102=CIRCLE('',#219,27.05);
#103=CIRCLE('',#221,27.05);
#104=CIRCLE('',#223,29.45);
#105=CIRCLE('',#225,29.45);
#106=CIRCLE('',#227,29.85);
#107=CIRCLE('',#229,33.1);
#108=CIRCLE('',#231,33.1);
#109=CIRCLE('',#233,32.);
#110=CIRCLE('',#235,32.);
#111=CIRCLE('',#237,29.85);
#112=CIRCLE('',#239,29.45);
#113=CIRCLE('',#241,29.45);
#114=CIRCLE('',#243,27.05);
#115=CIRCLE('',#245,27.05);
#116=CIRCLE('',#247,26.65);
#117=CIRCLE('',#249,22.25);
#118=VERTEX_POINT('',#327);
#119=VERTEX_POINT('',#329);
#120=VERTEX_POINT('',#332);
#121=VERTEX_POINT('',#335);
#122=VERTEX_POINT('',#338);
#123=VERTEX_POINT('',#341);
#124=VERTEX_POINT('',#344);
#125=VERTEX_POINT('',#347);
#126=VERTEX_POINT('',#350);
#127=VERTEX_POINT('',#353);
#128=VERTEX_POINT('',#356);
#129=VERTEX_POINT('',#359);
#130=VERTEX_POINT('',#362);
#131=VERTEX_POINT('',#365);
#132=VERTEX_POINT('',#368);
#133=VERTEX_POINT('',#371);
#134=VERTEX_POINT('',#374);
#135=VERTEX_POINT('',#377);
#136=EDGE_CURVE('',#118,#118,#100,.T.);
#137=EDGE_CURVE('',#119,#119,#101,.T.);
#138=EDGE_CURVE('',#120,#120,#102,.T.);
#139=EDGE_CURVE('',#121,#121,#103,.T.);
#140=EDGE_CURVE('',#122,#122,#104,.T.);
#141=EDGE_CURVE('',#123,#123,#105,.T.);
#142=EDGE_CURVE('',#124,#124,#106,.T.);
#143=EDGE_CURVE('',#125,#125,#107,.T.);
#144=EDGE_CURVE('',#126,#126,#108,.T.);
#145=EDGE_CURVE('',#127,#127,#109,.T.);
#146=EDGE_CURVE('',#128,#128,#110,.T.);
#147=EDGE_CURVE('',#129,#129,#111,.T.);
#148=EDGE_CURVE('',#130,#130,#112,.T.);
#149=EDGE_CURVE('',#131,#131,#113,.T.);
#150=EDGE_CURVE('',#132,#132,#114,.T.);
#151=EDGE_CURVE('',#133,#133,#115,.T.);
#152=EDGE_CURVE('',#134,#134,#116,.T.);
#153=EDGE_CURVE('',#135,#135,#117,.T.);
#154=ORIENTED_EDGE('',*,*,#136,.F.);
#155=ORIENTED_EDGE('',*,*,#137,.T.);
#156=ORIENTED_EDGE('',*,*,#138,.F.);
#157=ORIENTED_EDGE('',*,*,#136,.T.);
#158=ORIENTED_EDGE('',*,*,#139,.F.);
#159=ORIENTED_EDGE('',*,*,#138,.T.);
#160=ORIENTED_EDGE('',*,*,#140,.F.);
#161=ORIENTED_EDGE('',*,*,#139,.T.);
#162=ORIENTED_EDGE('',*,*,#141,.F.);
#163=ORIENTED_EDGE('',*,*,#140,.T.);
#164=ORIENTED_EDGE('',*,*,#142,.F.);
#165=ORIENTED_EDGE('',*,*,#141,.T.);
#166=ORIENTED_EDGE('',*,*,#143,.F.);
#167=ORIENTED_EDGE('',*,*,#142,.T.);
#168=ORIENTED_EDGE('',*,*,#144,.F.);
#169=ORIENTED_EDGE('',*,*,#143,.T.);
#170=ORIENTED_EDGE('',*,*,#144,.T.);
#171=ORIENTED_EDGE('',*,*,#145,.F.);
#172=ORIENTED_EDGE('',*,*,#146,.F.);
#173=ORIENTED_EDGE('',*,*,#145,.T.);
#174=ORIENTED_EDGE('',*,*,#146,.T.);
#175=ORIENTED_EDGE('',*,*,#147,.F.);
#176=ORIENTED_EDGE('',*,*,#148,.F.);
#177=ORIENTED_EDGE('',*,*,#147,.T.);
#178=ORIENTED_EDGE('',*,*,#149,.F.);
#179=ORIENTED_EDGE('',*,*,#148,.T.);
#180=ORIENTED_EDGE('',*,*,#150,.F.);
#181=ORIENTED_EDGE('',*,*,#149,.T.);
#182=ORIENTED_EDGE('',*,*,#151,.F.);
#183=ORIENTED_EDGE('',*,*,#150,.T.);
#184=ORIENTED_EDGE('',*,*,#152,.F.);
#185=ORIENTED_EDGE('',*,*,#151,.T.);
#186=ORIENTED_EDGE('',*,*,#152,.T.);
#187=ORIENTED_EDGE('',*,*,#153,.F.);
#188=ORIENTED_EDGE('',*,*,#137,.F.);
#189=ORIENTED_EDGE('',*,*,#153,.T.);
#190=PLANE('',#215);
#191=PLANE('',#228);
#192=PLANE('',#232);
#193=PLANE('',#236);
#194=PLANE('',#248);
#195=ADVANCED_FACE('',(#46,#28),#190,.T.);
#196=ADVANCED_FACE('',(#47,#29),#22,.F.);
#197=ADVANCED_FACE('',(#48,#30),#15,.F.);
#198=ADVANCED_FACE('',(#49,#31),#23,.T.);
#199=ADVANCED_FACE('',(#50,#32),#16,.T.);
#200=ADVANCED_FACE('',(#51,#33),#24,.F.);
#201=ADVANCED_FACE('',(#52,#34),#191,.T.);
#202=ADVANCED_FACE('',(#53,#35),#17,.T.);
#203=ADVANCED_FACE('',(#54,#36),#192,.T.);
#204=ADVANCED_FACE('',(#55,#37),#18,.F.);
#205=ADVANCED_FACE('',(#56,#38),#193,.T.);
#206=ADVANCED_FACE('',(#57,#39),#25,.F.);
#207=ADVANCED_FACE('',(#58,#40),#19,.T.);
#208=ADVANCED_FACE('',(#59,#41),#26,.T.);
#209=ADVANCED_FACE('',(#60,#42),#20,.F.);
#210=ADVANCED_FACE('',(#61,#43),#27,.F.);
#211=ADVANCED_FACE('',(#62,#44),#194,.T.);
#212=ADVANCED_FACE('',(#63,#45),#21,.F.);
#213=CLOSED_SHELL('',(#195,#196,#197,#198,#199,#200,#201,#202,#203,#204,
#205,#206,#207,#208,#209,#210,#211,#212));
#214=AXIS2_PLACEMENT_3D('placement',#325,#251,#252);
#215=AXIS2_PLACEMENT_3D('',#326,#253,#254);
#216=AXIS2_PLACEMENT_3D('',#328,#255,#256);
#217=AXIS2_PLACEMENT_3D('',#330,#257,#258);
#218=AXIS2_PLACEMENT_3D('',#331,#259,#260);
#219=AXIS2_PLACEMENT_3D('',#333,#261,#262);
#220=AXIS2_PLACEMENT_3D('',#334,#263,#264);
#221=AXIS2_PLACEMENT_3D('',#336,#265,#266);
#222=AXIS2_PLACEMENT_3D('',#337,#267,#268);
#223=AXIS2_PLACEMENT_3D('',#339,#269,#270);
#224=AXIS2_PLACEMENT_3D('',#340,#271,#272);
#225=AXIS2_PLACEMENT_3D('',#342,#273,#274);
#226=AXIS2_PLACEMENT_3D('',#343,#275,#276);
#227=AXIS2_PLACEMENT_3D('',#345,#277,#278);
#228=AXIS2_PLACEMENT_3D('',#346,#279,#280);
#229=AXIS2_PLACEMENT_3D('',#348,#281,#282);
#230=AXIS2_PLACEMENT_3D('',#349,#283,#284);
#231=AXIS2_PLACEMENT_3D('',#351,#285,#286);
#232=AXIS2_PLACEMENT_3D('',#352,#287,#288);
#233=AXIS2_PLACEMENT_3D('',#354,#289,#290);
#234=AXIS2_PLACEMENT_3D('',#355,#291,#292);
#235=AXIS2_PLACEMENT_3D('',#357,#293,#294);
#236=AXIS2_PLACEMENT_3D('',#358,#295,#296);
#237=AXIS2_PLACEMENT_3D('',#360,#297,#298);
#238=AXIS2_PLACEMENT_3D('',#361,#299,#300);
#239=AXIS2_PLACEMENT_3D('',#363,#301,#302);
#240=AXIS2_PLACEMENT_3D('',#364,#303,#304);
#241=AXIS2_PLACEMENT_3D('',#366,#305,#306);
#242=AXIS2_PLACEMENT_3D('',#367,#307,#308);
#243=AXIS2_PLACEMENT_3D('',#369,#309,#310);
#244=AXIS2_PLACEMENT_3D('',#370,#311,#312);
#245=AXIS2_PLACEMENT_3D('',#372,#313,#314);
#246=AXIS2_PLACEMENT_3D('',#373,#315,#316);
#247=AXIS2_PLACEMENT_3D('',#375,#317,#318);
#248=AXIS2_PLACEMENT_3D('',#376,#319,#320);
#249=AXIS2_PLACEMENT_3D('',#378,#321,#322);
#250=AXIS2_PLACEMENT_3D('',#379,#323,#324);
#251=DIRECTION('axis',(0.,0.,1.));
#252=DIRECTION('refdir',(1.,0.,0.));
#253=DIRECTION('center_axis',(-2.44929359829471E-16,1.,0.));
#254=DIRECTION('ref_axis',(0.,0.,1.));
#255=DIRECTION('center_axis',(2.44929359829471E-16,-1.,0.));
#256=DIRECTION('ref_axis',(1.,2.49488320140485E-16,0.));
#257=DIRECTION('center_axis',(2.44929359829471E-16,-1.,0.));
#258=DIRECTION('ref_axis',(1.,2.49488320140485E-16,0.));
#259=DIRECTION('center_axis',(2.44929359829471E-16,-1.,0.));
#260=DIRECTION('ref_axis',(0.,0.,-1.));
#261=DIRECTION('center_axis',(2.44929359829471E-16,-1.,0.));
#262=DIRECTION('ref_axis',(1.,2.49488320140485E-16,0.));
#263=DIRECTION('center_axis',(2.44929359829471E-16,-1.,0.));
#264=DIRECTION('ref_axis',(1.,2.49488320140485E-16,0.));
#265=DIRECTION('center_axis',(2.44929359829471E-16,-1.,0.));
#266=DIRECTION('ref_axis',(1.,2.49488320140485E-16,0.));
#267=DIRECTION('center_axis',(2.44929359829471E-16,-1.,0.));
#268=DIRECTION('ref_axis',(0.,0.,-1.));
#269=DIRECTION('center_axis',(2.44929359829471E-16,-1.,0.));
#270=DIRECTION('ref_axis',(1.,2.49488320140485E-16,0.));
#271=DIRECTION('center_axis',(2.44929359829471E-16,-1.,0.));
#272=DIRECTION('ref_axis',(1.,2.49488320140485E-16,0.));
#273=DIRECTION('center_axis',(2.44929359829471E-16,-1.,0.));
#274=DIRECTION('ref_axis',(1.,2.49488320140485E-16,0.));
#275=DIRECTION('center_axis',(2.44929359829471E-16,-1.,0.));
#276=DIRECTION('ref_axis',(0.,0.,-1.));
#277=DIRECTION('center_axis',(2.44929359829471E-16,-1.,0.));
#278=DIRECTION('ref_axis',(1.,2.49488320140485E-16,0.));
#279=DIRECTION('center_axis',(-2.44929359829471E-16,1.,0.));
#280=DIRECTION('ref_axis',(0.,0.,1.));
#281=DIRECTION('center_axis',(2.44929359829471E-16,-1.,0.));
#282=DIRECTION('ref_axis',(1.,2.49488320140485E-16,0.));
#283=DIRECTION('center_axis',(2.44929359829471E-16,-1.,0.));
#284=DIRECTION('ref_axis',(1.,2.49488320140485E-16,0.));
#285=DIRECTION('center_axis',(2.44929359829471E-16,-1.,0.));
#286=DIRECTION('ref_axis',(1.,2.49488320140485E-16,0.));
#287=DIRECTION('center_axis',(2.44929359829471E-16,-1.,0.));
#288=DIRECTION('ref_axis',(0.,0.,-1.));
#289=DIRECTION('center_axis',(2.44929359829471E-16,-1.,0.));
#290=DIRECTION('ref_axis',(1.,2.49488320140485E-16,0.));
#291=DIRECTION('center_axis',(2.44929359829471E-16,-1.,0.));
#292=DIRECTION('ref_axis',(1.,2.49488320140485E-16,0.));
#293=DIRECTION('center_axis',(2.44929359829471E-16,-1.,0.));
#294=DIRECTION('ref_axis',(1.,2.49488320140485E-16,0.));
#295=DIRECTION('center_axis',(2.44929359829471E-16,-1.,0.));
#296=DIRECTION('ref_axis',(0.,0.,-1.));
#297=DIRECTION('center_axis',(2.44929359829471E-16,-1.,0.));
#298=DIRECTION('ref_axis',(1.,2.49488320140485E-16,0.));
#299=DIRECTION('center_axis',(2.44929359829471E-16,-1.,0.));
#300=DIRECTION('ref_axis',(0.,0.,-1.));
#301=DIRECTION('center_axis',(2.44929359829471E-16,-1.,0.));
#302=DIRECTION('ref_axis',(1.,2.49488320140485E-16,0.));
#303=DIRECTION('center_axis',(2.44929359829471E-16,-1.,0.));
#304=DIRECTION('ref_axis',(1.,2.49488320140485E-16,0.));
#305=DIRECTION('center_axis',(2.44929359829471E-16,-1.,0.));
#306=DIRECTION('ref_axis',(1.,2.49488320140485E-16,0.));
#307=DIRECTION('center_axis',(2.44929359829471E-16,-1.,0.));
#308=DIRECTION('ref_axis',(0.,0.,-1.));
#309=DIRECTION('center_axis',(2.44929359829471E-16,-1.,0.));
#310=DIRECTION('ref_axis',(1.,2.49488320140485E-16,0.));
#311=DIRECTION('center_axis',(2.44929359829471E-16,-1.,0.));
#312=DIRECTION('ref_axis',(1.,2.49488320140485E-16,0.));
#313=DIRECTION('center_axis',(2.44929359829471E-16,-1.,0.));
#314=DIRECTION('ref_axis',(1.,2.49488320140485E-16,0.));
#315=DIRECTION('center_axis',(2.44929359829471E-16,-1.,0.));
#316=DIRECTION('ref_axis',(0.,0.,-1.));
#317=DIRECTION('center_axis',(2.44929359829471E-16,-1.,0.));
#318=DIRECTION('ref_axis',(1.,2.49488320140485E-16,0.));
#319=DIRECTION('center_axis',(2.44929359829471E-16,-1.,0.));
#320=DIRECTION('ref_axis',(0.,0.,-1.));
#321=DIRECTION('center_axis',(2.44929359829471E-16,-1.,0.));
#322=DIRECTION('ref_axis',(1.,2.49488320140485E-16,0.));
#323=DIRECTION('center_axis',(2.44929359829471E-16,-1.,0.));
#324=DIRECTION('ref_axis',(1.,2.49488320140485E-16,0.));
#325=CARTESIAN_POINT('',(0.,0.,0.));
#326=CARTESIAN_POINT('Origin',(24.45,2.1,0.));
#327=CARTESIAN_POINT('',(26.65,2.09999999999999,0.));
#328=CARTESIAN_POINT('Origin',(-5.14351655641885E-16,2.09999999999999,0.));
#329=CARTESIAN_POINT('',(22.25,2.1,0.));
#330=CARTESIAN_POINT('Origin',(-5.14351655641886E-16,2.09999999999999,0.));
#331=CARTESIAN_POINT('Origin',(0.,2.49999999999999,0.));
#332=CARTESIAN_POINT('',(27.05,2.5,0.));
#333=CARTESIAN_POINT('Origin',(-6.12323399573675E-16,2.49999999999999,0.));
#334=CARTESIAN_POINT('Origin',(-6.24569867565149E-16,2.55,0.));
#335=CARTESIAN_POINT('',(27.05,2.60000000000001,0.));
#336=CARTESIAN_POINT('Origin',(-6.36816335556624E-16,2.6,0.));
#337=CARTESIAN_POINT('Origin',(0.,2.6,0.));
#338=CARTESIAN_POINT('',(29.45,2.60000000000001,0.));
#339=CARTESIAN_POINT('Origin',(-6.36816335556623E-16,2.6,0.));
#340=CARTESIAN_POINT('Origin',(-6.00076931582202E-16,2.45,0.));
#341=CARTESIAN_POINT('',(29.45,2.3,0.));
#342=CARTESIAN_POINT('Origin',(-5.6333752760778E-16,2.29999999999999,0.));
#343=CARTESIAN_POINT('Origin',(0.,2.29999999999999,0.));
#344=CARTESIAN_POINT('',(29.85,1.9,0.));
#345=CARTESIAN_POINT('Origin',(-4.65365783675992E-16,1.89999999999999,0.));
#346=CARTESIAN_POINT('Origin',(31.475,1.9,0.));
#347=CARTESIAN_POINT('',(33.1,1.9,0.));
#348=CARTESIAN_POINT('Origin',(-4.65365783675992E-16,1.89999999999999,0.));
#349=CARTESIAN_POINT('Origin',(8.57252759403168E-17,-0.350000000000008,
0.));
#350=CARTESIAN_POINT('',(33.1,-2.6,0.));
#351=CARTESIAN_POINT('Origin',(6.36816335556625E-16,-2.60000000000001,0.));
#352=CARTESIAN_POINT('Origin',(32.55,-2.6,0.));
#353=CARTESIAN_POINT('',(32.,-2.6,0.));
#354=CARTESIAN_POINT('Origin',(6.36816335556625E-16,-2.60000000000001,0.));
#355=CARTESIAN_POINT('Origin',(2.93915231795367E-16,-1.20000000000001,0.));
#356=CARTESIAN_POINT('',(32.,0.2,0.));
#357=CARTESIAN_POINT('Origin',(-4.89858719658921E-17,0.199999999999992,
0.));
#358=CARTESIAN_POINT('Origin',(30.925,0.2,0.));
#359=CARTESIAN_POINT('',(29.85,0.2,0.));
#360=CARTESIAN_POINT('Origin',(-4.89858719658923E-17,0.199999999999993,
0.));
#361=CARTESIAN_POINT('Origin',(0.,-0.200000000000007,0.));
#362=CARTESIAN_POINT('',(29.45,-0.2,0.));
#363=CARTESIAN_POINT('Origin',(4.89858719658959E-17,-0.200000000000007,
0.));
#364=CARTESIAN_POINT('Origin',(8.57252759403145E-17,-0.349999999999999,
0.));
#365=CARTESIAN_POINT('',(29.45,-0.499999999999984,0.));
#366=CARTESIAN_POINT('Origin',(1.22464679914733E-16,-0.499999999999991,
0.));
#367=CARTESIAN_POINT('Origin',(0.,-0.49999999999999,0.));
#368=CARTESIAN_POINT('',(27.05,-0.499999999999983,0.));
#369=CARTESIAN_POINT('Origin',(1.22464679914733E-16,-0.49999999999999,0.));
#370=CARTESIAN_POINT('Origin',(1.10218211923261E-16,-0.449999999999998,
0.));
#371=CARTESIAN_POINT('',(27.05,-0.4,0.));
#372=CARTESIAN_POINT('Origin',(9.797174393179E-17,-0.400000000000007,0.));
#373=CARTESIAN_POINT('Origin',(0.,-0.400000000000007,0.));
#374=CARTESIAN_POINT('',(26.65,5.82867087928207E-15,0.));
#375=CARTESIAN_POINT('Origin',(2.86963561713698E-31,-6.98768300166908E-16,
0.));
#376=CARTESIAN_POINT('Origin',(24.45,4.16333634234434E-15,0.));
#377=CARTESIAN_POINT('',(22.25,2.4980018054066E-15,0.));
#378=CARTESIAN_POINT('Origin',(8.38742490780641E-31,-2.95174041459179E-15,
0.));
#379=CARTESIAN_POINT('Origin',(-2.57175827820943E-16,1.04999999999999,0.));
#380=UNCERTAINTY_MEASURE_WITH_UNIT(LENGTH_MEASURE(0.01),#384,
'DISTANCE_ACCURACY_VALUE',
'Maximum model space distance between geometric entities at asserted c
onnectivities');
#381=UNCERTAINTY_MEASURE_WITH_UNIT(LENGTH_MEASURE(1.E-6),#384,
'DISTANCE_ACCURACY_VALUE',
'Maximum model space distance between geometric entities at asserted c
onnectivities');
#382=(
GEOMETRIC_REPRESENTATION_CONTEXT(3)
GLOBAL_UNCERTAINTY_ASSIGNED_CONTEXT((#380))
GLOBAL_UNIT_ASSIGNED_CONTEXT((#384,#387,#385))
REPRESENTATION_CONTEXT('','3D')
);
#383=(
GEOMETRIC_REPRESENTATION_CONTEXT(3)
GLOBAL_UNCERTAINTY_ASSIGNED_CONTEXT((#381))
GLOBAL_UNIT_ASSIGNED_CONTEXT((#384,#387,#385))
REPRESENTATION_CONTEXT('','3D')
);
#384=(
LENGTH_UNIT()
NAMED_UNIT(*)
SI_UNIT(.MILLI.,.METRE.)
);
#385=(
NAMED_UNIT(*)
SI_UNIT($,.STERADIAN.)
SOLID_ANGLE_UNIT()
);
#386=DIMENSIONAL_EXPONENTS(0.,0.,0.,0.,0.,0.,0.);
#387=(
CONVERSION_BASED_UNIT('degree',#389)
NAMED_UNIT(#386)
PLANE_ANGLE_UNIT()
);
#388=(
NAMED_UNIT(*)
PLANE_ANGLE_UNIT()
SI_UNIT($,.RADIAN.)
);
#389=PLANE_ANGLE_MEASURE_WITH_UNIT(PLANE_ANGLE_MEASURE(0.01745329252),#388);
#390=SHAPE_DEFINITION_REPRESENTATION(#391,#392);
#391=PRODUCT_DEFINITION_SHAPE('',$,#394);
#392=SHAPE_REPRESENTATION('',(#214),#382);
#393=DESIGN_CONTEXT('part definition',#398,'design');
#394=PRODUCT_DEFINITION('N0005_004_002','N0005_004_002',#395,#393);
#395=PRODUCT_DEFINITION_FORMATION('',$,#400);
#396=PRODUCT_RELATED_PRODUCT_CATEGORY('N0005_004_002','N0005_004_002',(#400));
#397=APPLICATION_PROTOCOL_DEFINITION('international standard',
'ap203_configuration_controlled_3d_design_of_mechanical_parts_and_asse
mblies_mim_lf',2004,#398);
#398=APPLICATION_CONTEXT(
'Configuration Controlled 3D Design of Mechanical Parts and Assemblies');
#399=MECHANICAL_CONTEXT('part definition',#398,'mechanical');
#400=PRODUCT('N0005_004_002','N0005_004_002',$,(#399));
#401=PRESENTATION_STYLE_ASSIGNMENT((#402));
#402=SURFACE_STYLE_USAGE(.BOTH.,#403);
#403=SURFACE_SIDE_STYLE($,(#404));
#404=SURFACE_STYLE_FILL_AREA(#405);
#405=FILL_AREA_STYLE($,(#406));
#406=FILL_AREA_STYLE_COLOUR($,#407);
#407=COLOUR_RGB('',1.,1.,0.);
ENDSEC;
END-ISO-10303-21;
