ISO-10303-21;
HEADER;
FILE_DESCRIPTION (( 'STEP AP203' ),
    '1' );
FILE_NAME ('3D_M-7012G_DN20_174731020.STEP',
    '2024-10-04T13:18:51',
    ( '' ),
    ( '' ),
    'SwSTEP 2.0',
    'SolidWorks 2024',
    '' );
FILE_SCHEMA (( 'CONFIG_CONTROL_DESIGN' ));
ENDSEC;

DATA;
#1 = DIRECTION ( 'NONE',  ( 0.000000000000000000, 0.000000000000000000, 1.000000000000000000 ) ) ;
#2 = MANIFOLD_SOLID_BREP ( 'Aufsatz-Linear austragen1', #212 ) ;
#3 = DESIGN_CONTEXT ( 'detailed design', #102, 'design' ) ;
#4 =( LENGTH_UNIT ( ) NAMED_UNIT ( * ) SI_UNIT ( .MILLI., .METRE. ) );
#5 = ORIENTED_EDGE ( 'NONE', *, *, #137, .T. ) ;
#6 = DIRECTION ( 'NONE',  ( 0.000000000000000000, 0.000000000000000000, 1.000000000000000000 ) ) ;
#7 = DIRECTION ( 'NONE',  ( 0.000000000000000000, 1.000000000000000000, 0.000000000000000000 ) ) ;
#8 = AXIS2_PLACEMENT_3D ( 'NONE', #217, #51, #128 ) ;
#9 = CC_DESIGN_DATE_AND_TIME_ASSIGNMENT ( #193, #56, ( #174 ) ) ;
#10 = PERSON_AND_ORGANIZATION ( #143, #245 ) ;
#11 = VERTEX_POINT ( 'NONE', #230 ) ;
#12 = DIRECTION ( 'NONE',  ( -0.000000000000000000, -1.000000000000000000, -0.000000000000000000 ) ) ;
#13 = CALENDAR_DATE ( 2024, 4, 10 ) ;
#14 = DIRECTION ( 'NONE',  ( 0.000000000000000000, 1.000000000000000000, 0.000000000000000000 ) ) ;
#15 = COORDINATED_UNIVERSAL_TIME_OFFSET ( 1, 0, .AHEAD. ) ;
#16 = CARTESIAN_POINT ( 'NONE',  ( 0.000000000000000000, 75.00000000000000000, 0.000000000000000000 ) ) ;
#17 = DIRECTION ( 'NONE',  ( 0.000000000000000000, 1.000000000000000000, 0.000000000000000000 ) ) ;
#18 = APPROVAL_DATE_TIME ( #92, #175 ) ;
#19 = ORIENTED_EDGE ( 'NONE', *, *, #89, .F. ) ;
#20 = EDGE_CURVE ( 'NONE', #28, #11, #154, .T. ) ;
#21 = EDGE_CURVE ( 'NONE', #28, #105, #131, .T. ) ;
#22 = CIRCLE ( 'NONE', #45, 13.00000000000000178 ) ;
#23 = DIRECTION ( 'NONE',  ( 0.000000000000000000, 0.000000000000000000, -1.000000000000000000 ) ) ;
#24 = LOCAL_TIME ( 15, 18, 51.00000000000000000, #229 ) ;
#25 = CARTESIAN_POINT ( 'NONE',  ( 0.000000000000000000, 0.000000000000000000, -10.19999999999999929 ) ) ;
#26 = CC_DESIGN_PERSON_AND_ORGANIZATION_ASSIGNMENT ( #10, #144, ( #164 ) ) ;
#27 = CARTESIAN_POINT ( 'NONE',  ( 0.000000000000000000, 75.00000000000000000, 0.000000000000000000 ) ) ;
#28 = VERTEX_POINT ( 'NONE', #228 ) ;
#29 = PLANE ( 'NONE',  #197 ) ;
#30 = CYLINDRICAL_SURFACE ( 'NONE', #178, 10.19999999999999929 ) ;
#31 =( NAMED_UNIT ( * ) SI_UNIT ( $, .STERADIAN. ) SOLID_ANGLE_UNIT ( ) );
#32 = LOCAL_TIME ( 15, 18, 51.00000000000000000, #15 ) ;
#33 = DIRECTION ( 'NONE',  ( -0.000000000000000000, -1.000000000000000000, -0.000000000000000000 ) ) ;
#34 = APPROVAL_DATE_TIME ( #172, #191 ) ;
#35 = DIRECTION ( 'NONE',  ( -0.000000000000000000, -1.000000000000000000, -0.000000000000000000 ) ) ;
#36 = APPROVAL_ROLE ( '' ) ;
#37 = LINE ( 'NONE', #231, #203 ) ;
#38 = COORDINATED_UNIVERSAL_TIME_OFFSET ( 1, 0, .AHEAD. ) ;
#39 = DIRECTION ( 'NONE',  ( 0.000000000000000000, -0.000000000000000000, 1.000000000000000000 ) ) ;
#40 = DIRECTION ( 'NONE',  ( 0.000000000000000000, 1.000000000000000000, 0.000000000000000000 ) ) ;
#41 = APPROVAL ( #94, 'UNSPECIFIED' ) ;
#42 = PRODUCT_RELATED_PRODUCT_CATEGORY ( 'detail', '', ( #164 ) ) ;
#43 = EDGE_LOOP ( 'NONE', ( #166, #219, #237, #77 ) ) ;
#44 = VECTOR ( 'NONE', #204, 1000.000000000000000 ) ;
#45 = AXIS2_PLACEMENT_3D ( 'NONE', #142, #141, #6 ) ;
#46 = SECURITY_CLASSIFICATION ( '', '', #132 ) ;
#47 = AXIS2_PLACEMENT_3D ( 'NONE', #208, #152, #227 ) ;
#48 = EDGE_CURVE ( 'NONE', #11, #28, #183, .T. ) ;
#49 = ADVANCED_FACE ( 'NONE', ( #61 ), #180, .T. ) ;
#50 = PRODUCT_DEFINITION_SHAPE ( 'NONE', 'NONE',  #174 ) ;
#51 = DIRECTION ( 'NONE',  ( 0.000000000000000000, 0.000000000000000000, 1.000000000000000000 ) ) ;
#52 = DIRECTION ( 'NONE',  ( 0.000000000000000000, 0.000000000000000000, 1.000000000000000000 ) ) ;
#53 = LINE ( 'NONE', #186, #184 ) ;
#54 =( GEOMETRIC_REPRESENTATION_CONTEXT ( 3 ) GLOBAL_UNCERTAINTY_ASSIGNED_CONTEXT ( ( #210 ) ) GLOBAL_UNIT_ASSIGNED_CONTEXT ( ( #4, #107, #31 ) ) REPRESENTATION_CONTEXT ( 'NONE', 'WORKASPACE' ) );
#55 = AXIS2_PLACEMENT_3D ( 'NONE', #136, #14, #39 ) ;
#56 = DATE_TIME_ROLE ( 'creation_date' ) ;
#57 = CARTESIAN_POINT ( 'NONE',  ( 1.592040838891559293E-15, 0.000000000000000000, 13.00000000000000178 ) ) ;
#58 = ORIENTED_EDGE ( 'NONE', *, *, #233, .T. ) ;
#59 = SHAPE_DEFINITION_REPRESENTATION ( #50, #232 ) ;
#60 = EDGE_CURVE ( 'NONE', #187, #209, #244, .T. ) ;
#61 = FACE_OUTER_BOUND ( 'NONE', #82, .T. ) ;
#62 = APPROVAL_DATE_TIME ( #248, #41 ) ;
#63 = ORIENTED_EDGE ( 'NONE', *, *, #48, .T. ) ;
#64 = ORIENTED_EDGE ( 'NONE', *, *, #89, .T. ) ;
#65 = ORIENTED_EDGE ( 'NONE', *, *, #112, .F. ) ;
#66 = EDGE_CURVE ( 'NONE', #209, #123, #37, .T. ) ;
#67 = LINE ( 'NONE', #106, #87 ) ;
#68 = CC_DESIGN_APPROVAL ( #191, ( #174 ) ) ;
#69 = APPLICATION_PROTOCOL_DEFINITION ( 'international standard', 'config_control_design', 1994, #127 ) ;
#70 = EDGE_LOOP ( 'NONE', ( #91, #155, #161, #19 ) ) ;
#71 = APPROVAL_STATUS ( 'not_yet_approved' ) ;
#72 = CALENDAR_DATE ( 2024, 4, 10 ) ;
#73 = ADVANCED_FACE ( 'NONE', ( #80, #241 ), #138, .F. ) ;
#74 = PERSON_AND_ORGANIZATION ( #143, #245 ) ;
#75 = DIRECTION ( 'NONE',  ( -0.000000000000000000, -1.000000000000000000, -0.000000000000000000 ) ) ;
#76 = CYLINDRICAL_SURFACE ( 'NONE', #47, 13.00000000000000178 ) ;
#77 = ORIENTED_EDGE ( 'NONE', *, *, #66, .F. ) ;
#78 = AXIS2_PLACEMENT_3D ( 'NONE', #159, #206, #246 ) ;
#79 = DATE_AND_TIME ( #72, #100 ) ;
#80 = FACE_OUTER_BOUND ( 'NONE', #189, .T. ) ;
#81 = CIRCLE ( 'NONE', #130, 10.19999999999999929 ) ;
#82 = EDGE_LOOP ( 'NONE', ( #200, #171, #222, #58 ) ) ;
#83 = CC_DESIGN_PERSON_AND_ORGANIZATION_ASSIGNMENT ( #153, #226, ( #156 ) ) ;
#84 = AXIS2_PLACEMENT_3D ( 'NONE', #113, #151, #134 ) ;
#85 = FACE_BOUND ( 'NONE', #158, .T. ) ;
#86 = DIRECTION ( 'NONE',  ( 0.000000000000000000, -0.000000000000000000, 1.000000000000000000 ) ) ;
#87 = VECTOR ( 'NONE', #33, 1000.000000000000000 ) ;
#88 = APPLICATION_PROTOCOL_DEFINITION ( 'international standard', 'config_control_design', 1994, #102 ) ;
#89 = EDGE_CURVE ( 'NONE', #249, #123, #196, .T. ) ;
#90 = ORIENTED_EDGE ( 'NONE', *, *, #21, .F. ) ;
#91 = ORIENTED_EDGE ( 'NONE', *, *, #160, .F. ) ;
#92 = DATE_AND_TIME ( #240, #32 ) ;
#93 = FACE_OUTER_BOUND ( 'NONE', #194, .T. ) ;
#94 = APPROVAL_STATUS ( 'not_yet_approved' ) ;
#95 = DIRECTION ( 'NONE',  ( 0.000000000000000000, 0.000000000000000000, 1.000000000000000000 ) ) ;
#96 = PERSON_AND_ORGANIZATION ( #143, #245 ) ;
#97 = ORIENTED_EDGE ( 'NONE', *, *, #121, .T. ) ;
#98 = AXIS2_PLACEMENT_3D ( 'NONE', #192, #133, #170 ) ;
#99 = CIRCLE ( 'NONE', #214, 13.00000000000000178 ) ;
#100 = LOCAL_TIME ( 15, 18, 51.00000000000000000, #38 ) ;
#101 = DIRECTION ( 'NONE',  ( 0.000000000000000000, 0.000000000000000000, 1.000000000000000000 ) ) ;
#102 = APPLICATION_CONTEXT ( 'configuration controlled 3d designs of mechanical parts and assemblies' ) ;
#103 = CC_DESIGN_PERSON_AND_ORGANIZATION_ASSIGNMENT ( #176, #118, ( #156 ) ) ;
#104 = CARTESIAN_POINT ( 'NONE',  ( 1.249139735130300168E-15, 75.00000000000000000, 10.19999999999999929 ) ) ;
#105 = VERTEX_POINT ( 'NONE', #173 ) ;
#106 = CARTESIAN_POINT ( 'NONE',  ( 1.592040838891559293E-15, 75.00000000000000000, 13.00000000000000178 ) ) ;
#107 =( NAMED_UNIT ( * ) PLANE_ANGLE_UNIT ( ) SI_UNIT ( $, .RADIAN. ) );
#108 = MECHANICAL_CONTEXT ( 'NONE', #127, 'mechanical' ) ;
#109 = VERTEX_POINT ( 'NONE', #57 ) ;
#110 = AXIS2_PLACEMENT_3D ( 'NONE', #182, #201, #236 ) ;
#111 = ADVANCED_FACE ( 'NONE', ( #93 ), #76, .T. ) ;
#112 = EDGE_CURVE ( 'NONE', #209, #187, #157, .T. ) ;
#113 = CARTESIAN_POINT ( 'NONE',  ( 0.000000000000000000, 0.000000000000000000, 0.000000000000000000 ) ) ;
#114 = PERSON_AND_ORGANIZATION ( #143, #245 ) ;
#115 = CARTESIAN_POINT ( 'NONE',  ( 0.000000000000000000, 75.00000000000000000, 0.000000000000000000 ) ) ;
#116 = APPROVAL_STATUS ( 'not_yet_approved' ) ;
#117 = DIRECTION ( 'NONE',  ( 0.000000000000000000, 1.000000000000000000, 0.000000000000000000 ) ) ;
#118 = PERSON_AND_ORGANIZATION_ROLE ( 'creator' ) ;
#119 = CARTESIAN_POINT ( 'NONE',  ( 0.000000000000000000, 75.00000000000000000, 0.000000000000000000 ) ) ;
#120 = APPROVAL_PERSON_ORGANIZATION ( #150, #175, #36 ) ;
#121 = EDGE_CURVE ( 'NONE', #123, #249, #81, .T. ) ;
#122 = CC_DESIGN_SECURITY_CLASSIFICATION ( #46, ( #156 ) ) ;
#123 = VERTEX_POINT ( 'NONE', #25 ) ;
#124 = LOCAL_TIME ( 15, 18, 51.00000000000000000, #179 ) ;
#125 = ORIENTED_EDGE ( 'NONE', *, *, #221, .T. ) ;
#126 = DIRECTION ( 'NONE',  ( -0.000000000000000000, -1.000000000000000000, -0.000000000000000000 ) ) ;
#127 = APPLICATION_CONTEXT ( 'configuration controlled 3d designs of mechanical parts and assemblies' ) ;
#128 = DIRECTION ( 'NONE',  ( 1.000000000000000000, 0.000000000000000000, 0.000000000000000000 ) ) ;
#129 = CC_DESIGN_DATE_AND_TIME_ASSIGNMENT ( #79, #148, ( #46 ) ) ;
#130 = AXIS2_PLACEMENT_3D ( 'NONE', #243, #40, #1 ) ;
#131 = LINE ( 'NONE', #239, #44 ) ;
#132 = SECURITY_CLASSIFICATION_LEVEL ( 'unclassified' ) ;
#133 = DIRECTION ( 'NONE',  ( 0.000000000000000000, 1.000000000000000000, 0.000000000000000000 ) ) ;
#134 = DIRECTION ( 'NONE',  ( 0.000000000000000000, 0.000000000000000000, 1.000000000000000000 ) ) ;
#135 = CALENDAR_DATE ( 2024, 4, 10 ) ;
#136 = CARTESIAN_POINT ( 'NONE',  ( 0.000000000000000000, 0.000000000000000000, 0.000000000000000000 ) ) ;
#137 = EDGE_CURVE ( 'NONE', #11, #109, #67, .T. ) ;
#138 = PLANE ( 'NONE',  #55 ) ;
#139 = AXIS2_PLACEMENT_3D ( 'NONE', #16, #35, #23 ) ;
#140 = LOCAL_TIME ( 15, 18, 51.00000000000000000, #238 ) ;
#141 = DIRECTION ( 'NONE',  ( 0.000000000000000000, 1.000000000000000000, 0.000000000000000000 ) ) ;
#142 = CARTESIAN_POINT ( 'NONE',  ( 0.000000000000000000, 0.000000000000000000, 0.000000000000000000 ) ) ;
#143 = PERSON ( 'UNSPECIFIED', 'UNSPECIFIED', 'UNSPECIFIED', ('UNSPECIFIED'), ('UNSPECIFIED'), ('UNSPECIFIED') ) ;
#144 = PERSON_AND_ORGANIZATION_ROLE ( 'design_owner' ) ;
#145 = FACE_OUTER_BOUND ( 'NONE', #43, .T. ) ;
#146 = CC_DESIGN_PERSON_AND_ORGANIZATION_ASSIGNMENT ( #74, #224, ( #174 ) ) ;
#147 = APPROVAL_ROLE ( '' ) ;
#148 = DATE_TIME_ROLE ( 'classification_date' ) ;
#149 = APPROVAL_PERSON_ORGANIZATION ( #114, #41, #242 ) ;
#150 = PERSON_AND_ORGANIZATION ( #143, #245 ) ;
#151 = DIRECTION ( 'NONE',  ( 0.000000000000000000, 1.000000000000000000, 0.000000000000000000 ) ) ;
#152 = DIRECTION ( 'NONE',  ( -0.000000000000000000, -1.000000000000000000, -0.000000000000000000 ) ) ;
#153 = PERSON_AND_ORGANIZATION ( #143, #245 ) ;
#154 = CIRCLE ( 'NONE', #98, 13.00000000000000178 ) ;
#155 = ORIENTED_EDGE ( 'NONE', *, *, #60, .T. ) ;
#156 = PRODUCT_DEFINITION_FORMATION_WITH_SPECIFIED_SOURCE ( 'ANY', '', #164, .NOT_KNOWN. ) ;
#157 = CIRCLE ( 'NONE', #185, 10.19999999999999929 ) ;
#158 = EDGE_LOOP ( 'NONE', ( #65, #177 ) ) ;
#159 = CARTESIAN_POINT ( 'NONE',  ( 0.000000000000000000, 75.00000000000000000, 0.000000000000000000 ) ) ;
#160 = EDGE_CURVE ( 'NONE', #187, #249, #53, .T. ) ;
#161 = ORIENTED_EDGE ( 'NONE', *, *, #66, .T. ) ;
#162 = AXIS2_PLACEMENT_3D ( 'NONE', #119, #117, #101 ) ;
#163 = CARTESIAN_POINT ( 'NONE',  ( 0.000000000000000000, 75.00000000000000000, -10.19999999999999929 ) ) ;
#164 = PRODUCT ( '3D_M-7012G_DN20_174731020', '3D_M-7012G_DN20_174731020', '', ( #108 ) ) ;
#165 = CARTESIAN_POINT ( 'NONE',  ( 0.000000000000000000, 75.00000000000000000, 0.000000000000000000 ) ) ;
#166 = ORIENTED_EDGE ( 'NONE', *, *, #112, .T. ) ;
#167 = PERSON_AND_ORGANIZATION ( #143, #245 ) ;
#168 = CYLINDRICAL_SURFACE ( 'NONE', #110, 10.19999999999999929 ) ;
#169 = ORIENTED_EDGE ( 'NONE', *, *, #221, .F. ) ;
#170 = DIRECTION ( 'NONE',  ( 0.000000000000000000, 0.000000000000000000, 1.000000000000000000 ) ) ;
#171 = ORIENTED_EDGE ( 'NONE', *, *, #20, .F. ) ;
#172 = DATE_AND_TIME ( #205, #140 ) ;
#173 = CARTESIAN_POINT ( 'NONE',  ( 0.000000000000000000, 0.000000000000000000, -13.00000000000000178 ) ) ;
#174 = PRODUCT_DEFINITION ( 'UNKNOWN', '', #156, #3 ) ;
#175 = APPROVAL ( #116, 'UNSPECIFIED' ) ;
#176 = PERSON_AND_ORGANIZATION ( #143, #245 ) ;
#177 = ORIENTED_EDGE ( 'NONE', *, *, #60, .F. ) ;
#178 = AXIS2_PLACEMENT_3D ( 'NONE', #27, #126, #216 ) ;
#179 = COORDINATED_UNIVERSAL_TIME_OFFSET ( 1, 0, .AHEAD. ) ;
#180 = CYLINDRICAL_SURFACE ( 'NONE', #139, 13.00000000000000178 ) ;
#181 = ORIENTED_EDGE ( 'NONE', *, *, #233, .F. ) ;
#182 = CARTESIAN_POINT ( 'NONE',  ( 0.000000000000000000, 75.00000000000000000, 0.000000000000000000 ) ) ;
#183 = CIRCLE ( 'NONE', #78, 13.00000000000000178 ) ;
#184 = VECTOR ( 'NONE', #12, 1000.000000000000000 ) ;
#185 = AXIS2_PLACEMENT_3D ( 'NONE', #115, #17, #95 ) ;
#186 = CARTESIAN_POINT ( 'NONE',  ( 1.249139735130300168E-15, 75.00000000000000000, 10.19999999999999929 ) ) ;
#187 = VERTEX_POINT ( 'NONE', #104 ) ;
#188 = ORIENTED_EDGE ( 'NONE', *, *, #48, .F. ) ;
#189 = EDGE_LOOP ( 'NONE', ( #181, #169 ) ) ;
#190 = EDGE_LOOP ( 'NONE', ( #97, #64 ) ) ;
#191 = APPROVAL ( #71, 'UNSPECIFIED' ) ;
#192 = CARTESIAN_POINT ( 'NONE',  ( 0.000000000000000000, 75.00000000000000000, 0.000000000000000000 ) ) ;
#193 = DATE_AND_TIME ( #13, #124 ) ;
#194 = EDGE_LOOP ( 'NONE', ( #188, #5, #125, #90 ) ) ;
#195 = APPROVAL_PERSON_ORGANIZATION ( #167, #191, #147 ) ;
#196 = CIRCLE ( 'NONE', #84, 10.19999999999999929 ) ;
#197 = AXIS2_PLACEMENT_3D ( 'NONE', #165, #7, #86 ) ;
#198 = CC_DESIGN_PERSON_AND_ORGANIZATION_ASSIGNMENT ( #96, #207, ( #46 ) ) ;
#199 = DIRECTION ( 'NONE',  ( 0.000000000000000000, 1.000000000000000000, 0.000000000000000000 ) ) ;
#200 = ORIENTED_EDGE ( 'NONE', *, *, #137, .F. ) ;
#201 = DIRECTION ( 'NONE',  ( -0.000000000000000000, -1.000000000000000000, -0.000000000000000000 ) ) ;
#202 = FACE_OUTER_BOUND ( 'NONE', #234, .T. ) ;
#203 = VECTOR ( 'NONE', #75, 1000.000000000000000 ) ;
#204 = DIRECTION ( 'NONE',  ( -0.000000000000000000, -1.000000000000000000, -0.000000000000000000 ) ) ;
#205 = CALENDAR_DATE ( 2024, 4, 10 ) ;
#206 = DIRECTION ( 'NONE',  ( 0.000000000000000000, 1.000000000000000000, 0.000000000000000000 ) ) ;
#207 = PERSON_AND_ORGANIZATION_ROLE ( 'classification_officer' ) ;
#208 = CARTESIAN_POINT ( 'NONE',  ( 0.000000000000000000, 75.00000000000000000, 0.000000000000000000 ) ) ;
#209 = VERTEX_POINT ( 'NONE', #163 ) ;
#210 = UNCERTAINTY_MEASURE_WITH_UNIT (LENGTH_MEASURE( 1.000000000000000082E-05 ), #4, 'distance_accuracy_value', 'NONE');
#211 = ADVANCED_FACE ( 'NONE', ( #145 ), #168, .F. ) ;
#212 = CLOSED_SHELL ( 'NONE', ( #211, #111, #247, #73, #49, #213 ) ) ;
#213 = ADVANCED_FACE ( 'NONE', ( #220 ), #30, .F. ) ;
#214 = AXIS2_PLACEMENT_3D ( 'NONE', #218, #199, #52 ) ;
#215 = CC_DESIGN_APPROVAL ( #41, ( #46 ) ) ;
#216 = DIRECTION ( 'NONE',  ( 0.000000000000000000, 0.000000000000000000, -1.000000000000000000 ) ) ;
#217 = CARTESIAN_POINT ( 'NONE',  ( 0.000000000000000000, 0.000000000000000000, 0.000000000000000000 ) ) ;
#218 = CARTESIAN_POINT ( 'NONE',  ( 0.000000000000000000, 0.000000000000000000, 0.000000000000000000 ) ) ;
#219 = ORIENTED_EDGE ( 'NONE', *, *, #160, .T. ) ;
#220 = FACE_OUTER_BOUND ( 'NONE', #70, .T. ) ;
#221 = EDGE_CURVE ( 'NONE', #109, #105, #99, .T. ) ;
#222 = ORIENTED_EDGE ( 'NONE', *, *, #21, .T. ) ;
#223 = CC_DESIGN_APPROVAL ( #175, ( #156 ) ) ;
#224 = PERSON_AND_ORGANIZATION_ROLE ( 'creator' ) ;
#225 = ORIENTED_EDGE ( 'NONE', *, *, #20, .T. ) ;
#226 = PERSON_AND_ORGANIZATION_ROLE ( 'design_supplier' ) ;
#227 = DIRECTION ( 'NONE',  ( 0.000000000000000000, 0.000000000000000000, -1.000000000000000000 ) ) ;
#228 = CARTESIAN_POINT ( 'NONE',  ( 0.000000000000000000, 75.00000000000000000, -13.00000000000000178 ) ) ;
#229 = COORDINATED_UNIVERSAL_TIME_OFFSET ( 1, 0, .AHEAD. ) ;
#230 = CARTESIAN_POINT ( 'NONE',  ( 1.592040838891559293E-15, 75.00000000000000000, 13.00000000000000178 ) ) ;
#231 = CARTESIAN_POINT ( 'NONE',  ( 0.000000000000000000, 75.00000000000000000, -10.19999999999999929 ) ) ;
#232 = ADVANCED_BREP_SHAPE_REPRESENTATION ( '3D_M-7012G_DN20_174731020', ( #2, #8 ), #54 ) ;
#233 = EDGE_CURVE ( 'NONE', #105, #109, #22, .T. ) ;
#234 = EDGE_LOOP ( 'NONE', ( #225, #63 ) ) ;
#235 = CARTESIAN_POINT ( 'NONE',  ( 1.249139735130300168E-15, 0.000000000000000000, 10.19999999999999929 ) ) ;
#236 = DIRECTION ( 'NONE',  ( 0.000000000000000000, 0.000000000000000000, -1.000000000000000000 ) ) ;
#237 = ORIENTED_EDGE ( 'NONE', *, *, #121, .F. ) ;
#238 = COORDINATED_UNIVERSAL_TIME_OFFSET ( 1, 0, .AHEAD. ) ;
#239 = CARTESIAN_POINT ( 'NONE',  ( 0.000000000000000000, 75.00000000000000000, -13.00000000000000178 ) ) ;
#240 = CALENDAR_DATE ( 2024, 4, 10 ) ;
#241 = FACE_BOUND ( 'NONE', #190, .T. ) ;
#242 = APPROVAL_ROLE ( '' ) ;
#243 = CARTESIAN_POINT ( 'NONE',  ( 0.000000000000000000, 0.000000000000000000, 0.000000000000000000 ) ) ;
#244 = CIRCLE ( 'NONE', #162, 10.19999999999999929 ) ;
#245 = ORGANIZATION ( 'UNSPECIFIED', 'UNSPECIFIED', '' ) ;
#246 = DIRECTION ( 'NONE',  ( 0.000000000000000000, 0.000000000000000000, 1.000000000000000000 ) ) ;
#247 = ADVANCED_FACE ( 'NONE', ( #202, #85 ), #29, .T. ) ;
#248 = DATE_AND_TIME ( #135, #24 ) ;
#249 = VERTEX_POINT ( 'NONE', #235 ) ;
ENDSEC;
END-ISO-10303-21;
