ISO-10303-21;
HEADER;
FILE_DESCRIPTION (( 'STEP AP203' ),
    '1' );
FILE_NAME ('3D_R169_ DN54-44_17323220.STEP',
    '2024-07-17T12:33:24',
    ( '' ),
    ( '' ),
    'SwSTEP 2.0',
    'SolidWorks 2024',
    '' );
FILE_SCHEMA (( 'CONFIG_CONTROL_DESIGN' ));
ENDSEC;

DATA;
#1 = DIRECTION ( 'NONE',  ( 0.000000000000000000, 0.000000000000000000, 1.000000000000000000 ) ) ;
#2 = DIRECTION ( 'NONE',  ( 0.000000000000000000, 0.000000000000000000, 1.000000000000000000 ) ) ;
#3 = FACE_OUTER_BOUND ( 'NONE', #228, .T. ) ;
#4 = CARTESIAN_POINT ( 'NONE',  ( 0.000000000000000000, 0.000000000000000000, 0.000000000000000000 ) ) ;
#5 = APPROVAL_DATE_TIME ( #122, #216 ) ;
#6 = LOCAL_TIME ( 14, 33, 24.00000000000000000, #71 ) ;
#7 = CC_DESIGN_PERSON_AND_ORGANIZATION_ASSIGNMENT ( #241, #163, ( #32 ) ) ;
#8 = PERSON_AND_ORGANIZATION ( #205, #130 ) ;
#9 = PERSON_AND_ORGANIZATION ( #205, #130 ) ;
#10 = ORIENTED_EDGE ( 'NONE', *, *, #192, .F. ) ;
#11 = CIRCLE ( 'NONE', #135, 22.00000000000000000 ) ;
#12 = PERSON_AND_ORGANIZATION ( #205, #130 ) ;
#13 = PRODUCT ( '3D_R169_ DN54-44_17323220', '3D_R169_ DN54-44_17323220', '', ( #170 ) ) ;
#14 = ORIENTED_EDGE ( 'NONE', *, *, #16, .T. ) ;
#15 = ORIENTED_EDGE ( 'NONE', *, *, #39, .T. ) ;
#16 = EDGE_CURVE ( 'NONE', #167, #35, #75, .T. ) ;
#17 = PRODUCT_DEFINITION_FORMATION_WITH_SPECIFIED_SOURCE ( 'ANY', '', #13, .NOT_KNOWN. ) ;
#18 = DIRECTION ( 'NONE',  ( 1.000000000000000000, 0.000000000000000000, 0.000000000000000000 ) ) ;
#19 = CARTESIAN_POINT ( 'NONE',  ( 30.00000000000000000, 2.752076802487575566E-15, -19.97241248990059148 ) ) ;
#20 = EDGE_LOOP ( 'NONE', ( #15, #77 ) ) ;
#21 = CARTESIAN_POINT ( 'NONE',  ( 30.00000000000000000, 0.000000000000000000, 0.000000000000000000 ) ) ;
#22 = DIRECTION ( 'NONE',  ( 0.000000000000000000, 0.000000000000000000, -1.000000000000000000 ) ) ;
#23 = LINE ( 'NONE', #195, #207 ) ;
#24 = CARTESIAN_POINT ( 'NONE',  ( 30.00000000000000000, 1.347111479062088405E-15, -22.00000000000000000 ) ) ;
#25 = AXIS2_PLACEMENT_3D ( 'NONE', #38, #110, #183 ) ;
#26 = LOCAL_TIME ( 14, 33, 24.00000000000000000, #34 ) ;
#27 = CIRCLE ( 'NONE', #169, 27.00000000000000000 ) ;
#28 = ADVANCED_FACE ( 'NONE', ( #73, #127 ), #248, .F. ) ;
#29 = CARTESIAN_POINT ( 'NONE',  ( 30.00000000000000000, 0.000000000000000000, 0.000000000000000000 ) ) ;
#30 = PERSON_AND_ORGANIZATION ( #205, #130 ) ;
#31 = APPROVAL_PERSON_ORGANIZATION ( #8, #216, #200 ) ;
#32 = PRODUCT_DEFINITION ( 'UNKNOWN', '', #17, #88 ) ;
#33 = ORIENTED_EDGE ( 'NONE', *, *, #16, .F. ) ;
#34 = COORDINATED_UNIVERSAL_TIME_OFFSET ( 1, 0, .AHEAD. ) ;
#35 = VERTEX_POINT ( 'NONE', #244 ) ;
#36 = PERSON_AND_ORGANIZATION ( #205, #130 ) ;
#37 = CIRCLE ( 'NONE', #68, 22.00000000000000000 ) ;
#38 = CARTESIAN_POINT ( 'NONE',  ( 0.000000000000000000, 0.000000000000000000, 0.000000000000000000 ) ) ;
#39 = EDGE_CURVE ( 'NONE', #202, #126, #37, .T. ) ;
#40 = CONICAL_SURFACE ( 'NONE', #171, 22.00000000000000000, 0.1651486774146268544 ) ;
#41 = EDGE_LOOP ( 'NONE', ( #125, #43 ) ) ;
#42 = DIRECTION ( 'NONE',  ( 0.000000000000000000, 0.000000000000000000, -1.000000000000000000 ) ) ;
#43 = ORIENTED_EDGE ( 'NONE', *, *, #63, .T. ) ;
#44 = ORIENTED_EDGE ( 'NONE', *, *, #245, .F. ) ;
#45 = CARTESIAN_POINT ( 'NONE',  ( 30.00000000000000000, 0.000000000000000000, 0.000000000000000000 ) ) ;
#46 =( NAMED_UNIT ( * ) PLANE_ANGLE_UNIT ( ) SI_UNIT ( $, .RADIAN. ) );
#47 = FACE_OUTER_BOUND ( 'NONE', #111, .T. ) ;
#48 = AXIS2_PLACEMENT_3D ( 'NONE', #117, #62, #1 ) ;
#49 = CC_DESIGN_APPROVAL ( #216, ( #112 ) ) ;
#50 = DATE_AND_TIME ( #175, #26 ) ;
#51 = MANIFOLD_SOLID_BREP ( 'Wandung2', #139 ) ;
#52 = COORDINATED_UNIVERSAL_TIME_OFFSET ( 1, 0, .AHEAD. ) ;
#53 = AXIS2_PLACEMENT_3D ( 'NONE', #45, #173, #22 ) ;
#54 = APPROVAL_DATE_TIME ( #199, #203 ) ;
#55 = EDGE_CURVE ( 'NONE', #57, #91, #240, .T. ) ;
#56 = ORIENTED_EDGE ( 'NONE', *, *, #63, .F. ) ;
#57 = VERTEX_POINT ( 'NONE', #212 ) ;
#58 = EDGE_CURVE ( 'NONE', #91, #57, #27, .T. ) ;
#59 = EDGE_LOOP ( 'NONE', ( #247, #10 ) ) ;
#60 = VERTEX_POINT ( 'NONE', #19 ) ;
#61 = ORIENTED_EDGE ( 'NONE', *, *, #192, .T. ) ;
#62 = DIRECTION ( 'NONE',  ( -1.000000000000000000, -0.000000000000000000, -0.000000000000000000 ) ) ;
#63 = EDGE_CURVE ( 'NONE', #226, #35, #184, .T. ) ;
#64 = DIRECTION ( 'NONE',  ( -0.9863939238321436376, 0.000000000000000000, 0.1643989873053572914 ) ) ;
#65 = CARTESIAN_POINT ( 'NONE',  ( 29.67120202538928453, 0.000000000000000000, 0.000000000000000000 ) ) ;
#66 = CARTESIAN_POINT ( 'NONE',  ( 30.00000000000000000, 0.000000000000000000, 22.00000000000000000 ) ) ;
#67 = DIRECTION ( 'NONE',  ( 0.000000000000000000, 0.000000000000000000, 1.000000000000000000 ) ) ;
#68 = AXIS2_PLACEMENT_3D ( 'NONE', #129, #164, #166 ) ;
#69 = PERSON_AND_ORGANIZATION_ROLE ( 'design_owner' ) ;
#70 = LOCAL_TIME ( 14, 33, 24.00000000000000000, #52 ) ;
#71 = COORDINATED_UNIVERSAL_TIME_OFFSET ( 1, 0, .AHEAD. ) ;
#72 = PRODUCT_DEFINITION_SHAPE ( 'NONE', 'NONE',  #32 ) ;
#73 = FACE_BOUND ( 'NONE', #41, .T. ) ;
#74 = CARTESIAN_POINT ( 'NONE',  ( 0.000000000000000000, -1.653273178848926867E-15, 27.00000000000000000 ) ) ;
#75 = LINE ( 'NONE', #168, #96 ) ;
#76 = ORIENTED_EDGE ( 'NONE', *, *, #55, .F. ) ;
#77 = ORIENTED_EDGE ( 'NONE', *, *, #219, .T. ) ;
#78 = CARTESIAN_POINT ( 'NONE',  ( 0.000000000000000000, 3.058238502274415014E-15, -24.97241248990059503 ) ) ;
#79 = CARTESIAN_POINT ( 'NONE',  ( 0.000000000000000000, 0.000000000000000000, 0.000000000000000000 ) ) ;
#80 = AXIS2_PLACEMENT_3D ( 'NONE', #246, #211, #42 ) ;
#81 = APPROVAL_PERSON_ORGANIZATION ( #12, #203, #204 ) ;
#82 = APPROVAL ( #90, 'UNSPECIFIED' ) ;
#83 = DIRECTION ( 'NONE',  ( -1.000000000000000000, -0.000000000000000000, -0.000000000000000000 ) ) ;
#84 =( NAMED_UNIT ( * ) SI_UNIT ( $, .STERADIAN. ) SOLID_ANGLE_UNIT ( ) );
#85 = DIRECTION ( 'NONE',  ( 1.000000000000000000, 0.000000000000000000, 0.000000000000000000 ) ) ;
#86 = LOCAL_TIME ( 14, 33, 24.00000000000000000, #143 ) ;
#87 = PERSON_AND_ORGANIZATION_ROLE ( 'creator' ) ;
#88 = DESIGN_CONTEXT ( 'detailed design', #214, 'design' ) ;
#89 = LOCAL_TIME ( 14, 33, 24.00000000000000000, #124 ) ;
#90 = APPROVAL_STATUS ( 'not_yet_approved' ) ;
#91 = VERTEX_POINT ( 'NONE', #74 ) ;
#92 = DIRECTION ( 'NONE',  ( -0.9863939238321436376, 0.000000000000000000, 0.1643989873053572914 ) ) ;
#93 = PLANE ( 'NONE',  #80 ) ;
#94 = ORIENTED_EDGE ( 'NONE', *, *, #39, .F. ) ;
#95 = ORIENTED_EDGE ( 'NONE', *, *, #55, .T. ) ;
#96 = VECTOR ( 'NONE', #92, 1000.000000000000227 ) ;
#97 = DIRECTION ( 'NONE',  ( -0.9863939238321436376, 2.013306935865721995E-17, -0.1643989873053572914 ) ) ;
#98 = CC_DESIGN_DATE_AND_TIME_ASSIGNMENT ( #107, #103, ( #112 ) ) ;
#99 = VECTOR ( 'NONE', #64, 1000.000000000000227 ) ;
#100 = CARTESIAN_POINT ( 'NONE',  ( 30.00000000000000000, 0.000000000000000000, 19.97241248990059148 ) ) ;
#101 = CONICAL_SURFACE ( 'NONE', #243, 20.02721215233571428, 0.1651486774146268544 ) ;
#102 = CARTESIAN_POINT ( 'NONE',  ( 30.00000000000000000, 2.694222958124176809E-15, -22.00000000000000000 ) ) ;
#103 = DATE_TIME_ROLE ( 'classification_date' ) ;
#104 = PERSON_AND_ORGANIZATION_ROLE ( 'design_supplier' ) ;
#105 = ADVANCED_FACE ( 'NONE', ( #147, #210 ), #93, .T. ) ;
#106 = ORIENTED_EDGE ( 'NONE', *, *, #155, .T. ) ;
#107 = DATE_AND_TIME ( #144, #89 ) ;
#108 = ORIENTED_EDGE ( 'NONE', *, *, #58, .T. ) ;
#109 = APPROVAL_STATUS ( 'not_yet_approved' ) ;
#110 = DIRECTION ( 'NONE',  ( 1.000000000000000000, 0.000000000000000000, 0.000000000000000000 ) ) ;
#111 = EDGE_LOOP ( 'NONE', ( #131, #132, #95, #145 ) ) ;
#112 = SECURITY_CLASSIFICATION ( '', '', #234 ) ;
#113 = ADVANCED_FACE ( 'NONE', ( #114 ), #150, .T. ) ;
#114 = FACE_OUTER_BOUND ( 'NONE', #188, .T. ) ;
#115 = ORIENTED_EDGE ( 'NONE', *, *, #58, .F. ) ;
#116 = APPLICATION_PROTOCOL_DEFINITION ( 'international standard', 'config_control_design', 1994, #134 ) ;
#117 = CARTESIAN_POINT ( 'NONE',  ( 30.00000000000000000, 0.000000000000000000, 0.000000000000000000 ) ) ;
#118 = CC_DESIGN_PERSON_AND_ORGANIZATION_ASSIGNMENT ( #9, #87, ( #17 ) ) ;
#119 =( LENGTH_UNIT ( ) NAMED_UNIT ( * ) SI_UNIT ( .MILLI., .METRE. ) );
#120 = DIRECTION ( 'NONE',  ( 0.000000000000000000, 0.000000000000000000, -1.000000000000000000 ) ) ;
#121 = APPLICATION_PROTOCOL_DEFINITION ( 'international standard', 'config_control_design', 1994, #214 ) ;
#122 = DATE_AND_TIME ( #160, #70 ) ;
#123 = CIRCLE ( 'NONE', #53, 19.97241248990059148 ) ;
#124 = COORDINATED_UNIVERSAL_TIME_OFFSET ( 1, 0, .AHEAD. ) ;
#125 = ORIENTED_EDGE ( 'NONE', *, *, #235, .T. ) ;
#126 = VERTEX_POINT ( 'NONE', #24 ) ;
#127 = FACE_OUTER_BOUND ( 'NONE', #242, .T. ) ;
#128 = CARTESIAN_POINT ( 'NONE',  ( 0.000000000000000000, 0.000000000000000000, 0.000000000000000000 ) ) ;
#129 = CARTESIAN_POINT ( 'NONE',  ( 30.00000000000000000, 0.000000000000000000, 0.000000000000000000 ) ) ;
#130 = ORGANIZATION ( 'UNSPECIFIED', 'UNSPECIFIED', '' ) ;
#131 = ORIENTED_EDGE ( 'NONE', *, *, #219, .F. ) ;
#132 = ORIENTED_EDGE ( 'NONE', *, *, #245, .T. ) ;
#133 = CC_DESIGN_PERSON_AND_ORGANIZATION_ASSIGNMENT ( #177, #181, ( #112 ) ) ;
#134 = APPLICATION_CONTEXT ( 'configuration controlled 3d designs of mechanical parts and assemblies' ) ;
#135 = AXIS2_PLACEMENT_3D ( 'NONE', #29, #217, #120 ) ;
#136 = DIRECTION ( 'NONE',  ( -1.000000000000000000, -0.000000000000000000, -0.000000000000000000 ) ) ;
#137 = CARTESIAN_POINT ( 'NONE',  ( 29.67120202538928453, 0.000000000000000000, 0.000000000000000000 ) ) ;
#138 = DIRECTION ( 'NONE',  ( 1.000000000000000000, 0.000000000000000000, 0.000000000000000000 ) ) ;
#139 = CLOSED_SHELL ( 'NONE', ( #213, #146, #105, #28, #113, #201 ) ) ;
#140 = DATE_TIME_ROLE ( 'creation_date' ) ;
#141 = UNCERTAINTY_MEASURE_WITH_UNIT (LENGTH_MEASURE( 1.000000000000000082E-05 ), #119, 'distance_accuracy_value', 'NONE');
#142 = CALENDAR_DATE ( 2024, 17, 7 ) ;
#143 = COORDINATED_UNIVERSAL_TIME_OFFSET ( 1, 0, .AHEAD. ) ;
#144 = CALENDAR_DATE ( 2024, 17, 7 ) ;
#145 = ORIENTED_EDGE ( 'NONE', *, *, #165, .F. ) ;
#146 = ADVANCED_FACE ( 'NONE', ( #47 ), #40, .T. ) ;
#147 = FACE_BOUND ( 'NONE', #59, .T. ) ;
#148 = ORIENTED_EDGE ( 'NONE', *, *, #235, .F. ) ;
#149 = ORIENTED_EDGE ( 'NONE', *, *, #155, .F. ) ;
#150 = CONICAL_SURFACE ( 'NONE', #48, 22.00000000000000000, 0.1651486774146268544 ) ;
#151 = CIRCLE ( 'NONE', #174, 24.97241248990059503 ) ;
#152 = AXIS2_PLACEMENT_3D ( 'NONE', #128, #186, #187 ) ;
#153 = CARTESIAN_POINT ( 'NONE',  ( 0.000000000000000000, 0.000000000000000000, 0.000000000000000000 ) ) ;
#154 = DIRECTION ( 'NONE',  ( 1.000000000000000000, 0.000000000000000000, 0.000000000000000000 ) ) ;
#155 = EDGE_CURVE ( 'NONE', #60, #226, #23, .T. ) ;
#156 = CARTESIAN_POINT ( 'NONE',  ( 30.00000000000000000, 0.000000000000000000, 0.000000000000000000 ) ) ;
#157 = PERSON_AND_ORGANIZATION ( #205, #130 ) ;
#158 = PRODUCT_RELATED_PRODUCT_CATEGORY ( 'detail', '', ( #13 ) ) ;
#159 = DIRECTION ( 'NONE',  ( 0.000000000000000000, 0.000000000000000000, 1.000000000000000000 ) ) ;
#160 = CALENDAR_DATE ( 2024, 17, 7 ) ;
#161 = AXIS2_PLACEMENT_3D ( 'NONE', #137, #136, #249 ) ;
#162 = DATE_AND_TIME ( #178, #6 ) ;
#163 = PERSON_AND_ORGANIZATION_ROLE ( 'creator' ) ;
#164 = DIRECTION ( 'NONE',  ( 1.000000000000000000, 0.000000000000000000, 0.000000000000000000 ) ) ;
#165 = EDGE_CURVE ( 'NONE', #202, #91, #191, .T. ) ;
#166 = DIRECTION ( 'NONE',  ( 0.000000000000000000, 0.000000000000000000, -1.000000000000000000 ) ) ;
#167 = VERTEX_POINT ( 'NONE', #100 ) ;
#168 = CARTESIAN_POINT ( 'NONE',  ( 29.67120202538928453, 0.000000000000000000, 20.02721215233571428 ) ) ;
#169 = AXIS2_PLACEMENT_3D ( 'NONE', #182, #18, #206 ) ;
#170 = MECHANICAL_CONTEXT ( 'NONE', #134, 'mechanical' ) ;
#171 = AXIS2_PLACEMENT_3D ( 'NONE', #156, #230, #159 ) ;
#172 = EDGE_CURVE ( 'NONE', #167, #60, #236, .T. ) ;
#173 = DIRECTION ( 'NONE',  ( 1.000000000000000000, 0.000000000000000000, 0.000000000000000000 ) ) ;
#174 = AXIS2_PLACEMENT_3D ( 'NONE', #79, #85, #215 ) ;
#175 = CALENDAR_DATE ( 2024, 17, 7 ) ;
#176 = CC_DESIGN_PERSON_AND_ORGANIZATION_ASSIGNMENT ( #30, #104, ( #17 ) ) ;
#177 = PERSON_AND_ORGANIZATION ( #205, #130 ) ;
#178 = CALENDAR_DATE ( 2024, 17, 7 ) ;
#179 = APPROVAL_DATE_TIME ( #50, #82 ) ;
#180 = ORIENTED_EDGE ( 'NONE', *, *, #165, .T. ) ;
#181 = PERSON_AND_ORGANIZATION_ROLE ( 'classification_officer' ) ;
#182 = CARTESIAN_POINT ( 'NONE',  ( 0.000000000000000000, 0.000000000000000000, 0.000000000000000000 ) ) ;
#183 = DIRECTION ( 'NONE',  ( 0.000000000000000000, 0.000000000000000000, -1.000000000000000000 ) ) ;
#184 = CIRCLE ( 'NONE', #25, 24.97241248990059503 ) ;
#185 = VECTOR ( 'NONE', #97, 1000.000000000000227 ) ;
#186 = DIRECTION ( 'NONE',  ( 1.000000000000000000, 0.000000000000000000, 0.000000000000000000 ) ) ;
#187 = DIRECTION ( 'NONE',  ( 0.000000000000000000, 0.000000000000000000, -1.000000000000000000 ) ) ;
#188 = EDGE_LOOP ( 'NONE', ( #44, #94, #180, #108 ) ) ;
#189 = LINE ( 'NONE', #102, #185 ) ;
#190 = AXIS2_PLACEMENT_3D ( 'NONE', #4, #67, #138 ) ;
#191 = LINE ( 'NONE', #66, #99 ) ;
#192 = EDGE_CURVE ( 'NONE', #60, #167, #123, .T. ) ;
#193 = DIRECTION ( 'NONE',  ( 0.000000000000000000, 0.000000000000000000, -1.000000000000000000 ) ) ;
#194 = ADVANCED_BREP_SHAPE_REPRESENTATION ( '3D_R169_ DN54-44_17323220', ( #51, #190 ), #209 ) ;
#195 = CARTESIAN_POINT ( 'NONE',  ( 29.67120202538928453, 2.452626125820290786E-15, -20.02721215233571428 ) ) ;
#196 = APPROVAL_PERSON_ORGANIZATION ( #36, #82, #239 ) ;
#197 = AXIS2_PLACEMENT_3D ( 'NONE', #153, #225, #224 ) ;
#198 = CARTESIAN_POINT ( 'NONE',  ( 30.00000000000000000, 1.347111479062088405E-15, 22.00000000000000000 ) ) ;
#199 = DATE_AND_TIME ( #142, #86 ) ;
#200 = APPROVAL_ROLE ( '' ) ;
#201 = ADVANCED_FACE ( 'NONE', ( #232 ), #101, .F. ) ;
#202 = VERTEX_POINT ( 'NONE', #198 ) ;
#203 = APPROVAL ( #109, 'UNSPECIFIED' ) ;
#204 = APPROVAL_ROLE ( '' ) ;
#205 = PERSON ( 'UNSPECIFIED', 'UNSPECIFIED', 'UNSPECIFIED', ('UNSPECIFIED'), ('UNSPECIFIED'), ('UNSPECIFIED') ) ;
#206 = DIRECTION ( 'NONE',  ( 0.000000000000000000, 0.000000000000000000, -1.000000000000000000 ) ) ;
#207 = VECTOR ( 'NONE', #233, 1000.000000000000227 ) ;
#208 = ORIENTED_EDGE ( 'NONE', *, *, #172, .T. ) ;
#209 =( GEOMETRIC_REPRESENTATION_CONTEXT ( 3 ) GLOBAL_UNCERTAINTY_ASSIGNED_CONTEXT ( ( #141 ) ) GLOBAL_UNIT_ASSIGNED_CONTEXT ( ( #119, #46, #84 ) ) REPRESENTATION_CONTEXT ( 'NONE', 'WORKASPACE' ) );
#210 = FACE_OUTER_BOUND ( 'NONE', #20, .T. ) ;
#211 = DIRECTION ( 'NONE',  ( 1.000000000000000000, 0.000000000000000000, 0.000000000000000000 ) ) ;
#212 = CARTESIAN_POINT ( 'NONE',  ( 0.000000000000000000, 4.959819536546780600E-15, -27.00000000000000000 ) ) ;
#213 = ADVANCED_FACE ( 'NONE', ( #3 ), #238, .F. ) ;
#214 = APPLICATION_CONTEXT ( 'configuration controlled 3d designs of mechanical parts and assemblies' ) ;
#215 = DIRECTION ( 'NONE',  ( 0.000000000000000000, 0.000000000000000000, -1.000000000000000000 ) ) ;
#216 = APPROVAL ( #218, 'UNSPECIFIED' ) ;
#217 = DIRECTION ( 'NONE',  ( 1.000000000000000000, 0.000000000000000000, 0.000000000000000000 ) ) ;
#218 = APPROVAL_STATUS ( 'not_yet_approved' ) ;
#219 = EDGE_CURVE ( 'NONE', #126, #202, #11, .T. ) ;
#220 = CC_DESIGN_DATE_AND_TIME_ASSIGNMENT ( #162, #140, ( #32 ) ) ;
#221 = SHAPE_DEFINITION_REPRESENTATION ( #72, #194 ) ;
#222 = CC_DESIGN_APPROVAL ( #203, ( #17 ) ) ;
#223 = CC_DESIGN_PERSON_AND_ORGANIZATION_ASSIGNMENT ( #157, #69, ( #13 ) ) ;
#224 = DIRECTION ( 'NONE',  ( 0.000000000000000000, 0.000000000000000000, -1.000000000000000000 ) ) ;
#225 = DIRECTION ( 'NONE',  ( 1.000000000000000000, 0.000000000000000000, 0.000000000000000000 ) ) ;
#226 = VERTEX_POINT ( 'NONE', #78 ) ;
#227 = CC_DESIGN_APPROVAL ( #82, ( #32 ) ) ;
#228 = EDGE_LOOP ( 'NONE', ( #208, #106, #148, #33 ) ) ;
#229 = EDGE_LOOP ( 'NONE', ( #149, #61, #14, #56 ) ) ;
#230 = DIRECTION ( 'NONE',  ( -1.000000000000000000, -0.000000000000000000, -0.000000000000000000 ) ) ;
#231 = CC_DESIGN_SECURITY_CLASSIFICATION ( #112, ( #17 ) ) ;
#232 = FACE_OUTER_BOUND ( 'NONE', #229, .T. ) ;
#233 = DIRECTION ( 'NONE',  ( -0.9863939238321436376, 2.013306935865721995E-17, -0.1643989873053572914 ) ) ;
#234 = SECURITY_CLASSIFICATION_LEVEL ( 'unclassified' ) ;
#235 = EDGE_CURVE ( 'NONE', #35, #226, #151, .T. ) ;
#236 = CIRCLE ( 'NONE', #237, 19.97241248990059148 ) ;
#237 = AXIS2_PLACEMENT_3D ( 'NONE', #21, #154, #193 ) ;
#238 = CONICAL_SURFACE ( 'NONE', #161, 20.02721215233571428, 0.1651486774146268544 ) ;
#239 = APPROVAL_ROLE ( '' ) ;
#240 = CIRCLE ( 'NONE', #152, 27.00000000000000000 ) ;
#241 = PERSON_AND_ORGANIZATION ( #205, #130 ) ;
#242 = EDGE_LOOP ( 'NONE', ( #115, #76 ) ) ;
#243 = AXIS2_PLACEMENT_3D ( 'NONE', #65, #83, #2 ) ;
#244 = CARTESIAN_POINT ( 'NONE',  ( 0.000000000000000000, 0.000000000000000000, 24.97241248990059503 ) ) ;
#245 = EDGE_CURVE ( 'NONE', #126, #57, #189, .T. ) ;
#246 = CARTESIAN_POINT ( 'NONE',  ( 30.00000000000000000, 0.000000000000000000, 0.000000000000000000 ) ) ;
#247 = ORIENTED_EDGE ( 'NONE', *, *, #172, .F. ) ;
#248 = PLANE ( 'NONE',  #197 ) ;
#249 = DIRECTION ( 'NONE',  ( 0.000000000000000000, 0.000000000000000000, 1.000000000000000000 ) ) ;
ENDSEC;
END-ISO-10303-21;
