ISO-10303-21;
HEADER;
/* Generated by software containing ST-Developer
 * from STEP Tools, Inc. (www.steptools.com) 
 */

FILE_DESCRIPTION(
/* description */ (''),
/* implementation_level */ '2;1');

FILE_NAME(
/* name */ 
'C:\\Users\\cad\\Desktop\\Zeichnungen neu von Ralph\\3D_Kupplung_R666-
SG\\3D_R666-SG-21.3-DN20_17113730.stp',
/* time_stamp */ '2021-06-22T12:52:07+02:00',
/* author */ ('cad'),
/* organization */ (''),
/* preprocessor_version */ 'ST-DEVELOPER v18.1',
/* originating_system */ 'Autodesk Inventor 2022',
/* authorisation */ '');

FILE_SCHEMA (('AUTOMOTIVE_DESIGN { 1 0 10303 214 3 1 1 }'));
ENDSEC;

DATA;
#10=MECHANICAL_DESIGN_GEOMETRIC_PRESENTATION_REPRESENTATION('',(#13),#483);
#11=SHAPE_REPRESENTATION_RELATIONSHIP('SRR','None',#490,#12);
#12=ADVANCED_BREP_SHAPE_REPRESENTATION('',(#14),#482);
#13=STYLED_ITEM('',(#499),#14);
#14=MANIFOLD_SOLID_BREP('Volumenk\X\F6rper1',#254);
#15=CONICAL_SURFACE('',#292,8.8,0.785398163397452);
#16=CONICAL_SURFACE('',#301,10.5,0.785398163397452);
#17=CONICAL_SURFACE('',#302,11.35,0.785398163397452);
#18=CONICAL_SURFACE('',#303,8.8,0.785398163397448);
#19=CONICAL_SURFACE('',#307,12.4,0.785398163397448);
#20=CONICAL_SURFACE('',#313,12.4,0.785398163397445);
#21=FACE_BOUND('',#69,.T.);
#22=FACE_BOUND('',#74,.T.);
#23=FACE_BOUND('',#80,.T.);
#24=PLANE('',#282);
#25=PLANE('',#296);
#26=PLANE('',#305);
#27=LINE('',#417,#37);
#28=LINE('',#434,#38);
#29=LINE('',#442,#39);
#30=LINE('',#454,#40);
#31=LINE('',#456,#41);
#32=LINE('',#458,#42);
#33=LINE('',#461,#43);
#34=LINE('',#471,#44);
#35=LINE('',#477,#45);
#36=LINE('',#479,#46);
#37=VECTOR('',#328,10.65);
#38=VECTOR('',#349,11.5);
#39=VECTOR('',#358,8.8);
#40=VECTOR('',#373,8.65);
#41=VECTOR('',#376,10.5);
#42=VECTOR('',#379,11.35);
#43=VECTOR('',#382,8.8);
#44=VECTOR('',#395,12.4);
#45=VECTOR('',#402,13.2);
#46=VECTOR('',#405,12.4);
#47=CYLINDRICAL_SURFACE('',#279,10.65);
#48=CYLINDRICAL_SURFACE('',#289,11.5);
#49=CYLINDRICAL_SURFACE('',#298,8.65);
#50=CYLINDRICAL_SURFACE('',#310,13.2);
#51=FACE_OUTER_BOUND('',#66,.T.);
#52=FACE_OUTER_BOUND('',#67,.T.);
#53=FACE_OUTER_BOUND('',#68,.T.);
#54=FACE_OUTER_BOUND('',#70,.T.);
#55=FACE_OUTER_BOUND('',#71,.T.);
#56=FACE_OUTER_BOUND('',#72,.T.);
#57=FACE_OUTER_BOUND('',#73,.T.);
#58=FACE_OUTER_BOUND('',#75,.T.);
#59=FACE_OUTER_BOUND('',#76,.T.);
#60=FACE_OUTER_BOUND('',#77,.T.);
#61=FACE_OUTER_BOUND('',#78,.T.);
#62=FACE_OUTER_BOUND('',#79,.T.);
#63=FACE_OUTER_BOUND('',#81,.T.);
#64=FACE_OUTER_BOUND('',#82,.T.);
#65=FACE_OUTER_BOUND('',#83,.T.);
#66=EDGE_LOOP('',(#167,#168,#169,#170,#171));
#67=EDGE_LOOP('',(#172,#173,#174,#175,#176,#177));
#68=EDGE_LOOP('',(#178));
#69=EDGE_LOOP('',(#179));
#70=EDGE_LOOP('',(#180,#181,#182,#183,#184));
#71=EDGE_LOOP('',(#185,#186,#187,#188,#189));
#72=EDGE_LOOP('',(#190,#191,#192,#193,#194));
#73=EDGE_LOOP('',(#195));
#74=EDGE_LOOP('',(#196));
#75=EDGE_LOOP('',(#197,#198,#199,#200,#201,#202));
#76=EDGE_LOOP('',(#203,#204,#205,#206,#207));
#77=EDGE_LOOP('',(#208,#209,#210,#211,#212));
#78=EDGE_LOOP('',(#213,#214,#215,#216,#217));
#79=EDGE_LOOP('',(#218));
#80=EDGE_LOOP('',(#219));
#81=EDGE_LOOP('',(#220,#221,#222,#223,#224,#225));
#82=EDGE_LOOP('',(#226,#227,#228,#229,#230,#231));
#83=EDGE_LOOP('',(#232,#233,#234,#235,#236));
#84=CIRCLE('',#275,10.65);
#85=CIRCLE('',#276,0.5);
#86=CIRCLE('',#277,11.15);
#87=CIRCLE('',#278,10.65);
#88=CIRCLE('',#280,10.65);
#89=CIRCLE('',#281,10.65);
#90=CIRCLE('',#283,11.2);
#91=CIRCLE('',#285,11.5);
#92=CIRCLE('',#286,0.5);
#93=CIRCLE('',#287,11.6);
#94=CIRCLE('',#288,11.6);
#95=CIRCLE('',#290,11.5);
#96=CIRCLE('',#291,11.5);
#97=CIRCLE('',#293,8.95);
#98=CIRCLE('',#294,8.65);
#99=CIRCLE('',#295,8.65);
#100=CIRCLE('',#297,10.35);
#101=CIRCLE('',#299,8.65);
#102=CIRCLE('',#300,8.65);
#103=CIRCLE('',#304,8.95);
#104=CIRCLE('',#306,11.6);
#105=CIRCLE('',#308,13.2);
#106=CIRCLE('',#309,13.2);
#107=CIRCLE('',#311,13.2);
#108=CIRCLE('',#312,13.2);
#109=VERTEX_POINT('',#408);
#110=VERTEX_POINT('',#409);
#111=VERTEX_POINT('',#411);
#112=VERTEX_POINT('',#416);
#113=VERTEX_POINT('',#418);
#114=VERTEX_POINT('',#422);
#115=VERTEX_POINT('',#425);
#116=VERTEX_POINT('',#427);
#117=VERTEX_POINT('',#429);
#118=VERTEX_POINT('',#433);
#119=VERTEX_POINT('',#435);
#120=VERTEX_POINT('',#439);
#121=VERTEX_POINT('',#441);
#122=VERTEX_POINT('',#443);
#123=VERTEX_POINT('',#447);
#124=VERTEX_POINT('',#450);
#125=VERTEX_POINT('',#451);
#126=VERTEX_POINT('',#460);
#127=VERTEX_POINT('',#464);
#128=VERTEX_POINT('',#467);
#129=VERTEX_POINT('',#468);
#130=VERTEX_POINT('',#473);
#131=VERTEX_POINT('',#474);
#132=EDGE_CURVE('',#109,#110,#84,.T.);
#133=EDGE_CURVE('',#110,#111,#85,.T.);
#134=EDGE_CURVE('',#111,#111,#86,.T.);
#135=EDGE_CURVE('',#110,#109,#87,.T.);
#136=EDGE_CURVE('',#109,#112,#27,.T.);
#137=EDGE_CURVE('',#113,#112,#88,.T.);
#138=EDGE_CURVE('',#112,#113,#89,.T.);
#139=EDGE_CURVE('',#114,#114,#90,.T.);
#140=EDGE_CURVE('',#115,#115,#91,.T.);
#141=EDGE_CURVE('',#115,#116,#92,.T.);
#142=EDGE_CURVE('',#117,#116,#93,.T.);
#143=EDGE_CURVE('',#116,#117,#94,.T.);
#144=EDGE_CURVE('',#115,#118,#28,.T.);
#145=EDGE_CURVE('',#119,#118,#95,.T.);
#146=EDGE_CURVE('',#118,#119,#96,.T.);
#147=EDGE_CURVE('',#120,#120,#97,.T.);
#148=EDGE_CURVE('',#120,#121,#29,.T.);
#149=EDGE_CURVE('',#121,#122,#98,.T.);
#150=EDGE_CURVE('',#122,#121,#99,.T.);
#151=EDGE_CURVE('',#123,#123,#100,.T.);
#152=EDGE_CURVE('',#124,#125,#101,.T.);
#153=EDGE_CURVE('',#125,#124,#102,.T.);
#154=EDGE_CURVE('',#125,#122,#30,.T.);
#155=EDGE_CURVE('',#113,#123,#31,.T.);
#156=EDGE_CURVE('',#119,#114,#32,.T.);
#157=EDGE_CURVE('',#124,#126,#33,.T.);
#158=EDGE_CURVE('',#126,#126,#103,.T.);
#159=EDGE_CURVE('',#127,#127,#104,.T.);
#160=EDGE_CURVE('',#128,#129,#105,.T.);
#161=EDGE_CURVE('',#129,#128,#106,.T.);
#162=EDGE_CURVE('',#128,#117,#34,.T.);
#163=EDGE_CURVE('',#130,#131,#107,.T.);
#164=EDGE_CURVE('',#131,#130,#108,.T.);
#165=EDGE_CURVE('',#131,#129,#35,.T.);
#166=EDGE_CURVE('',#127,#130,#36,.T.);
#167=ORIENTED_EDGE('',*,*,#132,.T.);
#168=ORIENTED_EDGE('',*,*,#133,.T.);
#169=ORIENTED_EDGE('',*,*,#134,.T.);
#170=ORIENTED_EDGE('',*,*,#133,.F.);
#171=ORIENTED_EDGE('',*,*,#135,.T.);
#172=ORIENTED_EDGE('',*,*,#132,.F.);
#173=ORIENTED_EDGE('',*,*,#136,.T.);
#174=ORIENTED_EDGE('',*,*,#137,.F.);
#175=ORIENTED_EDGE('',*,*,#138,.F.);
#176=ORIENTED_EDGE('',*,*,#136,.F.);
#177=ORIENTED_EDGE('',*,*,#135,.F.);
#178=ORIENTED_EDGE('',*,*,#139,.F.);
#179=ORIENTED_EDGE('',*,*,#134,.F.);
#180=ORIENTED_EDGE('',*,*,#140,.T.);
#181=ORIENTED_EDGE('',*,*,#141,.T.);
#182=ORIENTED_EDGE('',*,*,#142,.F.);
#183=ORIENTED_EDGE('',*,*,#143,.F.);
#184=ORIENTED_EDGE('',*,*,#141,.F.);
#185=ORIENTED_EDGE('',*,*,#140,.F.);
#186=ORIENTED_EDGE('',*,*,#144,.T.);
#187=ORIENTED_EDGE('',*,*,#145,.F.);
#188=ORIENTED_EDGE('',*,*,#146,.F.);
#189=ORIENTED_EDGE('',*,*,#144,.F.);
#190=ORIENTED_EDGE('',*,*,#147,.T.);
#191=ORIENTED_EDGE('',*,*,#148,.T.);
#192=ORIENTED_EDGE('',*,*,#149,.T.);
#193=ORIENTED_EDGE('',*,*,#150,.T.);
#194=ORIENTED_EDGE('',*,*,#148,.F.);
#195=ORIENTED_EDGE('',*,*,#151,.F.);
#196=ORIENTED_EDGE('',*,*,#147,.F.);
#197=ORIENTED_EDGE('',*,*,#152,.F.);
#198=ORIENTED_EDGE('',*,*,#153,.F.);
#199=ORIENTED_EDGE('',*,*,#154,.T.);
#200=ORIENTED_EDGE('',*,*,#149,.F.);
#201=ORIENTED_EDGE('',*,*,#150,.F.);
#202=ORIENTED_EDGE('',*,*,#154,.F.);
#203=ORIENTED_EDGE('',*,*,#137,.T.);
#204=ORIENTED_EDGE('',*,*,#138,.T.);
#205=ORIENTED_EDGE('',*,*,#155,.T.);
#206=ORIENTED_EDGE('',*,*,#151,.T.);
#207=ORIENTED_EDGE('',*,*,#155,.F.);
#208=ORIENTED_EDGE('',*,*,#145,.T.);
#209=ORIENTED_EDGE('',*,*,#146,.T.);
#210=ORIENTED_EDGE('',*,*,#156,.T.);
#211=ORIENTED_EDGE('',*,*,#139,.T.);
#212=ORIENTED_EDGE('',*,*,#156,.F.);
#213=ORIENTED_EDGE('',*,*,#152,.T.);
#214=ORIENTED_EDGE('',*,*,#153,.T.);
#215=ORIENTED_EDGE('',*,*,#157,.T.);
#216=ORIENTED_EDGE('',*,*,#158,.T.);
#217=ORIENTED_EDGE('',*,*,#157,.F.);
#218=ORIENTED_EDGE('',*,*,#159,.F.);
#219=ORIENTED_EDGE('',*,*,#158,.F.);
#220=ORIENTED_EDGE('',*,*,#160,.T.);
#221=ORIENTED_EDGE('',*,*,#161,.T.);
#222=ORIENTED_EDGE('',*,*,#162,.T.);
#223=ORIENTED_EDGE('',*,*,#142,.T.);
#224=ORIENTED_EDGE('',*,*,#143,.T.);
#225=ORIENTED_EDGE('',*,*,#162,.F.);
#226=ORIENTED_EDGE('',*,*,#163,.F.);
#227=ORIENTED_EDGE('',*,*,#164,.F.);
#228=ORIENTED_EDGE('',*,*,#165,.T.);
#229=ORIENTED_EDGE('',*,*,#160,.F.);
#230=ORIENTED_EDGE('',*,*,#161,.F.);
#231=ORIENTED_EDGE('',*,*,#165,.F.);
#232=ORIENTED_EDGE('',*,*,#159,.T.);
#233=ORIENTED_EDGE('',*,*,#166,.T.);
#234=ORIENTED_EDGE('',*,*,#163,.T.);
#235=ORIENTED_EDGE('',*,*,#164,.T.);
#236=ORIENTED_EDGE('',*,*,#166,.F.);
#237=TOROIDAL_SURFACE('',#274,11.15,0.5);
#238=TOROIDAL_SURFACE('',#284,12.,0.5);
#239=ADVANCED_FACE('',(#51),#237,.F.);
#240=ADVANCED_FACE('',(#52),#47,.T.);
#241=ADVANCED_FACE('',(#53,#21),#24,.T.);
#242=ADVANCED_FACE('',(#54),#238,.F.);
#243=ADVANCED_FACE('',(#55),#48,.T.);
#244=ADVANCED_FACE('',(#56),#15,.F.);
#245=ADVANCED_FACE('',(#57,#22),#25,.T.);
#246=ADVANCED_FACE('',(#58),#49,.F.);
#247=ADVANCED_FACE('',(#59),#16,.T.);
#248=ADVANCED_FACE('',(#60),#17,.T.);
#249=ADVANCED_FACE('',(#61),#18,.F.);
#250=ADVANCED_FACE('',(#62,#23),#26,.T.);
#251=ADVANCED_FACE('',(#63),#19,.T.);
#252=ADVANCED_FACE('',(#64),#50,.T.);
#253=ADVANCED_FACE('',(#65),#20,.T.);
#254=CLOSED_SHELL('',(#239,#240,#241,#242,#243,#244,#245,#246,#247,#248,
#249,#250,#251,#252,#253));
#255=DERIVED_UNIT_ELEMENT(#257,1.);
#256=DERIVED_UNIT_ELEMENT(#485,-3.);
#257=(
MASS_UNIT()
NAMED_UNIT(*)
SI_UNIT($,.GRAM.)
);
#258=DERIVED_UNIT((#255,#256));
#259=MEASURE_REPRESENTATION_ITEM('density measure',
POSITIVE_RATIO_MEASURE(1.),#258);
#260=PROPERTY_DEFINITION_REPRESENTATION(#265,#262);
#261=PROPERTY_DEFINITION_REPRESENTATION(#266,#263);
#262=REPRESENTATION('material name',(#264),#482);
#263=REPRESENTATION('density',(#259),#482);
#264=DESCRIPTIVE_REPRESENTATION_ITEM('Generisch','Generisch');
#265=PROPERTY_DEFINITION('material property','material name',#492);
#266=PROPERTY_DEFINITION('material property','density of part',#492);
#267=DATE_TIME_ROLE('creation_date');
#268=APPLIED_DATE_AND_TIME_ASSIGNMENT(#269,#267,(#492));
#269=DATE_AND_TIME(#270,#271);
#270=CALENDAR_DATE(2021,22,6);
#271=LOCAL_TIME(0,0,0.,#272);
#272=COORDINATED_UNIVERSAL_TIME_OFFSET(0,0,.BEHIND.);
#273=AXIS2_PLACEMENT_3D('placement',#406,#314,#315);
#274=AXIS2_PLACEMENT_3D('',#407,#316,#317);
#275=AXIS2_PLACEMENT_3D('',#410,#318,#319);
#276=AXIS2_PLACEMENT_3D('',#412,#320,#321);
#277=AXIS2_PLACEMENT_3D('',#413,#322,#323);
#278=AXIS2_PLACEMENT_3D('',#414,#324,#325);
#279=AXIS2_PLACEMENT_3D('',#415,#326,#327);
#280=AXIS2_PLACEMENT_3D('',#419,#329,#330);
#281=AXIS2_PLACEMENT_3D('',#420,#331,#332);
#282=AXIS2_PLACEMENT_3D('',#421,#333,#334);
#283=AXIS2_PLACEMENT_3D('',#423,#335,#336);
#284=AXIS2_PLACEMENT_3D('',#424,#337,#338);
#285=AXIS2_PLACEMENT_3D('',#426,#339,#340);
#286=AXIS2_PLACEMENT_3D('',#428,#341,#342);
#287=AXIS2_PLACEMENT_3D('',#430,#343,#344);
#288=AXIS2_PLACEMENT_3D('',#431,#345,#346);
#289=AXIS2_PLACEMENT_3D('',#432,#347,#348);
#290=AXIS2_PLACEMENT_3D('',#436,#350,#351);
#291=AXIS2_PLACEMENT_3D('',#437,#352,#353);
#292=AXIS2_PLACEMENT_3D('',#438,#354,#355);
#293=AXIS2_PLACEMENT_3D('',#440,#356,#357);
#294=AXIS2_PLACEMENT_3D('',#444,#359,#360);
#295=AXIS2_PLACEMENT_3D('',#445,#361,#362);
#296=AXIS2_PLACEMENT_3D('',#446,#363,#364);
#297=AXIS2_PLACEMENT_3D('',#448,#365,#366);
#298=AXIS2_PLACEMENT_3D('',#449,#367,#368);
#299=AXIS2_PLACEMENT_3D('',#452,#369,#370);
#300=AXIS2_PLACEMENT_3D('',#453,#371,#372);
#301=AXIS2_PLACEMENT_3D('',#455,#374,#375);
#302=AXIS2_PLACEMENT_3D('',#457,#377,#378);
#303=AXIS2_PLACEMENT_3D('',#459,#380,#381);
#304=AXIS2_PLACEMENT_3D('',#462,#383,#384);
#305=AXIS2_PLACEMENT_3D('',#463,#385,#386);
#306=AXIS2_PLACEMENT_3D('',#465,#387,#388);
#307=AXIS2_PLACEMENT_3D('',#466,#389,#390);
#308=AXIS2_PLACEMENT_3D('',#469,#391,#392);
#309=AXIS2_PLACEMENT_3D('',#470,#393,#394);
#310=AXIS2_PLACEMENT_3D('',#472,#396,#397);
#311=AXIS2_PLACEMENT_3D('',#475,#398,#399);
#312=AXIS2_PLACEMENT_3D('',#476,#400,#401);
#313=AXIS2_PLACEMENT_3D('',#478,#403,#404);
#314=DIRECTION('axis',(0.,0.,1.));
#315=DIRECTION('refdir',(1.,0.,0.));
#316=DIRECTION('center_axis',(1.,0.,0.));
#317=DIRECTION('ref_axis',(0.,0.,-1.));
#318=DIRECTION('center_axis',(1.,0.,0.));
#319=DIRECTION('ref_axis',(0.,-1.,1.83697019872103E-16));
#320=DIRECTION('center_axis',(0.,-1.,-1.22464679914735E-16));
#321=DIRECTION('ref_axis',(0.,-1.22464679914735E-16,1.));
#322=DIRECTION('center_axis',(-1.,0.,0.));
#323=DIRECTION('ref_axis',(0.,-1.,1.83697019872103E-16));
#324=DIRECTION('center_axis',(1.,0.,0.));
#325=DIRECTION('ref_axis',(0.,-1.,1.83697019872103E-16));
#326=DIRECTION('center_axis',(1.,0.,0.));
#327=DIRECTION('ref_axis',(0.,1.,0.));
#328=DIRECTION('',(-1.,0.,0.));
#329=DIRECTION('center_axis',(-1.,0.,0.));
#330=DIRECTION('ref_axis',(0.,-1.,0.));
#331=DIRECTION('center_axis',(-1.,0.,0.));
#332=DIRECTION('ref_axis',(0.,-1.,0.));
#333=DIRECTION('center_axis',(-1.,0.,0.));
#334=DIRECTION('ref_axis',(0.,0.,1.));
#335=DIRECTION('center_axis',(1.,0.,0.));
#336=DIRECTION('ref_axis',(0.,-1.,0.));
#337=DIRECTION('center_axis',(1.,0.,0.));
#338=DIRECTION('ref_axis',(0.,1.,-1.889262103088E-16));
#339=DIRECTION('center_axis',(1.,0.,0.));
#340=DIRECTION('ref_axis',(0.,1.,-1.889262103088E-16));
#341=DIRECTION('center_axis',(0.,-6.6461530394065E-17,-1.));
#342=DIRECTION('ref_axis',(0.,-1.,6.6461530394065E-17));
#343=DIRECTION('center_axis',(1.,0.,0.));
#344=DIRECTION('ref_axis',(0.,-1.,0.));
#345=DIRECTION('center_axis',(1.,0.,0.));
#346=DIRECTION('ref_axis',(0.,-1.,0.));
#347=DIRECTION('center_axis',(1.,0.,0.));
#348=DIRECTION('ref_axis',(0.,1.,0.));
#349=DIRECTION('',(-1.,0.,0.));
#350=DIRECTION('center_axis',(-1.,0.,0.));
#351=DIRECTION('ref_axis',(0.,-1.,0.));
#352=DIRECTION('center_axis',(-1.,0.,0.));
#353=DIRECTION('ref_axis',(0.,-1.,0.));
#354=DIRECTION('center_axis',(-1.,0.,0.));
#355=DIRECTION('ref_axis',(0.,-1.,0.));
#356=DIRECTION('center_axis',(-1.,0.,0.));
#357=DIRECTION('ref_axis',(0.,-1.,0.));
#358=DIRECTION('',(0.707106781186545,-0.70710678118655,8.65956056235496E-17));
#359=DIRECTION('center_axis',(1.,0.,0.));
#360=DIRECTION('ref_axis',(0.,-1.,0.));
#361=DIRECTION('center_axis',(1.,0.,0.));
#362=DIRECTION('ref_axis',(0.,-1.,0.));
#363=DIRECTION('center_axis',(-1.,0.,0.));
#364=DIRECTION('ref_axis',(0.,0.,1.));
#365=DIRECTION('center_axis',(1.,0.,0.));
#366=DIRECTION('ref_axis',(0.,-1.,0.));
#367=DIRECTION('center_axis',(1.,0.,0.));
#368=DIRECTION('ref_axis',(0.,1.,0.));
#369=DIRECTION('center_axis',(-1.,0.,0.));
#370=DIRECTION('ref_axis',(0.,-1.,0.));
#371=DIRECTION('center_axis',(-1.,0.,0.));
#372=DIRECTION('ref_axis',(0.,-1.,0.));
#373=DIRECTION('',(-1.,0.,0.));
#374=DIRECTION('center_axis',(1.,0.,0.));
#375=DIRECTION('ref_axis',(0.,-1.,0.));
#376=DIRECTION('',(-0.707106781186545,-0.70710678118655,-8.65956056235497E-17));
#377=DIRECTION('center_axis',(1.,0.,0.));
#378=DIRECTION('ref_axis',(0.,-1.,0.));
#379=DIRECTION('',(-0.707106781186545,-0.70710678118655,-8.65956056235496E-17));
#380=DIRECTION('center_axis',(1.,0.,0.));
#381=DIRECTION('ref_axis',(0.,-1.,0.));
#382=DIRECTION('',(0.707106781186547,0.707106781186547,-8.65956056235493E-17));
#383=DIRECTION('center_axis',(1.,0.,0.));
#384=DIRECTION('ref_axis',(0.,-1.,0.));
#385=DIRECTION('center_axis',(1.,0.,0.));
#386=DIRECTION('ref_axis',(0.,0.,-1.));
#387=DIRECTION('center_axis',(-1.,0.,0.));
#388=DIRECTION('ref_axis',(0.,-1.,0.));
#389=DIRECTION('center_axis',(1.,0.,0.));
#390=DIRECTION('ref_axis',(0.,-1.,0.));
#391=DIRECTION('center_axis',(-1.,0.,0.));
#392=DIRECTION('ref_axis',(0.,-1.,0.));
#393=DIRECTION('center_axis',(-1.,0.,0.));
#394=DIRECTION('ref_axis',(0.,-1.,0.));
#395=DIRECTION('',(-0.707106781186548,-0.707106781186547,-8.65956056235493E-17));
#396=DIRECTION('center_axis',(1.,0.,0.));
#397=DIRECTION('ref_axis',(0.,1.,0.));
#398=DIRECTION('center_axis',(1.,0.,0.));
#399=DIRECTION('ref_axis',(0.,-1.,0.));
#400=DIRECTION('center_axis',(1.,0.,0.));
#401=DIRECTION('ref_axis',(0.,-1.,0.));
#402=DIRECTION('',(-1.,0.,0.));
#403=DIRECTION('center_axis',(-1.,0.,0.));
#404=DIRECTION('ref_axis',(0.,-1.,0.));
#405=DIRECTION('',(-0.70710678118655,0.707106781186545,8.65956056235491E-17));
#406=CARTESIAN_POINT('',(0.,0.,0.));
#407=CARTESIAN_POINT('Origin',(-14.5,0.,0.));
#408=CARTESIAN_POINT('',(-14.5,-10.65,-1.30424884109193E-15));
#409=CARTESIAN_POINT('',(-14.5,-1.30424884109193E-15,10.65));
#410=CARTESIAN_POINT('Origin',(-14.5,0.,0.));
#411=CARTESIAN_POINT('',(-14.,-1.3654811810493E-15,11.15));
#412=CARTESIAN_POINT('Origin',(-14.5,-1.3654811810493E-15,11.15));
#413=CARTESIAN_POINT('Origin',(-14.,0.,0.));
#414=CARTESIAN_POINT('Origin',(-14.5,0.,0.));
#415=CARTESIAN_POINT('Origin',(-17.5,0.,0.));
#416=CARTESIAN_POINT('',(-20.7,-10.65,-1.30424884109193E-15));
#417=CARTESIAN_POINT('',(-17.5,-10.65,-1.30424884109193E-15));
#418=CARTESIAN_POINT('',(-20.7,10.65,-1.30424884109193E-15));
#419=CARTESIAN_POINT('Origin',(-20.7,0.,0.));
#420=CARTESIAN_POINT('Origin',(-20.7,0.,0.));
#421=CARTESIAN_POINT('Origin',(-14.,11.5,0.));
#422=CARTESIAN_POINT('',(-14.,11.2,1.37160441504504E-15));
#423=CARTESIAN_POINT('Origin',(-14.,0.,0.));
#424=CARTESIAN_POINT('Origin',(-8.80000000000001,0.,0.));
#425=CARTESIAN_POINT('',(-8.80000000000001,-11.5,7.64307599531748E-16));
#426=CARTESIAN_POINT('Origin',(-8.80000000000001,0.,0.));
#427=CARTESIAN_POINT('',(-8.50000000000001,-11.6,7.70953752571154E-16));
#428=CARTESIAN_POINT('Origin',(-8.80000000000001,-12.,7.9753836472878E-16));
#429=CARTESIAN_POINT('',(-8.50000000000001,11.6,1.42059028701093E-15));
#430=CARTESIAN_POINT('Origin',(-8.50000000000001,0.,0.));
#431=CARTESIAN_POINT('Origin',(-8.50000000000001,0.,0.));
#432=CARTESIAN_POINT('Origin',(-11.25,0.,0.));
#433=CARTESIAN_POINT('',(-13.7,-11.5,-1.40834381901946E-15));
#434=CARTESIAN_POINT('',(-11.25,-11.5,-1.40834381901946E-15));
#435=CARTESIAN_POINT('',(-13.7,11.5,-1.40834381901946E-15));
#436=CARTESIAN_POINT('Origin',(-13.7,0.,0.));
#437=CARTESIAN_POINT('Origin',(-13.7,0.,0.));
#438=CARTESIAN_POINT('Origin',(-20.85,0.,0.));
#439=CARTESIAN_POINT('',(-21.,8.95,-1.09605888523688E-15));
#440=CARTESIAN_POINT('Origin',(-21.,0.,0.));
#441=CARTESIAN_POINT('',(-20.7,8.65,1.05931948126246E-15));
#442=CARTESIAN_POINT('',(-20.85,8.8,-1.07768918324967E-15));
#443=CARTESIAN_POINT('',(-20.7,-8.65,-1.05931948126246E-15));
#444=CARTESIAN_POINT('Origin',(-20.7,0.,0.));
#445=CARTESIAN_POINT('Origin',(-20.7,0.,0.));
#446=CARTESIAN_POINT('Origin',(-21.,10.65,0.));
#447=CARTESIAN_POINT('',(-21.,10.35,1.26750943711751E-15));
#448=CARTESIAN_POINT('Origin',(-21.,0.,0.));
#449=CARTESIAN_POINT('Origin',(-10.5,0.,0.));
#450=CARTESIAN_POINT('',(-0.300000000000007,8.65,-1.05931948126246E-15));
#451=CARTESIAN_POINT('',(-0.300000000000007,-8.65,-1.05931948126246E-15));
#452=CARTESIAN_POINT('Origin',(-0.300000000000007,0.,0.));
#453=CARTESIAN_POINT('Origin',(-0.300000000000007,0.,0.));
#454=CARTESIAN_POINT('',(-10.5,-8.65,-1.05931948126246E-15));
#455=CARTESIAN_POINT('Origin',(-20.85,0.,0.));
#456=CARTESIAN_POINT('',(-20.85,10.5,1.28587913910472E-15));
#457=CARTESIAN_POINT('Origin',(-13.85,0.,0.));
#458=CARTESIAN_POINT('',(-13.85,11.35,1.38997411703225E-15));
#459=CARTESIAN_POINT('Origin',(-0.150000000000007,0.,0.));
#460=CARTESIAN_POINT('',(-6.66133814775094E-15,8.95,1.09605888523688E-15));
#461=CARTESIAN_POINT('',(-0.150000000000007,8.8,-1.07768918324967E-15));
#462=CARTESIAN_POINT('Origin',(-6.66133814775094E-15,0.,0.));
#463=CARTESIAN_POINT('Origin',(-6.66133814775094E-15,8.65,0.));
#464=CARTESIAN_POINT('',(-6.66133814775094E-15,11.6,-1.42059028701093E-15));
#465=CARTESIAN_POINT('Origin',(-6.66133814775094E-15,0.,0.));
#466=CARTESIAN_POINT('Origin',(-7.70000000000001,0.,0.));
#467=CARTESIAN_POINT('',(-6.90000000000001,13.2,-1.61653377487451E-15));
#468=CARTESIAN_POINT('',(-6.90000000000001,-13.2,-1.61653377487451E-15));
#469=CARTESIAN_POINT('Origin',(-6.90000000000001,0.,0.));
#470=CARTESIAN_POINT('Origin',(-6.90000000000001,0.,0.));
#471=CARTESIAN_POINT('',(-7.70000000000001,12.4,1.51856203094272E-15));
#472=CARTESIAN_POINT('Origin',(-4.25000000000001,0.,0.));
#473=CARTESIAN_POINT('',(-1.60000000000001,13.2,1.61653377487451E-15));
#474=CARTESIAN_POINT('',(-1.60000000000001,-13.2,-1.61653377487451E-15));
#475=CARTESIAN_POINT('Origin',(-1.60000000000001,0.,0.));
#476=CARTESIAN_POINT('Origin',(-1.60000000000001,0.,0.));
#477=CARTESIAN_POINT('',(-4.25000000000001,-13.2,-1.61653377487451E-15));
#478=CARTESIAN_POINT('Origin',(-0.800000000000009,0.,0.));
#479=CARTESIAN_POINT('',(-0.800000000000009,12.4,1.51856203094272E-15));
#480=UNCERTAINTY_MEASURE_WITH_UNIT(LENGTH_MEASURE(0.01),#484,
'DISTANCE_ACCURACY_VALUE',
'Maximum model space distance between geometric entities at asserted c
onnectivities');
#481=UNCERTAINTY_MEASURE_WITH_UNIT(LENGTH_MEASURE(0.01),#484,
'DISTANCE_ACCURACY_VALUE',
'Maximum model space distance between geometric entities at asserted c
onnectivities');
#482=(
GEOMETRIC_REPRESENTATION_CONTEXT(3)
GLOBAL_UNCERTAINTY_ASSIGNED_CONTEXT((#480))
GLOBAL_UNIT_ASSIGNED_CONTEXT((#484,#486,#487))
REPRESENTATION_CONTEXT('','3D')
);
#483=(
GEOMETRIC_REPRESENTATION_CONTEXT(3)
GLOBAL_UNCERTAINTY_ASSIGNED_CONTEXT((#481))
GLOBAL_UNIT_ASSIGNED_CONTEXT((#484,#486,#487))
REPRESENTATION_CONTEXT('','3D')
);
#484=(
LENGTH_UNIT()
NAMED_UNIT(*)
SI_UNIT(.MILLI.,.METRE.)
);
#485=(
LENGTH_UNIT()
NAMED_UNIT(*)
SI_UNIT(.CENTI.,.METRE.)
);
#486=(
NAMED_UNIT(*)
PLANE_ANGLE_UNIT()
SI_UNIT($,.RADIAN.)
);
#487=(
NAMED_UNIT(*)
SI_UNIT($,.STERADIAN.)
SOLID_ANGLE_UNIT()
);
#488=SHAPE_DEFINITION_REPRESENTATION(#489,#490);
#489=PRODUCT_DEFINITION_SHAPE('',$,#492);
#490=SHAPE_REPRESENTATION('',(#273),#482);
#491=PRODUCT_DEFINITION_CONTEXT('part definition',#496,'design');
#492=PRODUCT_DEFINITION('3D_R666-SG-21.3-DN20_17113730',
'3D_R666-SG-21.3-DN20_17113730',#493,#491);
#493=PRODUCT_DEFINITION_FORMATION('',$,#498);
#494=PRODUCT_RELATED_PRODUCT_CATEGORY('3D_R666-SG-21.3-DN20_17113730',
'3D_R666-SG-21.3-DN20_17113730',(#498));
#495=APPLICATION_PROTOCOL_DEFINITION('international standard',
'automotive_design',2009,#496);
#496=APPLICATION_CONTEXT(
'Core Data for Automotive Mechanical Design Process');
#497=PRODUCT_CONTEXT('part definition',#496,'mechanical');
#498=PRODUCT('3D_R666-SG-21.3-DN20_17113730',
'3D_R666-SG-21.3-DN20_17113730',$,(#497));
#499=PRESENTATION_STYLE_ASSIGNMENT((#500));
#500=SURFACE_STYLE_USAGE(.BOTH.,#503);
#501=SURFACE_STYLE_RENDERING_WITH_PROPERTIES($,#507,(#502));
#502=SURFACE_STYLE_TRANSPARENT(0.);
#503=SURFACE_SIDE_STYLE('',(#504,#501));
#504=SURFACE_STYLE_FILL_AREA(#505);
#505=FILL_AREA_STYLE('',(#506));
#506=FILL_AREA_STYLE_COLOUR('',#507);
#507=COLOUR_RGB('',0.749019607843137,0.749019607843137,0.749019607843137);
ENDSEC;
END-ISO-10303-21;
