ISO-10303-21;
HEADER;
FILE_DESCRIPTION (( 'STEP AP203' ),
    '1' );
FILE_NAME ('3D_M-7012G_DN25_174731025.STEP',
    '2024-10-04T13:19:15',
    ( '' ),
    ( '' ),
    'SwSTEP 2.0',
    'SolidWorks 2024',
    '' );
FILE_SCHEMA (( 'CONFIG_CONTROL_DESIGN' ));
ENDSEC;

DATA;
#1 = CIRCLE ( 'NONE', #26, 13.20000000000000107 ) ;
#2 = CC_DESIGN_PERSON_AND_ORGANIZATION_ASSIGNMENT ( #171, #150, ( #42 ) ) ;
#3 = AXIS2_PLACEMENT_3D ( 'NONE', #124, #107, #61 ) ;
#4 = FACE_BOUND ( 'NONE', #23, .T. ) ;
#5 = DIRECTION ( 'NONE',  ( 0.000000000000000000, 1.000000000000000000, 0.000000000000000000 ) ) ;
#6 = CARTESIAN_POINT ( 'NONE',  ( 0.000000000000000000, 75.00000000000000000, -13.20000000000000107 ) ) ;
#7 = ORIENTED_EDGE ( 'NONE', *, *, #177, .T. ) ;
#8 = LINE ( 'NONE', #108, #158 ) ;
#9 = CARTESIAN_POINT ( 'NONE',  ( 1.959434878635765131E-15, 75.00000000000000000, 16.00000000000000000 ) ) ;
#10 = CARTESIAN_POINT ( 'NONE',  ( 0.000000000000000000, 75.00000000000000000, 0.000000000000000000 ) ) ;
#11 = DIRECTION ( 'NONE',  ( 0.000000000000000000, 1.000000000000000000, 0.000000000000000000 ) ) ;
#12 = DATE_AND_TIME ( #148, #217 ) ;
#13 = ADVANCED_FACE ( 'NONE', ( #68, #109 ), #168, .T. ) ;
#14 = AXIS2_PLACEMENT_3D ( 'NONE', #115, #224, #66 ) ;
#15 = EDGE_LOOP ( 'NONE', ( #123, #162, #95, #226 ) ) ;
#16 = ADVANCED_FACE ( 'NONE', ( #149 ), #152, .F. ) ;
#17 = SECURITY_CLASSIFICATION_LEVEL ( 'unclassified' ) ;
#18 = CALENDAR_DATE ( 2024, 4, 10 ) ;
#19 = CC_DESIGN_DATE_AND_TIME_ASSIGNMENT ( #111, #130, ( #201 ) ) ;
#20 = CYLINDRICAL_SURFACE ( 'NONE', #125, 16.00000000000000000 ) ;
#21 = EDGE_CURVE ( 'NONE', #214, #46, #34, .T. ) ;
#22 = DIRECTION ( 'NONE',  ( -0.000000000000000000, -1.000000000000000000, -0.000000000000000000 ) ) ;
#23 = EDGE_LOOP ( 'NONE', ( #205, #85 ) ) ;
#24 = PRODUCT_DEFINITION_SHAPE ( 'NONE', 'NONE',  #201 ) ;
#25 = DIRECTION ( 'NONE',  ( 0.000000000000000000, 1.000000000000000000, 0.000000000000000000 ) ) ;
#26 = AXIS2_PLACEMENT_3D ( 'NONE', #206, #11, #112 ) ;
#27 = DIRECTION ( 'NONE',  ( 0.000000000000000000, -0.000000000000000000, 1.000000000000000000 ) ) ;
#28 = AXIS2_PLACEMENT_3D ( 'NONE', #139, #80, #59 ) ;
#29 = FACE_OUTER_BOUND ( 'NONE', #238, .T. ) ;
#30 = VERTEX_POINT ( 'NONE', #6 ) ;
#31 = APPROVAL_ROLE ( '' ) ;
#32 = EDGE_CURVE ( 'NONE', #30, #102, #247, .T. ) ;
#33 = ORGANIZATION ( 'UNSPECIFIED', 'UNSPECIFIED', '' ) ;
#34 = CIRCLE ( 'NONE', #154, 13.20000000000000107 ) ;
#35 = APPROVAL ( #70, 'UNSPECIFIED' ) ;
#36 = AXIS2_PLACEMENT_3D ( 'NONE', #142, #218, #216 ) ;
#37 = CARTESIAN_POINT ( 'NONE',  ( 0.000000000000000000, 75.00000000000000000, -16.00000000000000000 ) ) ;
#38 = LINE ( 'NONE', #117, #97 ) ;
#39 = DIRECTION ( 'NONE',  ( 0.000000000000000000, 0.000000000000000000, 1.000000000000000000 ) ) ;
#40 = ORIENTED_EDGE ( 'NONE', *, *, #196, .F. ) ;
#41 = DIRECTION ( 'NONE',  ( -0.000000000000000000, -1.000000000000000000, -0.000000000000000000 ) ) ;
#42 = SECURITY_CLASSIFICATION ( '', '', #17 ) ;
#43 = VERTEX_POINT ( 'NONE', #37 ) ;
#44 = CC_DESIGN_DATE_AND_TIME_ASSIGNMENT ( #185, #52, ( #42 ) ) ;
#45 = DIRECTION ( 'NONE',  ( 0.000000000000000000, 0.000000000000000000, -1.000000000000000000 ) ) ;
#46 = VERTEX_POINT ( 'NONE', #166 ) ;
#47 = ADVANCED_FACE ( 'NONE', ( #236 ), #20, .T. ) ;
#48 = COORDINATED_UNIVERSAL_TIME_OFFSET ( 1, 0, .AHEAD. ) ;
#49 = COORDINATED_UNIVERSAL_TIME_OFFSET ( 1, 0, .AHEAD. ) ;
#50 = CARTESIAN_POINT ( 'NONE',  ( 0.000000000000000000, 75.00000000000000000, 0.000000000000000000 ) ) ;
#51 = ORIENTED_EDGE ( 'NONE', *, *, #215, .F. ) ;
#52 = DATE_TIME_ROLE ( 'classification_date' ) ;
#53 = COORDINATED_UNIVERSAL_TIME_OFFSET ( 1, 0, .AHEAD. ) ;
#54 = EDGE_CURVE ( 'NONE', #30, #214, #8, .T. ) ;
#55 = DESIGN_CONTEXT ( 'detailed design', #77, 'design' ) ;
#56 = APPROVAL_PERSON_ORGANIZATION ( #248, #35, #31 ) ;
#57 = AXIS2_PLACEMENT_3D ( 'NONE', #144, #81, #193 ) ;
#58 = DIRECTION ( 'NONE',  ( 0.000000000000000000, 0.000000000000000000, -1.000000000000000000 ) ) ;
#59 = DIRECTION ( 'NONE',  ( 0.000000000000000000, 0.000000000000000000, 1.000000000000000000 ) ) ;
#60 = VERTEX_POINT ( 'NONE', #237 ) ;
#61 = DIRECTION ( 'NONE',  ( 0.000000000000000000, 0.000000000000000000, -1.000000000000000000 ) ) ;
#62 = EDGE_LOOP ( 'NONE', ( #213, #132, #141, #174 ) ) ;
#63 = EDGE_CURVE ( 'NONE', #102, #46, #195, .T. ) ;
#64 = CARTESIAN_POINT ( 'NONE',  ( 1.616533774874506401E-15, 75.00000000000000000, 13.20000000000000107 ) ) ;
#65 = PRODUCT_DEFINITION_FORMATION_WITH_SPECIFIED_SOURCE ( 'ANY', '', #79, .NOT_KNOWN. ) ;
#66 = DIRECTION ( 'NONE',  ( 1.000000000000000000, 0.000000000000000000, 0.000000000000000000 ) ) ;
#67 = APPLICATION_PROTOCOL_DEFINITION ( 'international standard', 'config_control_design', 1994, #77 ) ;
#68 = FACE_OUTER_BOUND ( 'NONE', #88, .T. ) ;
#69 = DIRECTION ( 'NONE',  ( 0.000000000000000000, 1.000000000000000000, 0.000000000000000000 ) ) ;
#70 = APPROVAL_STATUS ( 'not_yet_approved' ) ;
#71 = DIRECTION ( 'NONE',  ( 0.000000000000000000, -0.000000000000000000, 1.000000000000000000 ) ) ;
#72 = SHAPE_DEFINITION_REPRESENTATION ( #24, #208 ) ;
#73 = AXIS2_PLACEMENT_3D ( 'NONE', #231, #232, #27 ) ;
#74 =( NAMED_UNIT ( * ) SI_UNIT ( $, .STERADIAN. ) SOLID_ANGLE_UNIT ( ) );
#75 = CIRCLE ( 'NONE', #57, 16.00000000000000000 ) ;
#76 = CALENDAR_DATE ( 2024, 4, 10 ) ;
#77 = APPLICATION_CONTEXT ( 'configuration controlled 3d designs of mechanical parts and assemblies' ) ;
#78 = CC_DESIGN_SECURITY_CLASSIFICATION ( #42, ( #65 ) ) ;
#79 = PRODUCT ( '3D_M-7012G_DN25_174731025', '3D_M-7012G_DN25_174731025', '', ( #244 ) ) ;
#80 = DIRECTION ( 'NONE',  ( 0.000000000000000000, 1.000000000000000000, 0.000000000000000000 ) ) ;
#81 = DIRECTION ( 'NONE',  ( 0.000000000000000000, 1.000000000000000000, 0.000000000000000000 ) ) ;
#82 = ADVANCED_FACE ( 'NONE', ( #183 ), #83, .T. ) ;
#83 = CYLINDRICAL_SURFACE ( 'NONE', #3, 16.00000000000000000 ) ;
#84 = VECTOR ( 'NONE', #179, 1000.000000000000000 ) ;
#85 = ORIENTED_EDGE ( 'NONE', *, *, #249, .T. ) ;
#86 = CC_DESIGN_PERSON_AND_ORGANIZATION_ASSIGNMENT ( #220, #189, ( #201 ) ) ;
#87 = VERTEX_POINT ( 'NONE', #9 ) ;
#88 = EDGE_LOOP ( 'NONE', ( #7, #234 ) ) ;
#89 = CC_DESIGN_APPROVAL ( #92, ( #65 ) ) ;
#90 = PERSON_AND_ORGANIZATION_ROLE ( 'design_supplier' ) ;
#91 =( LENGTH_UNIT ( ) NAMED_UNIT ( * ) SI_UNIT ( .MILLI., .METRE. ) );
#92 = APPROVAL ( #133, 'UNSPECIFIED' ) ;
#93 = CIRCLE ( 'NONE', #135, 16.00000000000000000 ) ;
#94 = CLOSED_SHELL ( 'NONE', ( #16, #82, #13, #156, #47, #159 ) ) ;
#95 = ORIENTED_EDGE ( 'NONE', *, *, #196, .T. ) ;
#96 = PERSON_AND_ORGANIZATION ( #99, #33 ) ;
#97 = VECTOR ( 'NONE', #22, 1000.000000000000000 ) ;
#98 = APPROVAL_ROLE ( '' ) ;
#99 = PERSON ( 'UNSPECIFIED', 'UNSPECIFIED', 'UNSPECIFIED', ('UNSPECIFIED'), ('UNSPECIFIED'), ('UNSPECIFIED') ) ;
#100 = UNCERTAINTY_MEASURE_WITH_UNIT (LENGTH_MEASURE( 1.000000000000000082E-05 ), #91, 'distance_accuracy_value', 'NONE');
#101 = CARTESIAN_POINT ( 'NONE',  ( 1.616533774874506401E-15, 75.00000000000000000, 13.20000000000000107 ) ) ;
#102 = VERTEX_POINT ( 'NONE', #101 ) ;
#103 = CARTESIAN_POINT ( 'NONE',  ( 0.000000000000000000, 75.00000000000000000, -16.00000000000000000 ) ) ;
#104 = ORIENTED_EDGE ( 'NONE', *, *, #136, .T. ) ;
#105 = APPROVAL_PERSON_ORGANIZATION ( #96, #92, #98 ) ;
#106 = FACE_OUTER_BOUND ( 'NONE', #62, .T. ) ;
#107 = DIRECTION ( 'NONE',  ( -0.000000000000000000, -1.000000000000000000, -0.000000000000000000 ) ) ;
#108 = CARTESIAN_POINT ( 'NONE',  ( 0.000000000000000000, 75.00000000000000000, -13.20000000000000107 ) ) ;
#109 = FACE_BOUND ( 'NONE', #225, .T. ) ;
#110 = DATE_AND_TIME ( #18, #243 ) ;
#111 = DATE_AND_TIME ( #242, #176 ) ;
#112 = DIRECTION ( 'NONE',  ( 0.000000000000000000, 0.000000000000000000, 1.000000000000000000 ) ) ;
#113 = CC_DESIGN_APPROVAL ( #35, ( #201 ) ) ;
#114 = APPROVAL_DATE_TIME ( #12, #35 ) ;
#115 = CARTESIAN_POINT ( 'NONE',  ( 0.000000000000000000, 0.000000000000000000, 0.000000000000000000 ) ) ;
#116 = CIRCLE ( 'NONE', #146, 16.00000000000000000 ) ;
#117 = CARTESIAN_POINT ( 'NONE',  ( 1.959434878635765131E-15, 75.00000000000000000, 16.00000000000000000 ) ) ;
#118 = EDGE_LOOP ( 'NONE', ( #202, #184, #104, #40 ) ) ;
#119 = CARTESIAN_POINT ( 'NONE',  ( 0.000000000000000000, 75.00000000000000000, 0.000000000000000000 ) ) ;
#120 = ORIENTED_EDGE ( 'NONE', *, *, #32, .T. ) ;
#121 = APPROVAL_PERSON_ORGANIZATION ( #222, #219, #207 ) ;
#122 = DIRECTION ( 'NONE',  ( -0.000000000000000000, -1.000000000000000000, -0.000000000000000000 ) ) ;
#123 = ORIENTED_EDGE ( 'NONE', *, *, #190, .F. ) ;
#124 = CARTESIAN_POINT ( 'NONE',  ( 0.000000000000000000, 75.00000000000000000, 0.000000000000000000 ) ) ;
#125 = AXIS2_PLACEMENT_3D ( 'NONE', #119, #41, #45 ) ;
#126 = PERSON_AND_ORGANIZATION ( #99, #33 ) ;
#127 = ORIENTED_EDGE ( 'NONE', *, *, #136, .F. ) ;
#128 = CC_DESIGN_PERSON_AND_ORGANIZATION_ASSIGNMENT ( #151, #145, ( #79 ) ) ;
#129 = APPROVAL_DATE_TIME ( #175, #219 ) ;
#130 = DATE_TIME_ROLE ( 'creation_date' ) ;
#131 = CC_DESIGN_PERSON_AND_ORGANIZATION_ASSIGNMENT ( #227, #203, ( #65 ) ) ;
#132 = ORIENTED_EDGE ( 'NONE', *, *, #215, .T. ) ;
#133 = APPROVAL_STATUS ( 'not_yet_approved' ) ;
#134 = APPLICATION_CONTEXT ( 'configuration controlled 3d designs of mechanical parts and assemblies' ) ;
#135 = AXIS2_PLACEMENT_3D ( 'NONE', #10, #172, #240 ) ;
#136 = EDGE_CURVE ( 'NONE', #60, #188, #116, .T. ) ;
#137 = VECTOR ( 'NONE', #138, 1000.000000000000000 ) ;
#138 = DIRECTION ( 'NONE',  ( -0.000000000000000000, -1.000000000000000000, -0.000000000000000000 ) ) ;
#139 = CARTESIAN_POINT ( 'NONE',  ( 0.000000000000000000, 75.00000000000000000, 0.000000000000000000 ) ) ;
#140 = DIRECTION ( 'NONE',  ( 0.000000000000000000, 0.000000000000000000, -1.000000000000000000 ) ) ;
#141 = ORIENTED_EDGE ( 'NONE', *, *, #54, .T. ) ;
#142 = CARTESIAN_POINT ( 'NONE',  ( 0.000000000000000000, 75.00000000000000000, 0.000000000000000000 ) ) ;
#143 =( GEOMETRIC_REPRESENTATION_CONTEXT ( 3 ) GLOBAL_UNCERTAINTY_ASSIGNED_CONTEXT ( ( #100 ) ) GLOBAL_UNIT_ASSIGNED_CONTEXT ( ( #91, #147, #74 ) ) REPRESENTATION_CONTEXT ( 'NONE', 'WORKASPACE' ) );
#144 = CARTESIAN_POINT ( 'NONE',  ( 0.000000000000000000, 75.00000000000000000, 0.000000000000000000 ) ) ;
#145 = PERSON_AND_ORGANIZATION_ROLE ( 'design_owner' ) ;
#146 = AXIS2_PLACEMENT_3D ( 'NONE', #178, #25, #160 ) ;
#147 =( NAMED_UNIT ( * ) PLANE_ANGLE_UNIT ( ) SI_UNIT ( $, .RADIAN. ) );
#148 = CALENDAR_DATE ( 2024, 4, 10 ) ;
#149 = FACE_OUTER_BOUND ( 'NONE', #167, .T. ) ;
#150 = PERSON_AND_ORGANIZATION_ROLE ( 'classification_officer' ) ;
#151 = PERSON_AND_ORGANIZATION ( #99, #33 ) ;
#152 = CYLINDRICAL_SURFACE ( 'NONE', #230, 13.20000000000000107 ) ;
#153 = APPROVAL_DATE_TIME ( #110, #92 ) ;
#154 = AXIS2_PLACEMENT_3D ( 'NONE', #199, #5, #39 ) ;
#155 = APPROVAL_STATUS ( 'not_yet_approved' ) ;
#156 = ADVANCED_FACE ( 'NONE', ( #29, #4 ), #164, .F. ) ;
#157 = LOCAL_TIME ( 15, 19, 15.00000000000000000, #53 ) ;
#158 = VECTOR ( 'NONE', #212, 1000.000000000000000 ) ;
#159 = ADVANCED_FACE ( 'NONE', ( #106 ), #211, .F. ) ;
#160 = DIRECTION ( 'NONE',  ( 0.000000000000000000, 0.000000000000000000, 1.000000000000000000 ) ) ;
#161 = CARTESIAN_POINT ( 'NONE',  ( 0.000000000000000000, 75.00000000000000000, 0.000000000000000000 ) ) ;
#162 = ORIENTED_EDGE ( 'NONE', *, *, #177, .F. ) ;
#163 = CARTESIAN_POINT ( 'NONE',  ( 0.000000000000000000, 0.000000000000000000, -13.20000000000000107 ) ) ;
#164 = PLANE ( 'NONE',  #73 ) ;
#165 = ORIENTED_EDGE ( 'NONE', *, *, #32, .F. ) ;
#166 = CARTESIAN_POINT ( 'NONE',  ( 1.616533774874506401E-15, 0.000000000000000000, 13.20000000000000107 ) ) ;
#167 = EDGE_LOOP ( 'NONE', ( #120, #170, #194, #198 ) ) ;
#168 = PLANE ( 'NONE',  #200 ) ;
#169 = COORDINATED_UNIVERSAL_TIME_OFFSET ( 1, 0, .AHEAD. ) ;
#170 = ORIENTED_EDGE ( 'NONE', *, *, #63, .T. ) ;
#171 = PERSON_AND_ORGANIZATION ( #99, #33 ) ;
#172 = DIRECTION ( 'NONE',  ( 0.000000000000000000, 1.000000000000000000, 0.000000000000000000 ) ) ;
#173 = AXIS2_PLACEMENT_3D ( 'NONE', #161, #122, #58 ) ;
#174 = ORIENTED_EDGE ( 'NONE', *, *, #249, .F. ) ;
#175 = DATE_AND_TIME ( #239, #157 ) ;
#176 = LOCAL_TIME ( 15, 19, 15.00000000000000000, #49 ) ;
#177 = EDGE_CURVE ( 'NONE', #43, #87, #75, .T. ) ;
#178 = CARTESIAN_POINT ( 'NONE',  ( 0.000000000000000000, 0.000000000000000000, 0.000000000000000000 ) ) ;
#179 = DIRECTION ( 'NONE',  ( -0.000000000000000000, -1.000000000000000000, -0.000000000000000000 ) ) ;
#180 = LINE ( 'NONE', #103, #84 ) ;
#181 = DIRECTION ( 'NONE',  ( 0.000000000000000000, 1.000000000000000000, 0.000000000000000000 ) ) ;
#182 = CIRCLE ( 'NONE', #210, 16.00000000000000000 ) ;
#183 = FACE_OUTER_BOUND ( 'NONE', #118, .T. ) ;
#184 = ORIENTED_EDGE ( 'NONE', *, *, #190, .T. ) ;
#185 = DATE_AND_TIME ( #76, #229 ) ;
#186 = CC_DESIGN_APPROVAL ( #219, ( #42 ) ) ;
#187 = APPLICATION_PROTOCOL_DEFINITION ( 'international standard', 'config_control_design', 1994, #134 ) ;
#188 = VERTEX_POINT ( 'NONE', #235 ) ;
#189 = PERSON_AND_ORGANIZATION_ROLE ( 'creator' ) ;
#190 = EDGE_CURVE ( 'NONE', #87, #60, #38, .T. ) ;
#191 = CIRCLE ( 'NONE', #36, 13.20000000000000107 ) ;
#192 = DIRECTION ( 'NONE',  ( -0.000000000000000000, -1.000000000000000000, -0.000000000000000000 ) ) ;
#193 = DIRECTION ( 'NONE',  ( 0.000000000000000000, 0.000000000000000000, 1.000000000000000000 ) ) ;
#194 = ORIENTED_EDGE ( 'NONE', *, *, #21, .F. ) ;
#195 = LINE ( 'NONE', #64, #137 ) ;
#196 = EDGE_CURVE ( 'NONE', #43, #188, #180, .T. ) ;
#197 = CARTESIAN_POINT ( 'NONE',  ( 0.000000000000000000, 0.000000000000000000, 0.000000000000000000 ) ) ;
#198 = ORIENTED_EDGE ( 'NONE', *, *, #54, .F. ) ;
#199 = CARTESIAN_POINT ( 'NONE',  ( 0.000000000000000000, 0.000000000000000000, 0.000000000000000000 ) ) ;
#200 = AXIS2_PLACEMENT_3D ( 'NONE', #241, #69, #71 ) ;
#201 = PRODUCT_DEFINITION ( 'UNKNOWN', '', #65, #55 ) ;
#202 = ORIENTED_EDGE ( 'NONE', *, *, #233, .F. ) ;
#203 = PERSON_AND_ORGANIZATION_ROLE ( 'creator' ) ;
#204 = DIRECTION ( 'NONE',  ( 0.000000000000000000, 0.000000000000000000, 1.000000000000000000 ) ) ;
#205 = ORIENTED_EDGE ( 'NONE', *, *, #21, .T. ) ;
#206 = CARTESIAN_POINT ( 'NONE',  ( 0.000000000000000000, 0.000000000000000000, 0.000000000000000000 ) ) ;
#207 = APPROVAL_ROLE ( '' ) ;
#208 = ADVANCED_BREP_SHAPE_REPRESENTATION ( '3D_M-7012G_DN25_174731025', ( #246, #14 ), #143 ) ;
#209 = CC_DESIGN_PERSON_AND_ORGANIZATION_ASSIGNMENT ( #126, #90, ( #65 ) ) ;
#210 = AXIS2_PLACEMENT_3D ( 'NONE', #197, #181, #204 ) ;
#211 = CYLINDRICAL_SURFACE ( 'NONE', #173, 13.20000000000000107 ) ;
#212 = DIRECTION ( 'NONE',  ( -0.000000000000000000, -1.000000000000000000, -0.000000000000000000 ) ) ;
#213 = ORIENTED_EDGE ( 'NONE', *, *, #63, .F. ) ;
#214 = VERTEX_POINT ( 'NONE', #163 ) ;
#215 = EDGE_CURVE ( 'NONE', #102, #30, #191, .T. ) ;
#216 = DIRECTION ( 'NONE',  ( 0.000000000000000000, 0.000000000000000000, 1.000000000000000000 ) ) ;
#217 = LOCAL_TIME ( 15, 19, 15.00000000000000000, #48 ) ;
#218 = DIRECTION ( 'NONE',  ( 0.000000000000000000, 1.000000000000000000, 0.000000000000000000 ) ) ;
#219 = APPROVAL ( #155, 'UNSPECIFIED' ) ;
#220 = PERSON_AND_ORGANIZATION ( #99, #33 ) ;
#221 = ORIENTED_EDGE ( 'NONE', *, *, #223, .F. ) ;
#222 = PERSON_AND_ORGANIZATION ( #99, #33 ) ;
#223 = EDGE_CURVE ( 'NONE', #188, #60, #182, .T. ) ;
#224 = DIRECTION ( 'NONE',  ( 0.000000000000000000, 0.000000000000000000, 1.000000000000000000 ) ) ;
#225 = EDGE_LOOP ( 'NONE', ( #165, #51 ) ) ;
#226 = ORIENTED_EDGE ( 'NONE', *, *, #223, .T. ) ;
#227 = PERSON_AND_ORGANIZATION ( #99, #33 ) ;
#228 = PRODUCT_RELATED_PRODUCT_CATEGORY ( 'detail', '', ( #79 ) ) ;
#229 = LOCAL_TIME ( 15, 19, 15.00000000000000000, #169 ) ;
#230 = AXIS2_PLACEMENT_3D ( 'NONE', #50, #192, #140 ) ;
#231 = CARTESIAN_POINT ( 'NONE',  ( 0.000000000000000000, 0.000000000000000000, 0.000000000000000000 ) ) ;
#232 = DIRECTION ( 'NONE',  ( 0.000000000000000000, 1.000000000000000000, 0.000000000000000000 ) ) ;
#233 = EDGE_CURVE ( 'NONE', #87, #43, #93, .T. ) ;
#234 = ORIENTED_EDGE ( 'NONE', *, *, #233, .T. ) ;
#235 = CARTESIAN_POINT ( 'NONE',  ( 0.000000000000000000, 0.000000000000000000, -16.00000000000000000 ) ) ;
#236 = FACE_OUTER_BOUND ( 'NONE', #15, .T. ) ;
#237 = CARTESIAN_POINT ( 'NONE',  ( 1.959434878635765131E-15, 0.000000000000000000, 16.00000000000000000 ) ) ;
#238 = EDGE_LOOP ( 'NONE', ( #221, #127 ) ) ;
#239 = CALENDAR_DATE ( 2024, 4, 10 ) ;
#240 = DIRECTION ( 'NONE',  ( 0.000000000000000000, 0.000000000000000000, 1.000000000000000000 ) ) ;
#241 = CARTESIAN_POINT ( 'NONE',  ( 0.000000000000000000, 75.00000000000000000, 0.000000000000000000 ) ) ;
#242 = CALENDAR_DATE ( 2024, 4, 10 ) ;
#243 = LOCAL_TIME ( 15, 19, 15.00000000000000000, #245 ) ;
#244 = MECHANICAL_CONTEXT ( 'NONE', #134, 'mechanical' ) ;
#245 = COORDINATED_UNIVERSAL_TIME_OFFSET ( 1, 0, .AHEAD. ) ;
#246 = MANIFOLD_SOLID_BREP ( 'Aufsatz-Linear austragen1', #94 ) ;
#247 = CIRCLE ( 'NONE', #28, 13.20000000000000107 ) ;
#248 = PERSON_AND_ORGANIZATION ( #99, #33 ) ;
#249 = EDGE_CURVE ( 'NONE', #46, #214, #1, .T. ) ;
ENDSEC;
END-ISO-10303-21;
