ISO-10303-21;
HEADER;
FILE_DESCRIPTION (( 'STEP AP203' ),
    '1' );
FILE_NAME ('19-0402-21_outokumpu.step',
    '2015-08-11T09:23:24',
    ( '' ),
    ( '' ),
    'SwSTEP 2.0',
    'SolidWorks 2008',
    '' );
FILE_SCHEMA (( 'CONFIG_CONTROL_DESIGN' ));
ENDSEC;

DATA;
#1 = APPROVAL_ROLE ( '' ) ;
#2 = COORDINATED_UNIVERSAL_TIME_OFFSET ( 1, 0, .AHEAD. ) ;
#3 = APPROVAL_DATE_TIME ( #7, #222 ) ;
#4 = LOCAL_TIME ( 11, 23, 24.00000000000000000, #2 ) ;
#5 = APPROVAL_PERSON_ORGANIZATION ( #224, #222, #1 ) ;
#6 = CALENDAR_DATE ( 2015, 11, 8 ) ;
#7 = DATE_AND_TIME ( #6, #4 ) ;
#8 = CC_DESIGN_APPROVAL ( #222, ( #234 ) ) ;
#9 = CARTESIAN_POINT ( 'NONE',  ( 0.0000000000000000000, 0.0000000000000000000, -50.00000000000000000 ) ) ;
#10 = CIRCLE ( 'NONE', #128, 5.033854622807866400 ) ;
#11 = CARTESIAN_POINT ( 'NONE',  ( 7.000000000000000000, 0.0000000000000000000, -50.00000000000000000 ) ) ;
#12 = CARTESIAN_POINT ( 'NONE',  ( 5.033854622807828200, 0.0000000000000000000, 0.0000000000000000000 ) ) ;
#13 = DIRECTION ( 'NONE',  ( 1.000000000000000000, 0.0000000000000000000, 0.0000000000000000000 ) ) ;
#14 = DIRECTION ( 'NONE',  ( -0.0000000000000000000, -0.0000000000000000000, 1.000000000000000000 ) ) ;
#15 = AXIS2_PLACEMENT_3D ( 'NONE', #22, #14, #13 ) ;
#16 = CIRCLE ( 'NONE', #15, 5.033854622807828200 ) ;
#17 = DIRECTION ( 'NONE',  ( 1.000000000000000000, 0.0000000000000000000, 0.0000000000000000000 ) ) ;
#18 = DIRECTION ( 'NONE',  ( -0.0000000000000000000, -0.0000000000000000000, 1.000000000000000000 ) ) ;
#19 = CARTESIAN_POINT ( 'NONE',  ( 0.0000000000000000000, 0.0000000000000000000, 0.0000000000000000000 ) ) ;
#20 = AXIS2_PLACEMENT_3D ( 'NONE', #19, #18, #17 ) ;
#21 = CIRCLE ( 'NONE', #20, 7.000000000000000000 ) ;
#22 = CARTESIAN_POINT ( 'NONE',  ( 0.0000000000000000000, 0.0000000000000000000, 0.0000000000000000000 ) ) ;
#23 = CARTESIAN_POINT ( 'NONE',  ( -7.000000000000000000, 8.572244476756640800E-016, -50.00000000000000000 ) ) ;
#24 = DIRECTION ( 'NONE',  ( 1.000000000000000000, 0.0000000000000000000, 0.0000000000000000000 ) ) ;
#25 = DIRECTION ( 'NONE',  ( -0.0000000000000000000, -0.0000000000000000000, 1.000000000000000000 ) ) ;
#26 = CARTESIAN_POINT ( 'NONE',  ( 0.0000000000000000000, 0.0000000000000000000, -50.00000000000000000 ) ) ;
#27 = AXIS2_PLACEMENT_3D ( 'NONE', #26, #25, #24 ) ;
#28 = CIRCLE ( 'NONE', #27, 7.000000000000000000 ) ;
#29 = DIRECTION ( 'NONE',  ( 0.0000000000000000000, 1.000000000000000000, 0.0000000000000000000 ) ) ;
#30 = DIRECTION ( 'NONE',  ( -0.0000000000000000000, 1.085776366117874700E-016, -1.000000000000000000 ) ) ;
#31 = CARTESIAN_POINT ( 'NONE',  ( 0.0000000000000000000, 1.959434878635760800E-015, -50.00000000000001400 ) ) ;
#32 = AXIS2_PLACEMENT_3D ( 'NONE', #31, #30, #29 ) ;
#33 = CYLINDRICAL_SURFACE ( 'NONE', #32, 4.864000000000005200 ) ;
#34 = FACE_OUTER_BOUND ( 'NONE', #49, .T. ) ;
#35 = DIRECTION ( 'NONE',  ( -0.0000000000000000000, -0.0000000000000000000, 1.000000000000000000 ) ) ;
#36 = VECTOR ( 'NONE', #35, 1000.000000000000000 ) ;
#37 = CARTESIAN_POINT ( 'NONE',  ( 7.000000000000000000, 0.0000000000000000000, -4.336808689942017700E-016 ) ) ;
#38 = LINE ( 'NONE', #37, #36 ) ;
#39 = EDGE_CURVE ( 'NONE', #40, #66, #131, .T. ) ;
#40 = VERTEX_POINT ( 'NONE', #91 ) ;
#41 = VERTEX_POINT ( 'NONE', #90 ) ;
#42 = ORIENTED_EDGE ( 'NONE', *, *, #43, .F. ) ;
#43 = EDGE_CURVE ( 'NONE', #40, #41, #88, .T. ) ;
#44 = ADVANCED_FACE ( 'NONE', ( #89 ), #82, .F. ) ;
#45 = EDGE_LOOP ( 'NONE', ( #42, #78, #165, #96, #151 ) ) ;
#46 = ORIENTED_EDGE ( 'NONE', *, *, #50, .T. ) ;
#47 = EDGE_CURVE ( 'NONE', #56, #191, #38, .T. ) ;
#48 = ADVANCED_FACE ( 'NONE', ( #34 ), #33, .F. ) ;
#49 = EDGE_LOOP ( 'NONE', ( #169, #193, #194, #162, #163, #168 ) ) ;
#50 = EDGE_CURVE ( 'NONE', #56, #51, #28, .T. ) ;
#51 = VERTEX_POINT ( 'NONE', #23 ) ;
#52 = ORIENTED_EDGE ( 'NONE', *, *, #53, .T. ) ;
#53 = EDGE_CURVE ( 'NONE', #102, #191, #21, .T. ) ;
#54 = EDGE_CURVE ( 'NONE', #66, #55, #16, .T. ) ;
#55 = VERTEX_POINT ( 'NONE', #12 ) ;
#56 = VERTEX_POINT ( 'NONE', #11 ) ;
#57 = ORIENTED_EDGE ( 'NONE', *, *, #71, .T. ) ;
#58 = ORIENTED_EDGE ( 'NONE', *, *, #59, .T. ) ;
#59 = EDGE_CURVE ( 'NONE', #69, #72, #10, .T. ) ;
#60 = ADVANCED_FACE ( 'NONE', ( #125, #124 ), #123, .F. ) ;
#61 = EDGE_LOOP ( 'NONE', ( #62, #52 ) ) ;
#62 = ORIENTED_EDGE ( 'NONE', *, *, #190, .T. ) ;
#63 = MANIFOLD_SOLID_BREP ( 'NONE', #142 ) ;
#64 = ADVANCED_FACE ( 'NONE', ( #121 ), #120, .F. ) ;
#65 = EDGE_LOOP ( 'NONE', ( #172, #67, #70, #73, #77 ) ) ;
#66 = VERTEX_POINT ( 'NONE', #202 ) ;
#67 = ORIENTED_EDGE ( 'NONE', *, *, #68, .T. ) ;
#68 = EDGE_CURVE ( 'NONE', #175, #69, #198, .T. ) ;
#69 = VERTEX_POINT ( 'NONE', #115 ) ;
#70 = ORIENTED_EDGE ( 'NONE', *, *, #71, .F. ) ;
#71 = EDGE_CURVE ( 'NONE', #72, #69, #114, .T. ) ;
#72 = VERTEX_POINT ( 'NONE', #109 ) ;
#73 = ORIENTED_EDGE ( 'NONE', *, *, #74, .F. ) ;
#74 = EDGE_CURVE ( 'NONE', #76, #72, #108, .T. ) ;
#75 = EDGE_CURVE ( 'NONE', #76, #174, #248, .T. ) ;
#76 = VERTEX_POINT ( 'NONE', #277 ) ;
#77 = ORIENTED_EDGE ( 'NONE', *, *, #75, .T. ) ;
#78 = ORIENTED_EDGE ( 'NONE', *, *, #39, .T. ) ;
#79 = DIRECTION ( 'NONE',  ( 1.000000000000000000, 0.0000000000000000000, 0.0000000000000000000 ) ) ;
#80 = DIRECTION ( 'NONE',  ( -0.0000000000000000000, -0.0000000000000000000, 1.000000000000000000 ) ) ;
#81 = AXIS2_PLACEMENT_3D ( 'NONE', #83, #80, #79 ) ;
#82 = CONICAL_SURFACE ( 'NONE', #81, 4.863999999999999900, 0.7853981633974526100 ) ;
#83 = CARTESIAN_POINT ( 'NONE',  ( 0.0000000000000000000, 0.0000000000000000000, -0.1698546228078260900 ) ) ;
#84 = DIRECTION ( 'NONE',  ( 1.000000000000000000, 0.0000000000000000000, 0.0000000000000000000 ) ) ;
#85 = DIRECTION ( 'NONE',  ( -0.0000000000000000000, -0.0000000000000000000, 1.000000000000000000 ) ) ;
#86 = CARTESIAN_POINT ( 'NONE',  ( 0.0000000000000000000, 0.0000000000000000000, -0.1698546228078260900 ) ) ;
#87 = AXIS2_PLACEMENT_3D ( 'NONE', #86, #85, #84 ) ;
#88 = CIRCLE ( 'NONE', #87, 4.863999999999999900 ) ;
#89 = FACE_OUTER_BOUND ( 'NONE', #45, .T. ) ;
#90 = CARTESIAN_POINT ( 'NONE',  ( 5.956485304992047800E-016, -4.863999999999999900, -0.1698546228078260900 ) ) ;
#91 = CARTESIAN_POINT ( 'NONE',  ( -4.863999999999999900, 6.060487830150327700E-016, -0.1698546228078260900 ) ) ;
#92 = VECTOR ( 'NONE', #129, 1000.000000000000000 ) ;
#93 = ORIENTED_EDGE ( 'NONE', *, *, #173, .F. ) ;
#94 = ADVANCED_FACE ( 'NONE', ( #276, #275 ), #309, .F. ) ;
#95 = EDGE_LOOP ( 'NONE', ( #147, #148 ) ) ;
#96 = ORIENTED_EDGE ( 'NONE', *, *, #97, .F. ) ;
#97 = EDGE_CURVE ( 'NONE', #99, #55, #214, .T. ) ;
#98 = EDGE_CURVE ( 'NONE', #51, #102, #328, .T. ) ;
#99 = VERTEX_POINT ( 'NONE', #324 ) ;
#100 = ADVANCED_FACE ( 'NONE', ( #323 ), #322, .T. ) ;
#101 = ORIENTED_EDGE ( 'NONE', *, *, #98, .T. ) ;
#102 = VERTEX_POINT ( 'NONE', #210 ) ;
#103 = CC_DESIGN_SECURITY_CLASSIFICATION ( #234, ( #317 ) ) ;
#104 = PRODUCT_RELATED_PRODUCT_CATEGORY ( 'detail', '', ( #365 ) ) ;
#105 = DIRECTION ( 'NONE',  ( -0.7071067811865511300, 0.0000000000000000000, -0.7071067811865440200 ) ) ;
#106 = VECTOR ( 'NONE', #105, 999.9999999999998900 ) ;
#107 = CARTESIAN_POINT ( 'NONE',  ( -5.033854622807866400, 0.0000000000000000000, -50.00000000000000000 ) ) ;
#108 = LINE ( 'NONE', #107, #106 ) ;
#109 = CARTESIAN_POINT ( 'NONE',  ( -5.033854622807866400, 0.0000000000000000000, -50.00000000000000000 ) ) ;
#110 = DIRECTION ( 'NONE',  ( 1.000000000000000000, 0.0000000000000000000, 0.0000000000000000000 ) ) ;
#111 = DIRECTION ( 'NONE',  ( -0.0000000000000000000, -0.0000000000000000000, 1.000000000000000000 ) ) ;
#112 = CARTESIAN_POINT ( 'NONE',  ( 0.0000000000000000000, 0.0000000000000000000, -50.00000000000000000 ) ) ;
#113 = AXIS2_PLACEMENT_3D ( 'NONE', #112, #111, #110 ) ;
#114 = CIRCLE ( 'NONE', #113, 5.033854622807866400 ) ;
#115 = CARTESIAN_POINT ( 'NONE',  ( 5.033854622807866400, 6.164490355308659800E-016, -50.00000000000000000 ) ) ;
#116 = VECTOR ( 'NONE', #196, 999.9999999999998900 ) ;
#117 = DIRECTION ( 'NONE',  ( -1.000000000000000000, 0.0000000000000000000, -0.0000000000000000000 ) ) ;
#118 = DIRECTION ( 'NONE',  ( 0.0000000000000000000, 0.0000000000000000000, -1.000000000000000000 ) ) ;
#119 = AXIS2_PLACEMENT_3D ( 'NONE', #122, #118, #117 ) ;
#120 = CONICAL_SURFACE ( 'NONE', #203, 5.033854622807866400, 0.7853981633974533900 ) ;
#121 = FACE_OUTER_BOUND ( 'NONE', #65, .T. ) ;
#122 = CARTESIAN_POINT ( 'NONE',  ( 0.0000000000000000000, 7.000000000000000000, -2.168404344971008900E-016 ) ) ;
#123 = PLANE ( 'NONE',  #119 ) ;
#124 = FACE_BOUND ( 'NONE', #150, .T. ) ;
#125 = FACE_OUTER_BOUND ( 'NONE', #61, .T. ) ;
#126 = DIRECTION ( 'NONE',  ( 1.000000000000000000, 0.0000000000000000000, 0.0000000000000000000 ) ) ;
#127 = DIRECTION ( 'NONE',  ( -0.0000000000000000000, -0.0000000000000000000, 1.000000000000000000 ) ) ;
#128 = AXIS2_PLACEMENT_3D ( 'NONE', #9, #127, #126 ) ;
#129 = DIRECTION ( 'NONE',  ( -0.7071067811865505700, 8.659274570719392400E-017, 0.7071067811865444600 ) ) ;
#130 = CARTESIAN_POINT ( 'NONE',  ( -4.863999999999999900, 5.956485304992042900E-016, -0.1698546228078260900 ) ) ;
#131 = LINE ( 'NONE', #130, #92 ) ;
#132 = SHAPE_DEFINITION_REPRESENTATION ( #133, #388 ) ;
#133 = PRODUCT_DEFINITION_SHAPE ( 'NONE', 'NONE',  #356 ) ;
#134 = ORIENTED_EDGE ( 'NONE', *, *, #183, .F. ) ;
#135 = ORIENTED_EDGE ( 'NONE', *, *, #74, .T. ) ;
#136 = ORIENTED_EDGE ( 'NONE', *, *, #59, .F. ) ;
#137 = ORIENTED_EDGE ( 'NONE', *, *, #160, .T. ) ;
#138 = ADVANCED_FACE ( 'NONE', ( #205 ), #383, .F. ) ;
#139 = EDGE_LOOP ( 'NONE', ( #143, #144, #140, #135, #136 ) ) ;
#140 = ORIENTED_EDGE ( 'NONE', *, *, #195, .T. ) ;
#141 = ORIENTED_EDGE ( 'NONE', *, *, #39, .F. ) ;
#142 = CLOSED_SHELL ( 'NONE', ( #64, #44, #100, #48, #154, #94, #60, #167, #180, #138 ) ) ;
#143 = ORIENTED_EDGE ( 'NONE', *, *, #68, .F. ) ;
#144 = ORIENTED_EDGE ( 'NONE', *, *, #186, .T. ) ;
#145 = ORIENTED_EDGE ( 'NONE', *, *, #170, .F. ) ;
#146 = ORIENTED_EDGE ( 'NONE', *, *, #97, .T. ) ;
#147 = ORIENTED_EDGE ( 'NONE', *, *, #50, .F. ) ;
#148 = ORIENTED_EDGE ( 'NONE', *, *, #149, .F. ) ;
#149 = EDGE_CURVE ( 'NONE', #51, #56, #379, .T. ) ;
#150 = EDGE_LOOP ( 'NONE', ( #159, #166 ) ) ;
#151 = ORIENTED_EDGE ( 'NONE', *, *, #158, .F. ) ;
#152 = EDGE_LOOP ( 'NONE', ( #46, #101, #189, #192 ) ) ;
#153 = EDGE_CURVE ( 'NONE', #171, #164, #374, .T. ) ;
#154 = ADVANCED_FACE ( 'NONE', ( #370 ), #368, .F. ) ;
#155 = EDGE_LOOP ( 'NONE', ( #156, #157, #182, #184, #185, #93 ) ) ;
#156 = ORIENTED_EDGE ( 'NONE', *, *, #161, .F. ) ;
#157 = ORIENTED_EDGE ( 'NONE', *, *, #158, .T. ) ;
#158 = EDGE_CURVE ( 'NONE', #41, #99, #274, .T. ) ;
#159 = ORIENTED_EDGE ( 'NONE', *, *, #160, .F. ) ;
#160 = EDGE_CURVE ( 'NONE', #55, #66, #266, .T. ) ;
#161 = EDGE_CURVE ( 'NONE', #41, #174, #261, .T. ) ;
#162 = ORIENTED_EDGE ( 'NONE', *, *, #75, .F. ) ;
#163 = ORIENTED_EDGE ( 'NONE', *, *, #195, .F. ) ;
#164 = VERTEX_POINT ( 'NONE', #257 ) ;
#165 = ORIENTED_EDGE ( 'NONE', *, *, #54, .T. ) ;
#166 = ORIENTED_EDGE ( 'NONE', *, *, #54, .F. ) ;
#167 = ADVANCED_FACE ( 'NONE', ( #256 ), #254, .T. ) ;
#168 = ORIENTED_EDGE ( 'NONE', *, *, #153, .F. ) ;
#169 = ORIENTED_EDGE ( 'NONE', *, *, #170, .T. ) ;
#170 = EDGE_CURVE ( 'NONE', #171, #40, #305, .T. ) ;
#171 = VERTEX_POINT ( 'NONE', #300 ) ;
#172 = ORIENTED_EDGE ( 'NONE', *, *, #173, .T. ) ;
#173 = EDGE_CURVE ( 'NONE', #174, #175, #299, .T. ) ;
#174 = VERTEX_POINT ( 'NONE', #294 ) ;
#175 = VERTEX_POINT ( 'NONE', #293 ) ;
#176 = EDGE_LOOP ( 'NONE', ( #57, #58 ) ) ;
#177 = ORIENTED_EDGE ( 'NONE', *, *, #149, .T. ) ;
#178 = ORIENTED_EDGE ( 'NONE', *, *, #47, .T. ) ;
#179 = ORIENTED_EDGE ( 'NONE', *, *, #53, .F. ) ;
#180 = ADVANCED_FACE ( 'NONE', ( #292 ), #289, .F. ) ;
#181 = EDGE_LOOP ( 'NONE', ( #141, #145, #134, #146, #137 ) ) ;
#182 = ORIENTED_EDGE ( 'NONE', *, *, #183, .T. ) ;
#183 = EDGE_CURVE ( 'NONE', #99, #171, #290, .T. ) ;
#184 = ORIENTED_EDGE ( 'NONE', *, *, #153, .T. ) ;
#185 = ORIENTED_EDGE ( 'NONE', *, *, #186, .F. ) ;
#186 = EDGE_CURVE ( 'NONE', #175, #164, #338, .T. ) ;
#187 = EDGE_LOOP ( 'NONE', ( #188, #177, #178, #179 ) ) ;
#188 = ORIENTED_EDGE ( 'NONE', *, *, #98, .F. ) ;
#189 = ORIENTED_EDGE ( 'NONE', *, *, #190, .F. ) ;
#190 = EDGE_CURVE ( 'NONE', #191, #102, #334, .T. ) ;
#191 = VERTEX_POINT ( 'NONE', #329 ) ;
#192 = ORIENTED_EDGE ( 'NONE', *, *, #47, .F. ) ;
#193 = ORIENTED_EDGE ( 'NONE', *, *, #43, .T. ) ;
#194 = ORIENTED_EDGE ( 'NONE', *, *, #161, .T. ) ;
#195 = EDGE_CURVE ( 'NONE', #164, #76, #221, .T. ) ;
#196 = DIRECTION ( 'NONE',  ( 0.7071067811865511300, 8.659274570719401000E-017, -0.7071067811865440200 ) ) ;
#197 = CARTESIAN_POINT ( 'NONE',  ( 5.033854622807866400, 6.164490355308659800E-016, -50.00000000000000000 ) ) ;
#198 = LINE ( 'NONE', #197, #116 ) ;
#199 = DIRECTION ( 'NONE',  ( -1.000000000000000000, 0.0000000000000000000, 0.0000000000000000000 ) ) ;
#200 = DIRECTION ( 'NONE',  ( 0.0000000000000000000, 0.0000000000000000000, -1.000000000000000000 ) ) ;
#201 = CARTESIAN_POINT ( 'NONE',  ( 0.0000000000000000000, 0.0000000000000000000, -50.00000000000000000 ) ) ;
#202 = CARTESIAN_POINT ( 'NONE',  ( -5.033854622807828200, 6.164490355308612500E-016, 0.0000000000000000000 ) ) ;
#203 = AXIS2_PLACEMENT_3D ( 'NONE', #201, #200, #199 ) ;
#204 = CARTESIAN_POINT ( 'NONE',  ( 0.0000000000000000000, 0.0000000000000000000, -50.00000000000000000 ) ) ;
#205 = FACE_OUTER_BOUND ( 'NONE', #139, .T. ) ;
#206 = DIRECTION ( 'NONE',  ( 1.000000000000000000, 0.0000000000000000000, 0.0000000000000000000 ) ) ;
#207 = DIRECTION ( 'NONE',  ( -0.0000000000000000000, -0.0000000000000000000, 1.000000000000000000 ) ) ;
#208 = CARTESIAN_POINT ( 'NONE',  ( 0.0000000000000000000, 0.0000000000000000000, -4.336808689942017700E-016 ) ) ;
#209 = AXIS2_PLACEMENT_3D ( 'NONE', #208, #207, #206 ) ;
#210 = CARTESIAN_POINT ( 'NONE',  ( -7.000000000000000000, 8.572244476756640800E-016, 0.0000000000000000000 ) ) ;
#211 = DIRECTION ( 'NONE',  ( 0.7071067811865505700, 0.0000000000000000000, 0.7071067811865444600 ) ) ;
#212 = VECTOR ( 'NONE', #211, 1000.000000000000000 ) ;
#213 = CARTESIAN_POINT ( 'NONE',  ( 4.863999999999999900, 0.0000000000000000000, -0.1698546228078260900 ) ) ;
#214 = LINE ( 'NONE', #213, #212 ) ;
#215 =( LENGTH_UNIT ( ) NAMED_UNIT ( * ) SI_UNIT ( .MILLI., .METRE. ) );
#216 = CARTESIAN_POINT ( 'NONE',  ( 0.0000000000000000000, 0.0000000000000000000, 0.0000000000000000000 ) ) ;
#217 = DIRECTION ( 'NONE',  ( 1.000000000000000000, 0.0000000000000000000, 0.0000000000000000000 ) ) ;
#218 = DIRECTION ( 'NONE',  ( -0.0000000000000000000, -0.0000000000000000000, 1.000000000000000000 ) ) ;
#219 = CARTESIAN_POINT ( 'NONE',  ( 0.0000000000000000000, 0.0000000000000000000, -49.83014537719213900 ) ) ;
#220 = AXIS2_PLACEMENT_3D ( 'NONE', #219, #218, #217 ) ;
#221 = CIRCLE ( 'NONE', #220, 4.863999999999999900 ) ;
#222 = APPROVAL ( #223, 'UNSPECIFIED' ) ;
#223 = APPROVAL_STATUS ( 'not_yet_approved' ) ;
#224 = PERSON_AND_ORGANIZATION ( #364, #363 ) ;
#225 = CC_DESIGN_DATE_AND_TIME_ASSIGNMENT ( #227, #226, ( #234 ) ) ;
#226 = DATE_TIME_ROLE ( 'classification_date' ) ;
#227 = DATE_AND_TIME ( #228, #229 ) ;
#228 = CALENDAR_DATE ( 2015, 11, 8 ) ;
#229 = LOCAL_TIME ( 11, 23, 24.00000000000000000, #230 ) ;
#230 = COORDINATED_UNIVERSAL_TIME_OFFSET ( 1, 0, .AHEAD. ) ;
#231 = CC_DESIGN_PERSON_AND_ORGANIZATION_ASSIGNMENT ( #233, #232, ( #234 ) ) ;
#232 = PERSON_AND_ORGANIZATION_ROLE ( 'classification_officer' ) ;
#233 = PERSON_AND_ORGANIZATION ( #364, #363 ) ;
#234 = SECURITY_CLASSIFICATION ( '', '', #235 ) ;
#235 = SECURITY_CLASSIFICATION_LEVEL ( 'unclassified' ) ;
#236 = CC_DESIGN_PERSON_AND_ORGANIZATION_ASSIGNMENT ( #238, #237, ( #317 ) ) ;
#237 = PERSON_AND_ORGANIZATION_ROLE ( 'design_supplier' ) ;
#238 = PERSON_AND_ORGANIZATION ( #364, #363 ) ;
#239 = CC_DESIGN_PERSON_AND_ORGANIZATION_ASSIGNMENT ( #241, #240, ( #317 ) ) ;
#240 = PERSON_AND_ORGANIZATION_ROLE ( 'creator' ) ;
#241 = PERSON_AND_ORGANIZATION ( #364, #363 ) ;
#242 = CC_DESIGN_APPROVAL ( #314, ( #317 ) ) ;
#243 = APPROVAL_DATE_TIME ( #244, #314 ) ;
#244 = DATE_AND_TIME ( #245, #310 ) ;
#245 = CALENDAR_DATE ( 2015, 11, 8 ) ;
#246 = DIRECTION ( 'NONE',  ( -0.0000000000000000000, -0.0000000000000000000, 1.000000000000000000 ) ) ;
#247 = CARTESIAN_POINT ( 'NONE',  ( 0.0000000000000000000, 0.0000000000000000000, -49.83014537719213900 ) ) ;
#248 = CIRCLE ( 'NONE', #339, 4.863999999999999900 ) ;
#249 = DIRECTION ( 'NONE',  ( 1.000000000000000000, 0.0000000000000000000, 0.0000000000000000000 ) ) ;
#250 = UNCERTAINTY_MEASURE_WITH_UNIT (LENGTH_MEASURE( 1.000000000000000100E-005 ), #215, 'distance_accuracy_value', 'NONE');
#251 =( NAMED_UNIT ( * ) SI_UNIT ( $, .STERADIAN. ) SOLID_ANGLE_UNIT ( ) );
#252 =( NAMED_UNIT ( * ) PLANE_ANGLE_UNIT ( ) SI_UNIT ( $, .RADIAN. ) );
#253 = CARTESIAN_POINT ( 'NONE',  ( 0.0000000000000000000, 0.0000000000000000000, -4.336808689942017700E-016 ) ) ;
#254 = CYLINDRICAL_SURFACE ( 'NONE', #307, 7.000000000000000000 ) ;
#255 = DIRECTION ( 'NONE',  ( -0.0000000000000000000, -0.0000000000000000000, 1.000000000000000000 ) ) ;
#256 = FACE_OUTER_BOUND ( 'NONE', #187, .T. ) ;
#257 = CARTESIAN_POINT ( 'NONE',  ( 0.0000000000000000000, 4.863999999999999900, -49.83014537719213900 ) ) ;
#258 = DIRECTION ( 'NONE',  ( -0.0000000000000000000, 1.085776366117874700E-016, -1.000000000000000000 ) ) ;
#259 = VECTOR ( 'NONE', #258, 1000.000000000000000 ) ;
#260 = CARTESIAN_POINT ( 'NONE',  ( 5.956485304992049800E-016, -4.864000000000003400, -50.00000000000001400 ) ) ;
#261 = LINE ( 'NONE', #260, #259 ) ;
#262 = DIRECTION ( 'NONE',  ( 1.000000000000000000, 0.0000000000000000000, 0.0000000000000000000 ) ) ;
#263 = DIRECTION ( 'NONE',  ( -0.0000000000000000000, -0.0000000000000000000, 1.000000000000000000 ) ) ;
#264 = CARTESIAN_POINT ( 'NONE',  ( 0.0000000000000000000, 0.0000000000000000000, 0.0000000000000000000 ) ) ;
#265 = AXIS2_PLACEMENT_3D ( 'NONE', #264, #263, #262 ) ;
#266 = CIRCLE ( 'NONE', #265, 5.033854622807828200 ) ;
#267 = DIRECTION ( 'NONE',  ( 1.000000000000000000, 0.0000000000000000000, 0.0000000000000000000 ) ) ;
#268 = DIRECTION ( 'NONE',  ( -0.0000000000000000000, -0.0000000000000000000, 1.000000000000000000 ) ) ;
#269 = CARTESIAN_POINT ( 'NONE',  ( 0.0000000000000000000, 0.0000000000000000000, -0.1698546228078260900 ) ) ;
#270 = AXIS2_PLACEMENT_3D ( 'NONE', #269, #268, #267 ) ;
#271 = DIRECTION ( 'NONE',  ( 0.0000000000000000000, 1.000000000000000000, 0.0000000000000000000 ) ) ;
#272 = DIRECTION ( 'NONE',  ( -0.0000000000000000000, 1.085776366117874700E-016, -1.000000000000000000 ) ) ;
#273 = CARTESIAN_POINT ( 'NONE',  ( 0.0000000000000000000, 1.959434878635760800E-015, -50.00000000000001400 ) ) ;
#274 = CIRCLE ( 'NONE', #270, 4.863999999999999900 ) ;
#275 = FACE_BOUND ( 'NONE', #176, .T. ) ;
#276 = FACE_OUTER_BOUND ( 'NONE', #95, .T. ) ;
#277 = CARTESIAN_POINT ( 'NONE',  ( -4.863999999999999900, 0.0000000000000000000, -49.83014537719213900 ) ) ;
#278 = DIRECTION ( 'NONE',  ( 1.000000000000000000, 0.0000000000000000000, 0.0000000000000000000 ) ) ;
#279 = DIRECTION ( 'NONE',  ( 0.0000000000000000000, -0.0000000000000000000, 1.000000000000000000 ) ) ;
#280 = AXIS2_PLACEMENT_3D ( 'NONE', #308, #279, #278 ) ;
#281 = DIRECTION ( 'NONE',  ( 1.000000000000000000, 0.0000000000000000000, 0.0000000000000000000 ) ) ;
#282 = DIRECTION ( 'NONE',  ( -0.0000000000000000000, -0.0000000000000000000, 1.000000000000000000 ) ) ;
#283 = CARTESIAN_POINT ( 'NONE',  ( 0.0000000000000000000, 0.0000000000000000000, -0.1698546228078260900 ) ) ;
#284 = AXIS2_PLACEMENT_3D ( 'NONE', #283, #282, #281 ) ;
#285 = CARTESIAN_POINT ( 'NONE',  ( 0.0000000000000000000, 0.0000000000000000000, -49.83014537719213900 ) ) ;
#286 = DIRECTION ( 'NONE',  ( 1.000000000000000000, 0.0000000000000000000, 0.0000000000000000000 ) ) ;
#287 = DIRECTION ( 'NONE',  ( -0.0000000000000000000, -0.0000000000000000000, 1.000000000000000000 ) ) ;
#288 = AXIS2_PLACEMENT_3D ( 'NONE', #291, #287, #286 ) ;
#289 = CONICAL_SURFACE ( 'NONE', #288, 4.863999999999999900, 0.7853981633974526100 ) ;
#290 = CIRCLE ( 'NONE', #284, 4.863999999999999900 ) ;
#291 = CARTESIAN_POINT ( 'NONE',  ( 0.0000000000000000000, 0.0000000000000000000, -0.1698546228078260900 ) ) ;
#292 = FACE_OUTER_BOUND ( 'NONE', #181, .T. ) ;
#293 = CARTESIAN_POINT ( 'NONE',  ( 4.863999999999999900, 6.060487830150351400E-016, -49.83014537719213900 ) ) ;
#294 = CARTESIAN_POINT ( 'NONE',  ( 5.956485304992047800E-016, -4.863999999999999900, -49.83014537719213900 ) ) ;
#295 = DIRECTION ( 'NONE',  ( 1.000000000000000000, 0.0000000000000000000, 0.0000000000000000000 ) ) ;
#296 = DIRECTION ( 'NONE',  ( -0.0000000000000000000, -0.0000000000000000000, 1.000000000000000000 ) ) ;
#297 = CARTESIAN_POINT ( 'NONE',  ( 0.0000000000000000000, 0.0000000000000000000, -49.83014537719213900 ) ) ;
#298 = AXIS2_PLACEMENT_3D ( 'NONE', #297, #296, #295 ) ;
#299 = CIRCLE ( 'NONE', #298, 4.863999999999999900 ) ;
#300 = CARTESIAN_POINT ( 'NONE',  ( 0.0000000000000000000, 4.863999999999999900, -0.1698546228078260900 ) ) ;
#301 = DIRECTION ( 'NONE',  ( 1.000000000000000000, 0.0000000000000000000, 0.0000000000000000000 ) ) ;
#302 = DIRECTION ( 'NONE',  ( -0.0000000000000000000, -0.0000000000000000000, 1.000000000000000000 ) ) ;
#303 = CARTESIAN_POINT ( 'NONE',  ( 0.0000000000000000000, 0.0000000000000000000, -0.1698546228078260900 ) ) ;
#304 = AXIS2_PLACEMENT_3D ( 'NONE', #303, #302, #301 ) ;
#305 = CIRCLE ( 'NONE', #304, 4.863999999999999900 ) ;
#306 = DIRECTION ( 'NONE',  ( 1.000000000000000000, 0.0000000000000000000, 0.0000000000000000000 ) ) ;
#307 = AXIS2_PLACEMENT_3D ( 'NONE', #253, #255, #306 ) ;
#308 = CARTESIAN_POINT ( 'NONE',  ( 0.0000000000000000000, 7.000000000000000000, -50.00000000000000000 ) ) ;
#309 = PLANE ( 'NONE',  #280 ) ;
#310 = LOCAL_TIME ( 11, 23, 24.00000000000000000, #311 ) ;
#311 = COORDINATED_UNIVERSAL_TIME_OFFSET ( 1, 0, .AHEAD. ) ;
#312 = APPROVAL_PERSON_ORGANIZATION ( #316, #314, #313 ) ;
#313 = APPROVAL_ROLE ( '' ) ;
#314 = APPROVAL ( #315, 'UNSPECIFIED' ) ;
#315 = APPROVAL_STATUS ( 'not_yet_approved' ) ;
#316 = PERSON_AND_ORGANIZATION ( #364, #363 ) ;
#317 = PRODUCT_DEFINITION_FORMATION_WITH_SPECIFIED_SOURCE ( 'ANY', '', #365, .NOT_KNOWN. ) ;
#318 = CC_DESIGN_DATE_AND_TIME_ASSIGNMENT ( #320, #319, ( #356 ) ) ;
#319 = DATE_TIME_ROLE ( 'creation_date' ) ;
#320 = DATE_AND_TIME ( #321, #340 ) ;
#321 = CALENDAR_DATE ( 2015, 11, 8 ) ;
#322 = CYLINDRICAL_SURFACE ( 'NONE', #209, 7.000000000000000000 ) ;
#323 = FACE_OUTER_BOUND ( 'NONE', #152, .T. ) ;
#324 = CARTESIAN_POINT ( 'NONE',  ( 4.863999999999999900, 0.0000000000000000000, -0.1698546228078260900 ) ) ;
#325 = DIRECTION ( 'NONE',  ( -0.0000000000000000000, -0.0000000000000000000, 1.000000000000000000 ) ) ;
#326 = VECTOR ( 'NONE', #325, 1000.000000000000000 ) ;
#327 = CARTESIAN_POINT ( 'NONE',  ( -7.000000000000000000, 8.572244476756640800E-016, -4.336808689942017700E-016 ) ) ;
#328 = LINE ( 'NONE', #327, #326 ) ;
#329 = CARTESIAN_POINT ( 'NONE',  ( 7.000000000000000000, 0.0000000000000000000, 0.0000000000000000000 ) ) ;
#330 = DIRECTION ( 'NONE',  ( 1.000000000000000000, 0.0000000000000000000, 0.0000000000000000000 ) ) ;
#331 = DIRECTION ( 'NONE',  ( -0.0000000000000000000, -0.0000000000000000000, 1.000000000000000000 ) ) ;
#332 = CARTESIAN_POINT ( 'NONE',  ( 0.0000000000000000000, 0.0000000000000000000, 0.0000000000000000000 ) ) ;
#333 = AXIS2_PLACEMENT_3D ( 'NONE', #332, #331, #330 ) ;
#334 = CIRCLE ( 'NONE', #333, 7.000000000000000000 ) ;
#335 = DIRECTION ( 'NONE',  ( 1.000000000000000000, 0.0000000000000000000, 0.0000000000000000000 ) ) ;
#336 = DIRECTION ( 'NONE',  ( -0.0000000000000000000, -0.0000000000000000000, 1.000000000000000000 ) ) ;
#337 = AXIS2_PLACEMENT_3D ( 'NONE', #285, #336, #335 ) ;
#338 = CIRCLE ( 'NONE', #337, 4.863999999999999900 ) ;
#339 = AXIS2_PLACEMENT_3D ( 'NONE', #247, #246, #249 ) ;
#340 = LOCAL_TIME ( 11, 23, 24.00000000000000000, #341 ) ;
#341 = COORDINATED_UNIVERSAL_TIME_OFFSET ( 1, 0, .AHEAD. ) ;
#342 = CC_DESIGN_PERSON_AND_ORGANIZATION_ASSIGNMENT ( #344, #343, ( #356 ) ) ;
#343 = PERSON_AND_ORGANIZATION_ROLE ( 'creator' ) ;
#344 = PERSON_AND_ORGANIZATION ( #364, #363 ) ;
#345 = CC_DESIGN_APPROVAL ( #353, ( #356 ) ) ;
#346 = APPROVAL_DATE_TIME ( #347, #353 ) ;
#347 = DATE_AND_TIME ( #348, #349 ) ;
#348 = CALENDAR_DATE ( 2015, 11, 8 ) ;
#349 = LOCAL_TIME ( 11, 23, 24.00000000000000000, #350 ) ;
#350 = COORDINATED_UNIVERSAL_TIME_OFFSET ( 1, 0, .AHEAD. ) ;
#351 = APPROVAL_PERSON_ORGANIZATION ( #355, #353, #352 ) ;
#352 = APPROVAL_ROLE ( '' ) ;
#353 = APPROVAL ( #354, 'UNSPECIFIED' ) ;
#354 = APPROVAL_STATUS ( 'not_yet_approved' ) ;
#355 = PERSON_AND_ORGANIZATION ( #364, #363 ) ;
#356 = PRODUCT_DEFINITION ( 'UNKNOWN', '', #317, #357 ) ;
#357 = DESIGN_CONTEXT ( 'detailed design', #359, 'design' ) ;
#358 = APPLICATION_PROTOCOL_DEFINITION ( 'international standard', 'config_control_design', 1994, #359 ) ;
#359 = APPLICATION_CONTEXT ( 'configuration controlled 3d designs of mechanical parts and assemblies' ) ;
#360 = CC_DESIGN_PERSON_AND_ORGANIZATION_ASSIGNMENT ( #362, #361, ( #365 ) ) ;
#361 = PERSON_AND_ORGANIZATION_ROLE ( 'design_owner' ) ;
#362 = PERSON_AND_ORGANIZATION ( #364, #363 ) ;
#363 = ORGANIZATION ( 'UNSPECIFIED', 'UNSPECIFIED', '' ) ;
#364 = PERSON ( 'UNSPECIFIED', 'UNSPECIFIED', 'UNSPECIFIED', ('UNSPECIFIED'), ('UNSPECIFIED'), ('UNSPECIFIED') ) ;
#365 = PRODUCT ( '19-0402-21_outokumpu', '19-0402-21_outokumpu', '', ( #366 ) ) ;
#366 = MECHANICAL_CONTEXT ( 'NONE', #387, 'mechanical' ) ;
#367 = APPLICATION_PROTOCOL_DEFINITION ( 'international standard', 'config_control_design', 1994, #387 ) ;
#368 = CYLINDRICAL_SURFACE ( 'NONE', #369, 4.864000000000005200 ) ;
#369 = AXIS2_PLACEMENT_3D ( 'NONE', #273, #272, #271 ) ;
#370 = FACE_OUTER_BOUND ( 'NONE', #155, .T. ) ;
#371 = DIRECTION ( 'NONE',  ( -0.0000000000000000000, 1.085776366117874700E-016, -1.000000000000000000 ) ) ;
#372 = VECTOR ( 'NONE', #371, 1000.000000000000000 ) ;
#373 = CARTESIAN_POINT ( 'NONE',  ( 0.0000000000000000000, 4.864000000000007000, -50.00000000000001400 ) ) ;
#374 = LINE ( 'NONE', #373, #372 ) ;
#375 = DIRECTION ( 'NONE',  ( 1.000000000000000000, 0.0000000000000000000, 0.0000000000000000000 ) ) ;
#376 = DIRECTION ( 'NONE',  ( -0.0000000000000000000, -0.0000000000000000000, 1.000000000000000000 ) ) ;
#377 = CARTESIAN_POINT ( 'NONE',  ( 0.0000000000000000000, 0.0000000000000000000, -50.00000000000000000 ) ) ;
#378 = AXIS2_PLACEMENT_3D ( 'NONE', #377, #376, #375 ) ;
#379 = CIRCLE ( 'NONE', #378, 7.000000000000000000 ) ;
#380 = DIRECTION ( 'NONE',  ( -1.000000000000000000, 0.0000000000000000000, 0.0000000000000000000 ) ) ;
#381 = DIRECTION ( 'NONE',  ( 0.0000000000000000000, 0.0000000000000000000, -1.000000000000000000 ) ) ;
#382 = AXIS2_PLACEMENT_3D ( 'NONE', #204, #381, #380 ) ;
#383 = CONICAL_SURFACE ( 'NONE', #382, 5.033854622807866400, 0.7853981633974533900 ) ;
#384 = AXIS2_PLACEMENT_3D ( 'NONE', #216, #386, #385 ) ;
#385 = DIRECTION ( 'NONE',  ( 1.000000000000000000, 0.0000000000000000000, 0.0000000000000000000 ) ) ;
#386 = DIRECTION ( 'NONE',  ( 0.0000000000000000000, 0.0000000000000000000, 1.000000000000000000 ) ) ;
#387 = APPLICATION_CONTEXT ( 'configuration controlled 3d designs of mechanical parts and assemblies' ) ;
#388 = ADVANCED_BREP_SHAPE_REPRESENTATION ( '19-0402-21_outokumpu', ( #63, #384 ), #389 ) ;
#389 =( GEOMETRIC_REPRESENTATION_CONTEXT ( 3 ) GLOBAL_UNCERTAINTY_ASSIGNED_CONTEXT ( ( #250 ) ) GLOBAL_UNIT_ASSIGNED_CONTEXT ( ( #215, #252, #251 ) ) REPRESENTATION_CONTEXT ( 'NONE', 'WORKASPACE' ) );
ENDSEC;
END-ISO-10303-21;
