ISO-10303-21;
HEADER;
/* Generated by software containing ST-Developer
 * from STEP Tools, Inc. (www.steptools.com) 
 */

FILE_DESCRIPTION(
/* description */ ('"S" DI SCAVALCAMENTO \X\D815 (De12)'),
/* implementation_level */ '2;1');

FILE_NAME(
/* name */ 
'R:\\Disegni3D_Area_Manager\\Inoxpres.step\\179_INOXPRES\\179015000_In
oxpres.stp',
/* time_stamp */ '2022-10-13T10:50:11+02:00',
/* author */ ('Vault'),
/* organization */ ('Raccorderie metalliche s.p.a. '),
/* preprocessor_version */ 'ST-DEVELOPER v18.1',
/* originating_system */ 'Autodesk Inventor 2020',
/* authorisation */ 'Raccorderie metalliche s.p.a. ');

FILE_SCHEMA (('AUTOMOTIVE_DESIGN { 1 0 10303 214 3 1 1 }'));
ENDSEC;

DATA;
#10=MECHANICAL_DESIGN_GEOMETRIC_PRESENTATION_REPRESENTATION('',(#13),#375);
#11=SHAPE_REPRESENTATION_RELATIONSHIP('SRR','None',#382,#12);
#12=ADVANCED_BREP_SHAPE_REPRESENTATION('',(#14),#374);
#13=STYLED_ITEM('',(#391),#14);
#14=MANIFOLD_SOLID_BREP('Solido1',#193);
#15=FACE_BOUND('',#46,.T.);
#16=FACE_BOUND('',#48,.T.);
#17=PLANE('',#243);
#18=PLANE('',#244);
#19=TOROIDAL_SURFACE('',#217,37.,6.5);
#20=TOROIDAL_SURFACE('',#223,37.,6.5);
#21=TOROIDAL_SURFACE('',#232,37.,7.5);
#22=TOROIDAL_SURFACE('',#238,37.,7.5);
#23=FACE_OUTER_BOUND('',#35,.T.);
#24=FACE_OUTER_BOUND('',#36,.T.);
#25=FACE_OUTER_BOUND('',#37,.T.);
#26=FACE_OUTER_BOUND('',#38,.T.);
#27=FACE_OUTER_BOUND('',#39,.T.);
#28=FACE_OUTER_BOUND('',#40,.T.);
#29=FACE_OUTER_BOUND('',#41,.T.);
#30=FACE_OUTER_BOUND('',#42,.T.);
#31=FACE_OUTER_BOUND('',#43,.T.);
#32=FACE_OUTER_BOUND('',#44,.T.);
#33=FACE_OUTER_BOUND('',#45,.T.);
#34=FACE_OUTER_BOUND('',#47,.T.);
#35=EDGE_LOOP('',(#123,#124,#125,#126,#127));
#36=EDGE_LOOP('',(#128,#129,#130,#131,#132,#133));
#37=EDGE_LOOP('',(#134,#135,#136,#137,#138));
#38=EDGE_LOOP('',(#139,#140,#141,#142));
#39=EDGE_LOOP('',(#143,#144,#145,#146));
#40=EDGE_LOOP('',(#147,#148,#149,#150,#151));
#41=EDGE_LOOP('',(#152,#153,#154,#155,#156,#157));
#42=EDGE_LOOP('',(#158,#159,#160,#161,#162));
#43=EDGE_LOOP('',(#163,#164,#165,#166));
#44=EDGE_LOOP('',(#167,#168,#169,#170));
#45=EDGE_LOOP('',(#171));
#46=EDGE_LOOP('',(#172));
#47=EDGE_LOOP('',(#173));
#48=EDGE_LOOP('',(#174));
#49=LINE('',#324,#55);
#50=LINE('',#335,#56);
#51=LINE('',#343,#57);
#52=LINE('',#348,#58);
#53=LINE('',#360,#59);
#54=LINE('',#368,#60);
#55=VECTOR('',#253,6.5);
#56=VECTOR('',#268,6.5);
#57=VECTOR('',#279,6.5);
#58=VECTOR('',#284,7.5);
#59=VECTOR('',#299,7.5);
#60=VECTOR('',#310,7.5);
#61=CIRCLE('',#214,6.5);
#62=CIRCLE('',#215,6.5);
#63=CIRCLE('',#216,6.5);
#64=CIRCLE('',#218,6.5);
#65=CIRCLE('',#219,30.5);
#66=CIRCLE('',#220,6.5);
#67=CIRCLE('',#222,6.5);
#68=CIRCLE('',#224,6.5);
#69=CIRCLE('',#225,30.5);
#70=CIRCLE('',#227,6.5);
#71=CIRCLE('',#229,7.5);
#72=CIRCLE('',#230,7.5);
#73=CIRCLE('',#231,7.5);
#74=CIRCLE('',#233,29.5);
#75=CIRCLE('',#234,7.5);
#76=CIRCLE('',#235,7.5);
#77=CIRCLE('',#237,7.5);
#78=CIRCLE('',#239,29.5);
#79=CIRCLE('',#240,7.5);
#80=CIRCLE('',#242,7.5);
#81=VERTEX_POINT('',#319);
#82=VERTEX_POINT('',#320);
#83=VERTEX_POINT('',#323);
#84=VERTEX_POINT('',#327);
#85=VERTEX_POINT('',#328);
#86=VERTEX_POINT('',#333);
#87=VERTEX_POINT('',#337);
#88=VERTEX_POINT('',#341);
#89=VERTEX_POINT('',#345);
#90=VERTEX_POINT('',#347);
#91=VERTEX_POINT('',#349);
#92=VERTEX_POINT('',#353);
#93=VERTEX_POINT('',#355);
#94=VERTEX_POINT('',#359);
#95=VERTEX_POINT('',#363);
#96=VERTEX_POINT('',#367);
#97=EDGE_CURVE('',#81,#82,#61,.T.);
#98=EDGE_CURVE('',#82,#81,#62,.T.);
#99=EDGE_CURVE('',#81,#83,#49,.T.);
#100=EDGE_CURVE('',#83,#83,#63,.T.);
#101=EDGE_CURVE('',#84,#85,#64,.T.);
#102=EDGE_CURVE('',#85,#82,#65,.T.);
#103=EDGE_CURVE('',#85,#84,#66,.T.);
#104=EDGE_CURVE('',#86,#86,#67,.T.);
#105=EDGE_CURVE('',#86,#84,#50,.T.);
#106=EDGE_CURVE('',#87,#87,#68,.T.);
#107=EDGE_CURVE('',#87,#86,#69,.T.);
#108=EDGE_CURVE('',#88,#88,#70,.T.);
#109=EDGE_CURVE('',#88,#87,#51,.T.);
#110=EDGE_CURVE('',#89,#89,#71,.T.);
#111=EDGE_CURVE('',#89,#90,#52,.T.);
#112=EDGE_CURVE('',#91,#90,#72,.T.);
#113=EDGE_CURVE('',#90,#91,#73,.T.);
#114=EDGE_CURVE('',#91,#92,#74,.T.);
#115=EDGE_CURVE('',#93,#92,#75,.T.);
#116=EDGE_CURVE('',#92,#93,#76,.T.);
#117=EDGE_CURVE('',#93,#94,#53,.T.);
#118=EDGE_CURVE('',#94,#94,#77,.T.);
#119=EDGE_CURVE('',#94,#95,#78,.T.);
#120=EDGE_CURVE('',#95,#95,#79,.T.);
#121=EDGE_CURVE('',#95,#96,#54,.T.);
#122=EDGE_CURVE('',#96,#96,#80,.T.);
#123=ORIENTED_EDGE('',*,*,#97,.T.);
#124=ORIENTED_EDGE('',*,*,#98,.T.);
#125=ORIENTED_EDGE('',*,*,#99,.T.);
#126=ORIENTED_EDGE('',*,*,#100,.F.);
#127=ORIENTED_EDGE('',*,*,#99,.F.);
#128=ORIENTED_EDGE('',*,*,#101,.T.);
#129=ORIENTED_EDGE('',*,*,#102,.T.);
#130=ORIENTED_EDGE('',*,*,#97,.F.);
#131=ORIENTED_EDGE('',*,*,#98,.F.);
#132=ORIENTED_EDGE('',*,*,#102,.F.);
#133=ORIENTED_EDGE('',*,*,#103,.T.);
#134=ORIENTED_EDGE('',*,*,#104,.T.);
#135=ORIENTED_EDGE('',*,*,#105,.T.);
#136=ORIENTED_EDGE('',*,*,#103,.F.);
#137=ORIENTED_EDGE('',*,*,#101,.F.);
#138=ORIENTED_EDGE('',*,*,#105,.F.);
#139=ORIENTED_EDGE('',*,*,#106,.T.);
#140=ORIENTED_EDGE('',*,*,#107,.T.);
#141=ORIENTED_EDGE('',*,*,#104,.F.);
#142=ORIENTED_EDGE('',*,*,#107,.F.);
#143=ORIENTED_EDGE('',*,*,#108,.F.);
#144=ORIENTED_EDGE('',*,*,#109,.T.);
#145=ORIENTED_EDGE('',*,*,#106,.F.);
#146=ORIENTED_EDGE('',*,*,#109,.F.);
#147=ORIENTED_EDGE('',*,*,#110,.T.);
#148=ORIENTED_EDGE('',*,*,#111,.T.);
#149=ORIENTED_EDGE('',*,*,#112,.F.);
#150=ORIENTED_EDGE('',*,*,#113,.F.);
#151=ORIENTED_EDGE('',*,*,#111,.F.);
#152=ORIENTED_EDGE('',*,*,#113,.T.);
#153=ORIENTED_EDGE('',*,*,#114,.T.);
#154=ORIENTED_EDGE('',*,*,#115,.F.);
#155=ORIENTED_EDGE('',*,*,#116,.F.);
#156=ORIENTED_EDGE('',*,*,#114,.F.);
#157=ORIENTED_EDGE('',*,*,#112,.T.);
#158=ORIENTED_EDGE('',*,*,#115,.T.);
#159=ORIENTED_EDGE('',*,*,#116,.T.);
#160=ORIENTED_EDGE('',*,*,#117,.T.);
#161=ORIENTED_EDGE('',*,*,#118,.F.);
#162=ORIENTED_EDGE('',*,*,#117,.F.);
#163=ORIENTED_EDGE('',*,*,#118,.T.);
#164=ORIENTED_EDGE('',*,*,#119,.T.);
#165=ORIENTED_EDGE('',*,*,#120,.F.);
#166=ORIENTED_EDGE('',*,*,#119,.F.);
#167=ORIENTED_EDGE('',*,*,#120,.T.);
#168=ORIENTED_EDGE('',*,*,#121,.T.);
#169=ORIENTED_EDGE('',*,*,#122,.T.);
#170=ORIENTED_EDGE('',*,*,#121,.F.);
#171=ORIENTED_EDGE('',*,*,#122,.F.);
#172=ORIENTED_EDGE('',*,*,#108,.T.);
#173=ORIENTED_EDGE('',*,*,#110,.F.);
#174=ORIENTED_EDGE('',*,*,#100,.T.);
#175=CYLINDRICAL_SURFACE('',#213,6.5);
#176=CYLINDRICAL_SURFACE('',#221,6.5);
#177=CYLINDRICAL_SURFACE('',#226,6.5);
#178=CYLINDRICAL_SURFACE('',#228,7.5);
#179=CYLINDRICAL_SURFACE('',#236,7.5);
#180=CYLINDRICAL_SURFACE('',#241,7.5);
#181=ADVANCED_FACE('',(#23),#175,.F.);
#182=ADVANCED_FACE('',(#24),#19,.F.);
#183=ADVANCED_FACE('',(#25),#176,.F.);
#184=ADVANCED_FACE('',(#26),#20,.F.);
#185=ADVANCED_FACE('',(#27),#177,.F.);
#186=ADVANCED_FACE('',(#28),#178,.T.);
#187=ADVANCED_FACE('',(#29),#21,.T.);
#188=ADVANCED_FACE('',(#30),#179,.T.);
#189=ADVANCED_FACE('',(#31),#22,.T.);
#190=ADVANCED_FACE('',(#32),#180,.T.);
#191=ADVANCED_FACE('',(#33,#15),#17,.F.);
#192=ADVANCED_FACE('',(#34,#16),#18,.T.);
#193=CLOSED_SHELL('',(#181,#182,#183,#184,#185,#186,#187,#188,#189,#190,
#191,#192));
#194=DERIVED_UNIT_ELEMENT(#196,1.);
#195=DERIVED_UNIT_ELEMENT(#377,3.);
#196=(
MASS_UNIT()
NAMED_UNIT(*)
SI_UNIT($,.GRAM.)
);
#197=DERIVED_UNIT((#194,#195));
#198=MEASURE_REPRESENTATION_ITEM('density measure',
POSITIVE_RATIO_MEASURE(1.),#197);
#199=PROPERTY_DEFINITION_REPRESENTATION(#204,#201);
#200=PROPERTY_DEFINITION_REPRESENTATION(#205,#202);
#201=REPRESENTATION('material name',(#203),#374);
#202=REPRESENTATION('density',(#198),#374);
#203=DESCRIPTIVE_REPRESENTATION_ITEM('Generico','Generico');
#204=PROPERTY_DEFINITION('material property','material name',#384);
#205=PROPERTY_DEFINITION('material property','density of part',#384);
#206=DATE_TIME_ROLE('creation_date');
#207=APPLIED_DATE_AND_TIME_ASSIGNMENT(#208,#206,(#384));
#208=DATE_AND_TIME(#209,#210);
#209=CALENDAR_DATE(2016,2,2);
#210=LOCAL_TIME(9,47,53.,#211);
#211=COORDINATED_UNIVERSAL_TIME_OFFSET(0,0,.BEHIND.);
#212=AXIS2_PLACEMENT_3D('placement',#317,#245,#246);
#213=AXIS2_PLACEMENT_3D('',#318,#247,#248);
#214=AXIS2_PLACEMENT_3D('',#321,#249,#250);
#215=AXIS2_PLACEMENT_3D('',#322,#251,#252);
#216=AXIS2_PLACEMENT_3D('',#325,#254,#255);
#217=AXIS2_PLACEMENT_3D('',#326,#256,#257);
#218=AXIS2_PLACEMENT_3D('',#329,#258,#259);
#219=AXIS2_PLACEMENT_3D('',#330,#260,#261);
#220=AXIS2_PLACEMENT_3D('',#331,#262,#263);
#221=AXIS2_PLACEMENT_3D('',#332,#264,#265);
#222=AXIS2_PLACEMENT_3D('',#334,#266,#267);
#223=AXIS2_PLACEMENT_3D('',#336,#269,#270);
#224=AXIS2_PLACEMENT_3D('',#338,#271,#272);
#225=AXIS2_PLACEMENT_3D('',#339,#273,#274);
#226=AXIS2_PLACEMENT_3D('',#340,#275,#276);
#227=AXIS2_PLACEMENT_3D('',#342,#277,#278);
#228=AXIS2_PLACEMENT_3D('',#344,#280,#281);
#229=AXIS2_PLACEMENT_3D('',#346,#282,#283);
#230=AXIS2_PLACEMENT_3D('',#350,#285,#286);
#231=AXIS2_PLACEMENT_3D('',#351,#287,#288);
#232=AXIS2_PLACEMENT_3D('',#352,#289,#290);
#233=AXIS2_PLACEMENT_3D('',#354,#291,#292);
#234=AXIS2_PLACEMENT_3D('',#356,#293,#294);
#235=AXIS2_PLACEMENT_3D('',#357,#295,#296);
#236=AXIS2_PLACEMENT_3D('',#358,#297,#298);
#237=AXIS2_PLACEMENT_3D('',#361,#300,#301);
#238=AXIS2_PLACEMENT_3D('',#362,#302,#303);
#239=AXIS2_PLACEMENT_3D('',#364,#304,#305);
#240=AXIS2_PLACEMENT_3D('',#365,#306,#307);
#241=AXIS2_PLACEMENT_3D('',#366,#308,#309);
#242=AXIS2_PLACEMENT_3D('',#369,#311,#312);
#243=AXIS2_PLACEMENT_3D('',#370,#313,#314);
#244=AXIS2_PLACEMENT_3D('',#371,#315,#316);
#245=DIRECTION('axis',(0.,0.,1.));
#246=DIRECTION('refdir',(1.,0.,0.));
#247=DIRECTION('center_axis',(-0.76068362767294,-0.649122807017544,0.));
#248=DIRECTION('ref_axis',(0.649122807017544,-0.76068362767294,0.));
#249=DIRECTION('center_axis',(0.76068362767294,0.649122807017544,0.));
#250=DIRECTION('ref_axis',(0.649122807017544,-0.76068362767294,0.));
#251=DIRECTION('center_axis',(0.76068362767294,0.649122807017544,0.));
#252=DIRECTION('ref_axis',(0.649122807017544,-0.76068362767294,0.));
#253=DIRECTION('',(-0.76068362767294,-0.649122807017544,0.));
#254=DIRECTION('center_axis',(0.76068362767294,0.649122807017544,0.));
#255=DIRECTION('ref_axis',(0.649122807017544,-0.76068362767294,0.));
#256=DIRECTION('center_axis',(0.,0.,1.));
#257=DIRECTION('ref_axis',(1.,0.,0.));
#258=DIRECTION('center_axis',(0.760632619404127,-0.649182577013906,0.));
#259=DIRECTION('ref_axis',(-0.649182577013906,-0.760632619404127,0.));
#260=DIRECTION('center_axis',(0.,0.,1.));
#261=DIRECTION('ref_axis',(1.,0.,0.));
#262=DIRECTION('center_axis',(0.760632619404127,-0.649182577013906,0.));
#263=DIRECTION('ref_axis',(-0.649182577013906,-0.760632619404127,0.));
#264=DIRECTION('center_axis',(-0.760632619404127,0.649182577013906,0.));
#265=DIRECTION('ref_axis',(-0.649182577013906,-0.760632619404127,0.));
#266=DIRECTION('center_axis',(0.760632619404127,-0.649182577013906,0.));
#267=DIRECTION('ref_axis',(-0.649182577013906,-0.760632619404127,0.));
#268=DIRECTION('',(-0.760632619404127,0.649182577013906,0.));
#269=DIRECTION('center_axis',(0.,0.,-1.));
#270=DIRECTION('ref_axis',(-1.,0.,0.));
#271=DIRECTION('center_axis',(1.,0.,0.));
#272=DIRECTION('ref_axis',(0.,-1.,0.));
#273=DIRECTION('center_axis',(0.,0.,-1.));
#274=DIRECTION('ref_axis',(-1.,0.,0.));
#275=DIRECTION('center_axis',(-1.,-1.46190676520347E-16,0.));
#276=DIRECTION('ref_axis',(1.46190676520347E-16,-1.,0.));
#277=DIRECTION('center_axis',(-1.,0.,0.));
#278=DIRECTION('ref_axis',(1.46190676520347E-16,-1.,0.));
#279=DIRECTION('',(-1.,-1.46190676520347E-16,0.));
#280=DIRECTION('center_axis',(-0.76068362767294,-0.649122807017544,0.));
#281=DIRECTION('ref_axis',(0.649122807017544,-0.76068362767294,0.));
#282=DIRECTION('center_axis',(0.76068362767294,0.649122807017544,0.));
#283=DIRECTION('ref_axis',(0.649122807017544,-0.76068362767294,0.));
#284=DIRECTION('',(0.76068362767294,0.649122807017544,0.));
#285=DIRECTION('center_axis',(0.76068362767294,0.649122807017544,0.));
#286=DIRECTION('ref_axis',(0.649122807017544,-0.76068362767294,0.));
#287=DIRECTION('center_axis',(0.76068362767294,0.649122807017544,0.));
#288=DIRECTION('ref_axis',(0.649122807017544,-0.76068362767294,0.));
#289=DIRECTION('center_axis',(0.,0.,1.));
#290=DIRECTION('ref_axis',(1.,0.,0.));
#291=DIRECTION('center_axis',(0.,0.,-1.));
#292=DIRECTION('ref_axis',(1.,0.,0.));
#293=DIRECTION('center_axis',(0.760632619404127,-0.649182577013906,0.));
#294=DIRECTION('ref_axis',(-0.649182577013906,-0.760632619404127,0.));
#295=DIRECTION('center_axis',(0.760632619404127,-0.649182577013906,0.));
#296=DIRECTION('ref_axis',(-0.649182577013906,-0.760632619404127,0.));
#297=DIRECTION('center_axis',(-0.760632619404127,0.649182577013906,0.));
#298=DIRECTION('ref_axis',(-0.649182577013906,-0.760632619404127,0.));
#299=DIRECTION('',(0.760632619404127,-0.649182577013906,0.));
#300=DIRECTION('center_axis',(0.760632619404127,-0.649182577013906,0.));
#301=DIRECTION('ref_axis',(-0.649182577013906,-0.760632619404127,0.));
#302=DIRECTION('center_axis',(0.,0.,-1.));
#303=DIRECTION('ref_axis',(-1.,0.,0.));
#304=DIRECTION('center_axis',(0.,0.,1.));
#305=DIRECTION('ref_axis',(-1.,0.,0.));
#306=DIRECTION('center_axis',(1.,0.,0.));
#307=DIRECTION('ref_axis',(0.,-1.,0.));
#308=DIRECTION('center_axis',(-1.,-1.46190676520347E-16,0.));
#309=DIRECTION('ref_axis',(1.46190676520347E-16,-1.,0.));
#310=DIRECTION('',(1.,1.46190676520347E-16,0.));
#311=DIRECTION('center_axis',(-1.,0.,0.));
#312=DIRECTION('ref_axis',(0.,-1.,0.));
#313=DIRECTION('center_axis',(-1.,0.,0.));
#314=DIRECTION('ref_axis',(0.,0.,1.));
#315=DIRECTION('center_axis',(-0.76068362767294,-0.649122807017544,0.));
#316=DIRECTION('ref_axis',(0.,0.,1.));
#317=CARTESIAN_POINT('',(0.,0.,0.));
#318=CARTESIAN_POINT('Origin',(-125.017543859649,28.1452942238988,0.));
#319=CARTESIAN_POINT('',(-129.236842105263,33.0897378037729,7.9602041944578E-16));
#320=CARTESIAN_POINT('',(-120.798245614035,23.2008506440247,-7.9602041944578E-16));
#321=CARTESIAN_POINT('Origin',(-125.017543859649,28.1452942238988,0.));
#322=CARTESIAN_POINT('Origin',(-125.017543859649,28.1452942238988,0.));
#323=CARTESIAN_POINT('',(-148.253932797087,16.8616676283343,7.9602041944578E-16));
#324=CARTESIAN_POINT('',(-129.236842105263,33.0897378037729,-7.96020419445779E-16));
#325=CARTESIAN_POINT('Origin',(-144.034634551473,11.9172240484602,0.));
#326=CARTESIAN_POINT('Origin',(-101.,0.,0.));
#327=CARTESIAN_POINT('',(-72.7605578998951,33.0875189440795,7.9602041944578E-16));
#328=CARTESIAN_POINT('',(-81.1999314010759,23.1992948918259,-7.9602041944578E-16));
#329=CARTESIAN_POINT('Origin',(-76.9802446504855,28.1434069179527,0.));
#330=CARTESIAN_POINT('Origin',(-101.,0.,-7.9602041944578E-16));
#331=CARTESIAN_POINT('Origin',(-76.9802446504855,28.1434069179527,0.));
#332=CARTESIAN_POINT('Origin',(-54.3823188166715,8.85659308204727,0.));
#333=CARTESIAN_POINT('',(-50.1626320660811,13.8007051081741,7.9602041944578E-16));
#334=CARTESIAN_POINT('Origin',(-54.3823188166715,8.85659308204727,0.));
#335=CARTESIAN_POINT('',(-50.1626320660811,13.8007051081741,-7.9602041944578E-16));
#336=CARTESIAN_POINT('Origin',(-30.3625634671569,37.,0.));
#337=CARTESIAN_POINT('',(-30.3625634671569,6.5,7.9602041944578E-16));
#338=CARTESIAN_POINT('Origin',(-30.3625634671569,-4.43872369415566E-15,
0.));
#339=CARTESIAN_POINT('Origin',(-30.3625634671569,37.,7.9602041944578E-16));
#340=CARTESIAN_POINT('Origin',(0.,0.,0.));
#341=CARTESIAN_POINT('',(0.,6.5,7.9602041944578E-16));
#342=CARTESIAN_POINT('Origin',(0.,0.,0.));
#343=CARTESIAN_POINT('',(-9.50239397382258E-16,6.5,-7.9602041944578E-16));
#344=CARTESIAN_POINT('Origin',(-125.017543859649,28.1452942238988,0.));
#345=CARTESIAN_POINT('',(-148.903055604104,17.6223512560072,9.18485099360515E-16));
#346=CARTESIAN_POINT('Origin',(-144.034634551473,11.9172240484602,0.));
#347=CARTESIAN_POINT('',(-129.885964912281,33.8504214314459,9.18485099360515E-16));
#348=CARTESIAN_POINT('',(-129.885964912281,33.8504214314459,-9.18485099360515E-16));
#349=CARTESIAN_POINT('',(-120.149122807018,22.4401670163517,-9.18485099360515E-16));
#350=CARTESIAN_POINT('Origin',(-125.017543859649,28.1452942238988,0.));
#351=CARTESIAN_POINT('Origin',(-125.017543859649,28.1452942238988,0.));
#352=CARTESIAN_POINT('Origin',(-101.,0.,0.));
#353=CARTESIAN_POINT('',(-81.8491139780898,22.4386622724218,-9.18485099360515E-16));
#354=CARTESIAN_POINT('Origin',(-101.,0.,-9.18485099360515E-16));
#355=CARTESIAN_POINT('',(-72.1113753228812,33.8481515634837,9.18485099360515E-16));
#356=CARTESIAN_POINT('Origin',(-76.9802446504855,28.1434069179527,0.));
#357=CARTESIAN_POINT('Origin',(-76.9802446504855,28.1434069179527,0.));
#358=CARTESIAN_POINT('Origin',(-54.3823188166715,8.85659308204727,0.));
#359=CARTESIAN_POINT('',(-49.5134494890672,14.5613377275782,9.18485099360515E-16));
#360=CARTESIAN_POINT('',(-49.5134494890672,14.5613377275782,-9.18485099360515E-16));
#361=CARTESIAN_POINT('Origin',(-54.3823188166715,8.85659308204727,0.));
#362=CARTESIAN_POINT('Origin',(-30.3625634671569,37.,0.));
#363=CARTESIAN_POINT('',(-30.3625634671569,7.5,9.18485099360515E-16));
#364=CARTESIAN_POINT('Origin',(-30.3625634671569,37.,9.18485099360515E-16));
#365=CARTESIAN_POINT('Origin',(-30.3625634671569,-4.43872369415566E-15,
0.));
#366=CARTESIAN_POINT('Origin',(0.,0.,0.));
#367=CARTESIAN_POINT('',(0.,7.5,9.18485099360515E-16));
#368=CARTESIAN_POINT('',(-1.09643007390261E-15,7.5,-9.18485099360515E-16));
#369=CARTESIAN_POINT('Origin',(0.,0.,0.));
#370=CARTESIAN_POINT('Origin',(0.,0.,0.));
#371=CARTESIAN_POINT('Origin',(-144.034634551473,11.9172240484602,0.));
#372=UNCERTAINTY_MEASURE_WITH_UNIT(LENGTH_MEASURE(0.01),#376,
'DISTANCE_ACCURACY_VALUE',
'Maximum model space distance between geometric entities at asserted c
onnectivities');
#373=UNCERTAINTY_MEASURE_WITH_UNIT(LENGTH_MEASURE(0.01),#376,
'DISTANCE_ACCURACY_VALUE',
'Maximum model space distance between geometric entities at asserted c
onnectivities');
#374=(
GEOMETRIC_REPRESENTATION_CONTEXT(3)
GLOBAL_UNCERTAINTY_ASSIGNED_CONTEXT((#372))
GLOBAL_UNIT_ASSIGNED_CONTEXT((#376,#378,#379))
REPRESENTATION_CONTEXT('','3D')
);
#375=(
GEOMETRIC_REPRESENTATION_CONTEXT(3)
GLOBAL_UNCERTAINTY_ASSIGNED_CONTEXT((#373))
GLOBAL_UNIT_ASSIGNED_CONTEXT((#376,#378,#379))
REPRESENTATION_CONTEXT('','3D')
);
#376=(
LENGTH_UNIT()
NAMED_UNIT(*)
SI_UNIT(.MILLI.,.METRE.)
);
#377=(
LENGTH_UNIT()
NAMED_UNIT(*)
SI_UNIT(.CENTI.,.METRE.)
);
#378=(
NAMED_UNIT(*)
PLANE_ANGLE_UNIT()
SI_UNIT($,.RADIAN.)
);
#379=(
NAMED_UNIT(*)
SI_UNIT($,.STERADIAN.)
SOLID_ANGLE_UNIT()
);
#380=SHAPE_DEFINITION_REPRESENTATION(#381,#382);
#381=PRODUCT_DEFINITION_SHAPE('',$,#384);
#382=SHAPE_REPRESENTATION('',(#212),#374);
#383=PRODUCT_DEFINITION_CONTEXT('part definition',#388,'design');
#384=PRODUCT_DEFINITION('179015000_Inoxpres','179015000_Inoxpres',#385,
#383);
#385=PRODUCT_DEFINITION_FORMATION('0',$,#390);
#386=PRODUCT_RELATED_PRODUCT_CATEGORY('179015000_Inoxpres',
'179015000_Inoxpres',(#390));
#387=APPLICATION_PROTOCOL_DEFINITION('international standard',
'automotive_design',2009,#388);
#388=APPLICATION_CONTEXT(
'Core Data for Automotive Mechanical Design Process');
#389=PRODUCT_CONTEXT('part definition',#388,'mechanical');
#390=PRODUCT('179015000_Inoxpres','179015000_Inoxpres',
'"S" DI SCAVALCAMENTO \X\D815 (De12)',(#389));
#391=PRESENTATION_STYLE_ASSIGNMENT((#392));
#392=SURFACE_STYLE_USAGE(.BOTH.,#395);
#393=SURFACE_STYLE_RENDERING_WITH_PROPERTIES($,#399,(#394));
#394=SURFACE_STYLE_TRANSPARENT(0.);
#395=SURFACE_SIDE_STYLE('',(#396,#393));
#396=SURFACE_STYLE_FILL_AREA(#397);
#397=FILL_AREA_STYLE('',(#398));
#398=FILL_AREA_STYLE_COLOUR('',#399);
#399=COLOUR_RGB('',0.886274509803922,0.917647058823529,0.894117647058824);
ENDSEC;
END-ISO-10303-21;
