ISO-10303-21;
HEADER;
FILE_DESCRIPTION (( 'STEP AP203' ),
    '1' );
FILE_NAME ('3D_P7215_28 x 1-2_141231430.STEP',
    '2024-11-18T12:16:17',
    ( '' ),
    ( '' ),
    'SwSTEP 2.0',
    'SolidWorks 2023',
    '' );
FILE_SCHEMA (( 'CONFIG_CONTROL_DESIGN' ));
ENDSEC;

DATA;
#1 = PRODUCT_RELATED_PRODUCT_CATEGORY ( 'detail', '', ( #92 ) ) ;
#2 = VECTOR ( 'NONE', #375, 1000.000000000000000 ) ;
#3 = ORIENTED_EDGE ( 'NONE', *, *, #33, .T. ) ;
#4 = FACE_BOUND ( 'NONE', #278, .T. ) ;
#5 =( GEOMETRIC_REPRESENTATION_CONTEXT ( 3 ) GLOBAL_UNCERTAINTY_ASSIGNED_CONTEXT ( ( #138 ) ) GLOBAL_UNIT_ASSIGNED_CONTEXT ( ( #369, #359, #54 ) ) REPRESENTATION_CONTEXT ( 'NONE', 'WORKASPACE' ) );
#6 = ORIENTED_EDGE ( 'NONE', *, *, #158, .F. ) ;
#7 = DIRECTION ( 'NONE',  ( 1.000000000000000000, -0.000000000000000000, -0.000000000000000000 ) ) ;
#8 = ORIENTED_EDGE ( 'NONE', *, *, #403, .T. ) ;
#9 = ORIENTED_EDGE ( 'NONE', *, *, #337, .T. ) ;
#10 = ORIENTED_EDGE ( 'NONE', *, *, #112, .F. ) ;
#11 = CARTESIAN_POINT ( 'NONE',  ( -2.000000000000000000, 6.429395695523603167E-16, 5.249999999999999112 ) ) ;
#12 = EDGE_CURVE ( 'NONE', #39, #130, #207, .T. ) ;
#13 = CC_DESIGN_SECURITY_CLASSIFICATION ( #149, ( #358 ) ) ;
#14 = CARTESIAN_POINT ( 'NONE',  ( 0.000000000000000000, 0.000000000000000000, 0.000000000000000000 ) ) ;
#15 = ORIENTED_EDGE ( 'NONE', *, *, #229, .T. ) ;
#16 = LINE ( 'NONE', #73, #328 ) ;
#17 = CARTESIAN_POINT ( 'NONE',  ( 13.00000000000000000, 0.000000000000000000, 0.000000000000000000 ) ) ;
#18 = APPROVAL ( #408, 'UNSPECIFIED' ) ;
#19 = CARTESIAN_POINT ( 'NONE',  ( -2.000000000000000000, 0.000000000000000000, 0.000000000000000000 ) ) ;
#20 = FACE_OUTER_BOUND ( 'NONE', #101, .T. ) ;
#21 = FACE_OUTER_BOUND ( 'NONE', #99, .T. ) ;
#22 = CARTESIAN_POINT ( 'NONE',  ( 13.00000000000000000, 7.654042494670955634E-16, -6.250000000000000000 ) ) ;
#23 = CALENDAR_DATE ( 2024, 18, 11 ) ;
#24 = PERSON ( 'UNSPECIFIED', 'UNSPECIFIED', 'UNSPECIFIED', ('UNSPECIFIED'), ('UNSPECIFIED'), ('UNSPECIFIED') ) ;
#25 = CARTESIAN_POINT ( 'NONE',  ( 46.48091902202271797, 1.714505518806291877E-15, 13.99999999999997691 ) ) ;
#26 = FACE_BOUND ( 'NONE', #143, .T. ) ;
#27 = ADVANCED_FACE ( 'NONE', ( #35 ), #74, .F. ) ;
#28 = CARTESIAN_POINT ( 'NONE',  ( 0.000000000000000000, 0.000000000000000000, -15.99999999999997335 ) ) ;
#29 = CIRCLE ( 'NONE', #188, 6.250000000000000000 ) ;
#30 = AXIS2_PLACEMENT_3D ( 'NONE', #119, #144, #211 ) ;
#31 = ADVANCED_FACE ( 'NONE', ( #4, #285 ), #347, .T. ) ;
#32 = CARTESIAN_POINT ( 'NONE',  ( -47.00000000000000000, 13.99999999999997335, 0.000000000000000000 ) ) ;
#33 = EDGE_CURVE ( 'NONE', #105, #165, #317, .T. ) ;
#34 = EDGE_LOOP ( 'NONE', ( #10, #208 ) ) ;
#35 = FACE_OUTER_BOUND ( 'NONE', #265, .T. ) ;
#36 = ORIENTED_EDGE ( 'NONE', *, *, #159, .F. ) ;
#37 = DIRECTION ( 'NONE',  ( -1.000000000000000000, 0.000000000000000000, 0.000000000000000000 ) ) ;
#38 = APPLICATION_CONTEXT ( 'configuration controlled 3d designs of mechanical parts and assemblies' ) ;
#39 = VERTEX_POINT ( 'NONE', #66 ) ;
#40 = DIRECTION ( 'NONE',  ( 0.000000000000000000, 0.000000000000000000, -1.000000000000000000 ) ) ;
#41 = VERTEX_POINT ( 'NONE', #42 ) ;
#42 = CARTESIAN_POINT ( 'NONE',  ( -2.000000000000001776, 0.000000000000000000, -13.99999999999998224 ) ) ;
#43 = CIRCLE ( 'NONE', #199, 15.99999999999997335 ) ;
#44 = ORIENTED_EDGE ( 'NONE', *, *, #222, .T. ) ;
#45 = DIRECTION ( 'NONE',  ( 1.000000000000000000, -0.000000000000000000, -0.000000000000000000 ) ) ;
#46 = ORIENTED_EDGE ( 'NONE', *, *, #189, .F. ) ;
#47 = CALENDAR_DATE ( 2024, 18, 11 ) ;
#48 = ADVANCED_FACE ( 'NONE', ( #383 ), #205, .T. ) ;
#49 = AXIS2_PLACEMENT_3D ( 'NONE', #155, #367, #126 ) ;
#50 = DIRECTION ( 'NONE',  ( -1.000000000000000000, 0.000000000000000000, 0.000000000000000000 ) ) ;
#51 = ORIENTED_EDGE ( 'NONE', *, *, #222, .F. ) ;
#52 = COORDINATED_UNIVERSAL_TIME_OFFSET ( 1, 0, .AHEAD. ) ;
#53 = LINE ( 'NONE', #25, #373 ) ;
#54 =( NAMED_UNIT ( * ) SI_UNIT ( $, .STERADIAN. ) SOLID_ANGLE_UNIT ( ) );
#55 = DIRECTION ( 'NONE',  ( 1.000000000000000000, -0.000000000000000000, -0.000000000000000000 ) ) ;
#56 = CIRCLE ( 'NONE', #376, 5.249999999999999112 ) ;
#57 = CARTESIAN_POINT ( 'NONE',  ( 46.48091902202271797, 0.000000000000000000, -13.99999999999997691 ) ) ;
#58 = AXIS2_PLACEMENT_3D ( 'NONE', #366, #363, #150 ) ;
#59 = PERSON_AND_ORGANIZATION ( #24, #401 ) ;
#60 = CALENDAR_DATE ( 2024, 18, 11 ) ;
#61 = ADVANCED_FACE ( 'NONE', ( #350, #198 ), #279, .T. ) ;
#62 = AXIS2_PLACEMENT_3D ( 'NONE', #100, #228, #344 ) ;
#63 = DIRECTION ( 'NONE',  ( 0.000000000000000000, 0.000000000000000000, 1.000000000000000000 ) ) ;
#64 = DIRECTION ( 'NONE',  ( 0.000000000000000000, 0.000000000000000000, -1.000000000000000000 ) ) ;
#65 = ORIENTED_EDGE ( 'NONE', *, *, #173, .T. ) ;
#66 = CARTESIAN_POINT ( 'NONE',  ( -46.99999999999999289, 0.000000000000000000, -13.99999999999997335 ) ) ;
#67 = VECTOR ( 'NONE', #93, 1000.000000000000000 ) ;
#68 = ORIENTED_EDGE ( 'NONE', *, *, #214, .T. ) ;
#69 = CARTESIAN_POINT ( 'NONE',  ( -2.000000000000000888, 13.99999999999998224, 0.000000000000000000 ) ) ;
#70 = LOCAL_TIME ( 13, 16, 17.00000000000000000, #327 ) ;
#71 = EDGE_CURVE ( 'NONE', #103, #183, #16, .T. ) ;
#72 = EDGE_LOOP ( 'NONE', ( #197, #353, #3, #256 ) ) ;
#73 = CARTESIAN_POINT ( 'NONE',  ( -10.00000000000000000, 6.429395695523603167E-16, 5.249999999999999112 ) ) ;
#74 = CYLINDRICAL_SURFACE ( 'NONE', #272, 5.249999999999999112 ) ;
#75 = EDGE_LOOP ( 'NONE', ( #8, #230 ) ) ;
#76 = AXIS2_PLACEMENT_3D ( 'NONE', #276, #7, #385 ) ;
#77 = FACE_OUTER_BOUND ( 'NONE', #137, .T. ) ;
#78 = VECTOR ( 'NONE', #151, 1000.000000000000000 ) ;
#79 = LOCAL_TIME ( 13, 16, 17.00000000000000000, #113 ) ;
#80 = APPLICATION_PROTOCOL_DEFINITION ( 'international standard', 'config_control_design', 1994, #38 ) ;
#81 = ORIENTED_EDGE ( 'NONE', *, *, #388, .F. ) ;
#82 = DATE_AND_TIME ( #258, #70 ) ;
#83 = DIRECTION ( 'NONE',  ( 1.000000000000000000, -0.000000000000000000, -0.000000000000000000 ) ) ;
#84 = ORIENTED_EDGE ( 'NONE', *, *, #321, .F. ) ;
#85 = APPROVAL_STATUS ( 'not_yet_approved' ) ;
#86 = DIRECTION ( 'NONE',  ( 0.000000000000000000, 0.000000000000000000, -1.000000000000000000 ) ) ;
#87 = DATE_TIME_ROLE ( 'creation_date' ) ;
#88 = CIRCLE ( 'NONE', #139, 5.249999999999999112 ) ;
#89 = EDGE_CURVE ( 'NONE', #105, #186, #43, .T. ) ;
#90 = PERSON_AND_ORGANIZATION_ROLE ( 'creator' ) ;
#91 = CARTESIAN_POINT ( 'NONE',  ( -47.00000000000000711, 1.959434878635761976E-15, 15.99999999999997335 ) ) ;
#92 = PRODUCT ( '3D_P7215_28 x 1-2_141231430', '3D_P7215_28 x 1-2_141231430', '', ( #269 ) ) ;
#93 = DIRECTION ( 'NONE',  ( -1.000000000000000000, 0.000000000000000000, 0.000000000000000000 ) ) ;
#94 = DATE_TIME_ROLE ( 'classification_date' ) ;
#95 = CARTESIAN_POINT ( 'NONE',  ( 13.00000000000000000, 0.000000000000000000, 0.000000000000000000 ) ) ;
#96 = VECTOR ( 'NONE', #355, 1000.000000000000000 ) ;
#97 = CC_DESIGN_APPROVAL ( #301, ( #358 ) ) ;
#98 = CARTESIAN_POINT ( 'NONE',  ( 13.00000000000000000, 0.000000000000000000, 0.000000000000000000 ) ) ;
#99 = EDGE_LOOP ( 'NONE', ( #270, #379, #65, #352 ) ) ;
#100 = CARTESIAN_POINT ( 'NONE',  ( 46.48091902202271797, 0.000000000000000000, 0.000000000000000000 ) ) ;
#101 = EDGE_LOOP ( 'NONE', ( #46, #360, #133, #232 ) ) ;
#102 = CARTESIAN_POINT ( 'NONE',  ( 13.00000000000000000, 0.000000000000000000, 0.000000000000000000 ) ) ;
#103 = VERTEX_POINT ( 'NONE', #11 ) ;
#104 = VERTEX_POINT ( 'NONE', #203 ) ;
#105 = VERTEX_POINT ( 'NONE', #315 ) ;
#106 = FACE_OUTER_BOUND ( 'NONE', #72, .T. ) ;
#107 = ORIENTED_EDGE ( 'NONE', *, *, #206, .F. ) ;
#108 = EDGE_CURVE ( 'NONE', #284, #286, #161, .T. ) ;
#109 = CIRCLE ( 'NONE', #172, 5.249999999999999112 ) ;
#110 = PRODUCT_DEFINITION ( 'UNKNOWN', '', #358, #306 ) ;
#111 = PERSON_AND_ORGANIZATION_ROLE ( 'creator' ) ;
#112 = EDGE_CURVE ( 'NONE', #41, #282, #399, .T. ) ;
#113 = COORDINATED_UNIVERSAL_TIME_OFFSET ( 1, 0, .AHEAD. ) ;
#114 = CYLINDRICAL_SURFACE ( 'NONE', #335, 13.99999999999997691 ) ;
#115 = EDGE_LOOP ( 'NONE', ( #349, #68 ) ) ;
#116 = APPROVAL_DATE_TIME ( #398, #301 ) ;
#117 = EDGE_CURVE ( 'NONE', #186, #105, #250, .T. ) ;
#118 = LINE ( 'NONE', #407, #67 ) ;
#119 = CARTESIAN_POINT ( 'NONE',  ( 46.48091902202271797, 0.000000000000000000, 0.000000000000000000 ) ) ;
#120 = EDGE_LOOP ( 'NONE', ( #135, #212 ) ) ;
#121 = DIRECTION ( 'NONE',  ( 0.000000000000000000, 0.000000000000000000, -1.000000000000000000 ) ) ;
#122 = CC_DESIGN_PERSON_AND_ORGANIZATION_ASSIGNMENT ( #262, #243, ( #92 ) ) ;
#123 = ADVANCED_FACE ( 'NONE', ( #166 ), #378, .T. ) ;
#124 = ORIENTED_EDGE ( 'NONE', *, *, #152, .T. ) ;
#125 = CIRCLE ( 'NONE', #348, 13.99999999999998224 ) ;
#126 = DIRECTION ( 'NONE',  ( 0.000000000000000000, 0.000000000000000000, -1.000000000000000000 ) ) ;
#127 = APPLICATION_CONTEXT ( 'configuration controlled 3d designs of mechanical parts and assemblies' ) ;
#128 = ADVANCED_FACE ( 'NONE', ( #134, #252 ), #380, .F. ) ;
#129 = CARTESIAN_POINT ( 'NONE',  ( -10.00000000000000000, 0.000000000000000000, -5.249999999999999112 ) ) ;
#130 = VERTEX_POINT ( 'NONE', #293 ) ;
#131 = AXIS2_PLACEMENT_3D ( 'NONE', #185, #294, #264 ) ;
#132 = DIRECTION ( 'NONE',  ( 1.000000000000000000, -0.000000000000000000, -0.000000000000000000 ) ) ;
#133 = ORIENTED_EDGE ( 'NONE', *, *, #192, .T. ) ;
#134 = FACE_BOUND ( 'NONE', #75, .T. ) ;
#135 = ORIENTED_EDGE ( 'NONE', *, *, #89, .F. ) ;
#136 = CARTESIAN_POINT ( 'NONE',  ( 46.48091902202271797, 0.000000000000000000, -15.99999999999997335 ) ) ;
#137 = EDGE_LOOP ( 'NONE', ( #242, #9, #15, #326 ) ) ;
#138 = UNCERTAINTY_MEASURE_WITH_UNIT (LENGTH_MEASURE( 1.000000000000000082E-05 ), #369, 'distance_accuracy_value', 'NONE');
#139 = AXIS2_PLACEMENT_3D ( 'NONE', #267, #50, #241 ) ;
#140 = ORIENTED_EDGE ( 'NONE', *, *, #321, .T. ) ;
#141 = DIRECTION ( 'NONE',  ( -1.000000000000000000, 0.000000000000000000, 0.000000000000000000 ) ) ;
#142 = DIRECTION ( 'NONE',  ( 0.000000000000000000, 0.000000000000000000, 1.000000000000000000 ) ) ;
#143 = EDGE_LOOP ( 'NONE', ( #51, #84 ) ) ;
#144 = DIRECTION ( 'NONE',  ( 1.000000000000000000, -0.000000000000000000, -0.000000000000000000 ) ) ;
#145 = APPROVAL_ROLE ( '' ) ;
#146 = CARTESIAN_POINT ( 'NONE',  ( 0.000000000000000000, 0.000000000000000000, 6.250000000000000000 ) ) ;
#147 = APPROVAL_DATE_TIME ( #303, #368 ) ;
#148 = DIRECTION ( 'NONE',  ( 1.000000000000000000, -0.000000000000000000, -0.000000000000000000 ) ) ;
#149 = SECURITY_CLASSIFICATION ( '', '', #180 ) ;
#150 = DIRECTION ( 'NONE',  ( -0.000000000000000000, 0.000000000000000000, -1.000000000000000000 ) ) ;
#151 = DIRECTION ( 'NONE',  ( 1.000000000000000000, -0.000000000000000000, -0.000000000000000000 ) ) ;
#152 = EDGE_CURVE ( 'NONE', #186, #169, #181, .T. ) ;
#153 = COORDINATED_UNIVERSAL_TIME_OFFSET ( 1, 0, .AHEAD. ) ;
#154 = AXIS2_PLACEMENT_3D ( 'NONE', #14, #148, #121 ) ;
#155 = CARTESIAN_POINT ( 'NONE',  ( 0.000000000000000000, 0.000000000000000000, 0.000000000000000000 ) ) ;
#156 = VECTOR ( 'NONE', #331, 1000.000000000000000 ) ;
#157 = ADVANCED_FACE ( 'NONE', ( #77 ), #320, .F. ) ;
#158 = EDGE_CURVE ( 'NONE', #165, #169, #318, .T. ) ;
#159 = EDGE_CURVE ( 'NONE', #284, #291, #118, .T. ) ;
#160 = DIRECTION ( 'NONE',  ( 0.000000000000000000, 0.000000000000000000, 1.000000000000000000 ) ) ;
#161 = CIRCLE ( 'NONE', #333, 6.250000000000000000 ) ;
#162 = CC_DESIGN_PERSON_AND_ORGANIZATION_ASSIGNMENT ( #292, #219, ( #358 ) ) ;
#163 = EDGE_LOOP ( 'NONE', ( #389, #377, #140, #81 ) ) ;
#164 = DIRECTION ( 'NONE',  ( 1.000000000000000000, -0.000000000000000000, -0.000000000000000000 ) ) ;
#165 = VERTEX_POINT ( 'NONE', #28 ) ;
#166 = FACE_OUTER_BOUND ( 'NONE', #310, .T. ) ;
#167 = CARTESIAN_POINT ( 'NONE',  ( 46.48091902202271797, 0.000000000000000000, 0.000000000000000000 ) ) ;
#168 = ORIENTED_EDGE ( 'NONE', *, *, #388, .T. ) ;
#169 = VERTEX_POINT ( 'NONE', #296 ) ;
#170 = AXIS2_PLACEMENT_3D ( 'NONE', #167, #216, #86 ) ;
#171 = DIRECTION ( 'NONE',  ( -1.000000000000000000, 0.000000000000000000, 0.000000000000000000 ) ) ;
#172 = AXIS2_PLACEMENT_3D ( 'NONE', #19, #297, #323 ) ;
#173 = EDGE_CURVE ( 'NONE', #282, #41, #125, .T. ) ;
#174 = EDGE_CURVE ( 'NONE', #286, #284, #221, .T. ) ;
#175 = DIRECTION ( 'NONE',  ( 0.000000000000000000, 0.000000000000000000, 1.000000000000000000 ) ) ;
#176 = DIRECTION ( 'NONE',  ( -1.000000000000000000, 0.000000000000000000, 0.000000000000000000 ) ) ;
#177 = ORIENTED_EDGE ( 'NONE', *, *, #89, .T. ) ;
#178 = PERSON_AND_ORGANIZATION ( #24, #401 ) ;
#179 = CARTESIAN_POINT ( 'NONE',  ( 13.00000000000000000, 0.000000000000000000, 6.250000000000000000 ) ) ;
#180 = SECURITY_CLASSIFICATION_LEVEL ( 'unclassified' ) ;
#181 = LINE ( 'NONE', #395, #96 ) ;
#182 = PLANE ( 'NONE',  #58 ) ;
#183 = VERTEX_POINT ( 'NONE', #240 ) ;
#184 = CALENDAR_DATE ( 2024, 18, 11 ) ;
#185 = CARTESIAN_POINT ( 'NONE',  ( 0.000000000000000000, 0.000000000000000000, 0.000000000000000000 ) ) ;
#186 = VERTEX_POINT ( 'NONE', #91 ) ;
#187 = CARTESIAN_POINT ( 'NONE',  ( 0.000000000000000000, 0.000000000000000000, 0.000000000000000000 ) ) ;
#188 = AXIS2_PLACEMENT_3D ( 'NONE', #332, #55, #387 ) ;
#189 = EDGE_CURVE ( 'NONE', #130, #282, #53, .T. ) ;
#190 = APPROVAL_PERSON_ORGANIZATION ( #210, #301, #394 ) ;
#191 = APPROVAL_DATE_TIME ( #336, #18 ) ;
#192 = EDGE_CURVE ( 'NONE', #39, #41, #334, .T. ) ;
#193 = AXIS2_PLACEMENT_3D ( 'NONE', #17, #141, #386 ) ;
#194 = DIRECTION ( 'NONE',  ( 1.000000000000000000, -0.000000000000000000, -0.000000000000000000 ) ) ;
#195 = LOCAL_TIME ( 13, 16, 17.00000000000000000, #213 ) ;
#196 = CARTESIAN_POINT ( 'NONE',  ( -46.99999999999999289, 0.000000000000000000, 0.000000000000000000 ) ) ;
#197 = ORIENTED_EDGE ( 'NONE', *, *, #152, .F. ) ;
#198 = FACE_OUTER_BOUND ( 'NONE', #120, .T. ) ;
#199 = AXIS2_PLACEMENT_3D ( 'NONE', #251, #374, #311 ) ;
#200 = ORIENTED_EDGE ( 'NONE', *, *, #108, .F. ) ;
#201 = CARTESIAN_POINT ( 'NONE',  ( 13.00000000000000000, 0.000000000000000000, 0.000000000000000000 ) ) ;
#202 = ORIENTED_EDGE ( 'NONE', *, *, #337, .F. ) ;
#203 = CARTESIAN_POINT ( 'NONE',  ( -2.000000000000000000, 0.000000000000000000, -5.249999999999999112 ) ) ;
#204 = ORIENTED_EDGE ( 'NONE', *, *, #12, .T. ) ;
#205 = CYLINDRICAL_SURFACE ( 'NONE', #304, 6.250000000000000000 ) ;
#206 = EDGE_CURVE ( 'NONE', #104, #103, #295, .T. ) ;
#207 = CIRCLE ( 'NONE', #249, 13.99999999999997335 ) ;
#208 = ORIENTED_EDGE ( 'NONE', *, *, #173, .F. ) ;
#209 = CC_DESIGN_DATE_AND_TIME_ASSIGNMENT ( #273, #94, ( #149 ) ) ;
#210 = PERSON_AND_ORGANIZATION ( #24, #401 ) ;
#211 = DIRECTION ( 'NONE',  ( 0.000000000000000000, 0.000000000000000000, -1.000000000000000000 ) ) ;
#212 = ORIENTED_EDGE ( 'NONE', *, *, #117, .F. ) ;
#213 = COORDINATED_UNIVERSAL_TIME_OFFSET ( 1, 0, .AHEAD. ) ;
#214 = EDGE_CURVE ( 'NONE', #169, #165, #259, .T. ) ;
#215 = AXIS2_PLACEMENT_3D ( 'NONE', #95, #302, #63 ) ;
#216 = DIRECTION ( 'NONE',  ( 1.000000000000000000, -0.000000000000000000, -0.000000000000000000 ) ) ;
#217 = DIRECTION ( 'NONE',  ( 0.000000000000000000, 0.000000000000000000, 1.000000000000000000 ) ) ;
#218 = CC_DESIGN_APPROVAL ( #368, ( #110 ) ) ;
#219 = PERSON_AND_ORGANIZATION_ROLE ( 'design_supplier' ) ;
#220 = CYLINDRICAL_SURFACE ( 'NONE', #30, 13.99999999999997691 ) ;
#221 = CIRCLE ( 'NONE', #215, 6.250000000000000000 ) ;
#222 = EDGE_CURVE ( 'NONE', #307, #291, #29, .T. ) ;
#223 = AXIS2_PLACEMENT_3D ( 'NONE', #226, #132, #40 ) ;
#224 = APPROVAL_PERSON_ORGANIZATION ( #362, #368, #145 ) ;
#225 = CC_DESIGN_PERSON_AND_ORGANIZATION_ASSIGNMENT ( #178, #111, ( #358 ) ) ;
#226 = CARTESIAN_POINT ( 'NONE',  ( -47.00000000000000711, 0.000000000000000000, 0.000000000000000000 ) ) ;
#227 = ORIENTED_EDGE ( 'NONE', *, *, #403, .F. ) ;
#228 = DIRECTION ( 'NONE',  ( 1.000000000000000000, -0.000000000000000000, -0.000000000000000000 ) ) ;
#229 = EDGE_CURVE ( 'NONE', #104, #343, #271, .T. ) ;
#230 = ORIENTED_EDGE ( 'NONE', *, *, #289, .T. ) ;
#231 = DIRECTION ( 'NONE',  ( 0.000000000000000000, 0.000000000000000000, -1.000000000000000000 ) ) ;
#232 = ORIENTED_EDGE ( 'NONE', *, *, #112, .T. ) ;
#233 = DIRECTION ( 'NONE',  ( -1.000000000000000000, 0.000000000000000000, 0.000000000000000000 ) ) ;
#234 = DIRECTION ( 'NONE',  ( 1.000000000000000000, -0.000000000000000000, -0.000000000000000000 ) ) ;
#235 = DIRECTION ( 'NONE',  ( 0.000000000000000000, 0.000000000000000000, -1.000000000000000000 ) ) ;
#236 = DIRECTION ( 'NONE',  ( 0.000000000000000000, 0.000000000000000000, -1.000000000000000000 ) ) ;
#237 = PERSON_AND_ORGANIZATION ( #24, #401 ) ;
#238 = AXIS2_PLACEMENT_3D ( 'NONE', #32, #171, #308 ) ;
#239 = FACE_OUTER_BOUND ( 'NONE', #115, .T. ) ;
#240 = CARTESIAN_POINT ( 'NONE',  ( 13.00000000000000000, 6.429395695523603167E-16, 5.249999999999999112 ) ) ;
#241 = DIRECTION ( 'NONE',  ( 0.000000000000000000, 0.000000000000000000, 1.000000000000000000 ) ) ;
#242 = ORIENTED_EDGE ( 'NONE', *, *, #71, .F. ) ;
#243 = PERSON_AND_ORGANIZATION_ROLE ( 'design_owner' ) ;
#244 = AXIS2_PLACEMENT_3D ( 'NONE', #260, #194, #400 ) ;
#245 = ORIENTED_EDGE ( 'NONE', *, *, #71, .T. ) ;
#246 = APPROVAL_PERSON_ORGANIZATION ( #59, #18, #409 ) ;
#247 = ADVANCED_FACE ( 'NONE', ( #406 ), #381, .T. ) ;
#248 = ORIENTED_EDGE ( 'NONE', *, *, #174, .F. ) ;
#249 = AXIS2_PLACEMENT_3D ( 'NONE', #196, #253, #231 ) ;
#250 = CIRCLE ( 'NONE', #223, 15.99999999999997335 ) ;
#251 = CARTESIAN_POINT ( 'NONE',  ( -47.00000000000000711, 0.000000000000000000, 0.000000000000000000 ) ) ;
#252 = FACE_OUTER_BOUND ( 'NONE', #351, .T. ) ;
#253 = DIRECTION ( 'NONE',  ( 1.000000000000000000, -0.000000000000000000, -0.000000000000000000 ) ) ;
#254 = LOCAL_TIME ( 13, 16, 17.00000000000000000, #153 ) ;
#255 = CARTESIAN_POINT ( 'NONE',  ( -10.00000000000000000, 0.000000000000000000, 0.000000000000000000 ) ) ;
#256 = ORIENTED_EDGE ( 'NONE', *, *, #214, .F. ) ;
#257 = DIRECTION ( 'NONE',  ( -1.000000000000000000, 0.000000000000000000, 0.000000000000000000 ) ) ;
#258 = CALENDAR_DATE ( 2024, 18, 11 ) ;
#259 = CIRCLE ( 'NONE', #154, 15.99999999999997335 ) ;
#260 = CARTESIAN_POINT ( 'NONE',  ( -10.00000000000000000, 0.000000000000000000, 0.000000000000000000 ) ) ;
#261 = CARTESIAN_POINT ( 'NONE',  ( 0.000000000000000000, 7.654042494670955634E-16, -6.250000000000000000 ) ) ;
#262 = PERSON_AND_ORGANIZATION ( #24, #401 ) ;
#263 = CARTESIAN_POINT ( 'NONE',  ( 13.00000000000000000, 0.000000000000000000, 0.000000000000000000 ) ) ;
#264 = DIRECTION ( 'NONE',  ( 1.000000000000000000, 0.000000000000000000, 0.000000000000000000 ) ) ;
#265 = EDGE_LOOP ( 'NONE', ( #397, #245, #227, #275 ) ) ;
#266 = CIRCLE ( 'NONE', #309, 13.99999999999997335 ) ;
#267 = CARTESIAN_POINT ( 'NONE',  ( 13.00000000000000000, 0.000000000000000000, 0.000000000000000000 ) ) ;
#268 = CARTESIAN_POINT ( 'NONE',  ( -2.000000000000000000, 0.000000000000000000, 0.000000000000000000 ) ) ;
#269 = MECHANICAL_CONTEXT ( 'NONE', #38, 'mechanical' ) ;
#270 = ORIENTED_EDGE ( 'NONE', *, *, #314, .F. ) ;
#271 = LINE ( 'NONE', #129, #2 ) ;
#272 = AXIS2_PLACEMENT_3D ( 'NONE', #255, #164, #64 ) ;
#273 = DATE_AND_TIME ( #23, #299 ) ;
#274 = ADVANCED_FACE ( 'NONE', ( #106 ), #312, .T. ) ;
#275 = ORIENTED_EDGE ( 'NONE', *, *, #229, .F. ) ;
#276 = CARTESIAN_POINT ( 'NONE',  ( -2.000000000000001776, 0.000000000000000000, 0.000000000000000000 ) ) ;
#277 = CLOSED_SHELL ( 'NONE', ( #48, #27, #356, #123, #274, #370, #31, #382, #61, #157, #247, #128 ) ) ;
#278 = EDGE_LOOP ( 'NONE', ( #107, #202 ) ) ;
#279 = PLANE ( 'NONE',  #238 ) ;
#280 = PRODUCT_DEFINITION_SHAPE ( 'NONE', 'NONE',  #110 ) ;
#281 = CC_DESIGN_PERSON_AND_ORGANIZATION_ASSIGNMENT ( #300, #90, ( #110 ) ) ;
#282 = VERTEX_POINT ( 'NONE', #402 ) ;
#283 = DIRECTION ( 'NONE',  ( -1.000000000000000000, 0.000000000000000000, 0.000000000000000000 ) ) ;
#284 = VERTEX_POINT ( 'NONE', #22 ) ;
#285 = FACE_OUTER_BOUND ( 'NONE', #34, .T. ) ;
#286 = VERTEX_POINT ( 'NONE', #179 ) ;
#287 = DIRECTION ( 'NONE',  ( 0.000000000000000000, 0.000000000000000000, 1.000000000000000000 ) ) ;
#288 = CC_DESIGN_DATE_AND_TIME_ASSIGNMENT ( #82, #87, ( #110 ) ) ;
#289 = EDGE_CURVE ( 'NONE', #183, #343, #56, .T. ) ;
#290 = DIRECTION ( 'NONE',  ( 1.000000000000000000, -0.000000000000000000, -0.000000000000000000 ) ) ;
#291 = VERTEX_POINT ( 'NONE', #261 ) ;
#292 = PERSON_AND_ORGANIZATION ( #24, #401 ) ;
#293 = CARTESIAN_POINT ( 'NONE',  ( -46.99999999999999289, 1.714505518806291680E-15, 13.99999999999997335 ) ) ;
#294 = DIRECTION ( 'NONE',  ( 0.000000000000000000, 0.000000000000000000, 1.000000000000000000 ) ) ;
#295 = CIRCLE ( 'NONE', #357, 5.249999999999999112 ) ;
#296 = CARTESIAN_POINT ( 'NONE',  ( 0.000000000000000000, 1.959434878635761976E-15, 15.99999999999997335 ) ) ;
#297 = DIRECTION ( 'NONE',  ( -1.000000000000000000, 0.000000000000000000, 0.000000000000000000 ) ) ;
#298 = DIRECTION ( 'NONE',  ( -1.000000000000000000, 0.000000000000000000, 0.000000000000000000 ) ) ;
#299 = LOCAL_TIME ( 13, 16, 17.00000000000000000, #52 ) ;
#300 = PERSON_AND_ORGANIZATION ( #24, #401 ) ;
#301 = APPROVAL ( #324, 'UNSPECIFIED' ) ;
#302 = DIRECTION ( 'NONE',  ( -1.000000000000000000, 0.000000000000000000, 0.000000000000000000 ) ) ;
#303 = DATE_AND_TIME ( #184, #79 ) ;
#304 = AXIS2_PLACEMENT_3D ( 'NONE', #201, #233, #305 ) ;
#305 = DIRECTION ( 'NONE',  ( 0.000000000000000000, 0.000000000000000000, 1.000000000000000000 ) ) ;
#306 = DESIGN_CONTEXT ( 'detailed design', #127, 'design' ) ;
#307 = VERTEX_POINT ( 'NONE', #146 ) ;
#308 = DIRECTION ( 'NONE',  ( 0.000000000000000000, 0.000000000000000000, 1.000000000000000000 ) ) ;
#309 = AXIS2_PLACEMENT_3D ( 'NONE', #391, #45, #235 ) ;
#310 = EDGE_LOOP ( 'NONE', ( #177, #124, #6, #313 ) ) ;
#311 = DIRECTION ( 'NONE',  ( 0.000000000000000000, 0.000000000000000000, -1.000000000000000000 ) ) ;
#312 = CYLINDRICAL_SURFACE ( 'NONE', #170, 15.99999999999997335 ) ;
#313 = ORIENTED_EDGE ( 'NONE', *, *, #33, .F. ) ;
#314 = EDGE_CURVE ( 'NONE', #130, #39, #266, .T. ) ;
#315 = CARTESIAN_POINT ( 'NONE',  ( -47.00000000000000711, 0.000000000000000000, -15.99999999999997335 ) ) ;
#316 = EDGE_LOOP ( 'NONE', ( #36, #390, #168, #44 ) ) ;
#317 = LINE ( 'NONE', #136, #340 ) ;
#318 = CIRCLE ( 'NONE', #49, 15.99999999999997335 ) ;
#319 = ORIENTED_EDGE ( 'NONE', *, *, #314, .T. ) ;
#320 = CYLINDRICAL_SURFACE ( 'NONE', #244, 5.249999999999999112 ) ;
#321 = EDGE_CURVE ( 'NONE', #291, #307, #341, .T. ) ;
#322 = MANIFOLD_SOLID_BREP ( 'Aufsatz-Linear austragen3', #277 ) ;
#323 = DIRECTION ( 'NONE',  ( 0.000000000000000000, 0.000000000000000000, 1.000000000000000000 ) ) ;
#324 = APPROVAL_STATUS ( 'not_yet_approved' ) ;
#325 = LINE ( 'NONE', #393, #156 ) ;
#326 = ORIENTED_EDGE ( 'NONE', *, *, #289, .F. ) ;
#327 = COORDINATED_UNIVERSAL_TIME_OFFSET ( 1, 0, .AHEAD. ) ;
#328 = VECTOR ( 'NONE', #342, 1000.000000000000000 ) ;
#329 = CARTESIAN_POINT ( 'NONE',  ( 13.00000000000000000, 0.000000000000000000, -5.249999999999999112 ) ) ;
#330 = PERSON_AND_ORGANIZATION_ROLE ( 'classification_officer' ) ;
#331 = DIRECTION ( 'NONE',  ( -1.000000000000000000, 0.000000000000000000, 0.000000000000000000 ) ) ;
#332 = CARTESIAN_POINT ( 'NONE',  ( 0.000000000000000000, 0.000000000000000000, 0.000000000000000000 ) ) ;
#333 = AXIS2_PLACEMENT_3D ( 'NONE', #98, #283, #160 ) ;
#334 = LINE ( 'NONE', #57, #78 ) ;
#335 = AXIS2_PLACEMENT_3D ( 'NONE', #361, #83, #236 ) ;
#336 = DATE_AND_TIME ( #60, #254 ) ;
#337 = EDGE_CURVE ( 'NONE', #103, #104, #109, .T. ) ;
#338 = DIRECTION ( 'NONE',  ( 0.000000000000000000, 0.000000000000000000, -1.000000000000000000 ) ) ;
#339 = CARTESIAN_POINT ( 'NONE',  ( -2.000000000000001776, 0.000000000000000000, 0.000000000000000000 ) ) ;
#340 = VECTOR ( 'NONE', #234, 1000.000000000000000 ) ;
#341 = CIRCLE ( 'NONE', #384, 6.250000000000000000 ) ;
#342 = DIRECTION ( 'NONE',  ( 1.000000000000000000, -0.000000000000000000, -0.000000000000000000 ) ) ;
#343 = VERTEX_POINT ( 'NONE', #329 ) ;
#344 = DIRECTION ( 'NONE',  ( 0.000000000000000000, 0.000000000000000000, -1.000000000000000000 ) ) ;
#345 = CC_DESIGN_PERSON_AND_ORGANIZATION_ASSIGNMENT ( #237, #330, ( #149 ) ) ;
#346 = EDGE_LOOP ( 'NONE', ( #204, #319 ) ) ;
#347 = PLANE ( 'NONE',  #405 ) ;
#348 = AXIS2_PLACEMENT_3D ( 'NONE', #339, #371, #338 ) ;
#349 = ORIENTED_EDGE ( 'NONE', *, *, #158, .T. ) ;
#350 = FACE_BOUND ( 'NONE', #346, .T. ) ;
#351 = EDGE_LOOP ( 'NONE', ( #248, #200 ) ) ;
#352 = ORIENTED_EDGE ( 'NONE', *, *, #192, .F. ) ;
#353 = ORIENTED_EDGE ( 'NONE', *, *, #117, .T. ) ;
#354 = ADVANCED_BREP_SHAPE_REPRESENTATION ( '3D_P7215_28 x 1-2_141231430', ( #322, #131 ), #5 ) ;
#355 = DIRECTION ( 'NONE',  ( 1.000000000000000000, -0.000000000000000000, -0.000000000000000000 ) ) ;
#356 = ADVANCED_FACE ( 'NONE', ( #21 ), #114, .F. ) ;
#357 = AXIS2_PLACEMENT_3D ( 'NONE', #268, #298, #217 ) ;
#358 = PRODUCT_DEFINITION_FORMATION_WITH_SPECIFIED_SOURCE ( 'ANY', '', #92, .NOT_KNOWN. ) ;
#359 =( NAMED_UNIT ( * ) PLANE_ANGLE_UNIT ( ) SI_UNIT ( $, .RADIAN. ) );
#360 = ORIENTED_EDGE ( 'NONE', *, *, #12, .F. ) ;
#361 = CARTESIAN_POINT ( 'NONE',  ( 46.48091902202271797, 0.000000000000000000, 0.000000000000000000 ) ) ;
#362 = PERSON_AND_ORGANIZATION ( #24, #401 ) ;
#363 = DIRECTION ( 'NONE',  ( 1.000000000000000000, 0.000000000000000000, -0.000000000000000000 ) ) ;
#364 = AXIS2_PLACEMENT_3D ( 'NONE', #102, #257, #175 ) ;
#365 = CC_DESIGN_APPROVAL ( #18, ( #149 ) ) ;
#366 = CARTESIAN_POINT ( 'NONE',  ( 0.000000000000000000, 15.99999999999997335, 0.000000000000000000 ) ) ;
#367 = DIRECTION ( 'NONE',  ( 1.000000000000000000, -0.000000000000000000, -0.000000000000000000 ) ) ;
#368 = APPROVAL ( #85, 'UNSPECIFIED' ) ;
#369 =( LENGTH_UNIT ( ) NAMED_UNIT ( * ) SI_UNIT ( .MILLI., .METRE. ) );
#370 = ADVANCED_FACE ( 'NONE', ( #26, #239 ), #182, .T. ) ;
#371 = DIRECTION ( 'NONE',  ( 1.000000000000000000, -0.000000000000000000, -0.000000000000000000 ) ) ;
#372 = SHAPE_DEFINITION_REPRESENTATION ( #280, #354 ) ;
#373 = VECTOR ( 'NONE', #404, 1000.000000000000000 ) ;
#374 = DIRECTION ( 'NONE',  ( 1.000000000000000000, -0.000000000000000000, -0.000000000000000000 ) ) ;
#375 = DIRECTION ( 'NONE',  ( 1.000000000000000000, -0.000000000000000000, -0.000000000000000000 ) ) ;
#376 = AXIS2_PLACEMENT_3D ( 'NONE', #263, #176, #142 ) ;
#377 = ORIENTED_EDGE ( 'NONE', *, *, #159, .T. ) ;
#378 = CYLINDRICAL_SURFACE ( 'NONE', #62, 15.99999999999997335 ) ;
#379 = ORIENTED_EDGE ( 'NONE', *, *, #189, .T. ) ;
#380 = PLANE ( 'NONE',  #364 ) ;
#381 = CYLINDRICAL_SURFACE ( 'NONE', #193, 6.250000000000000000 ) ;
#382 = ADVANCED_FACE ( 'NONE', ( #20 ), #220, .F. ) ;
#383 = FACE_OUTER_BOUND ( 'NONE', #163, .T. ) ;
#384 = AXIS2_PLACEMENT_3D ( 'NONE', #187, #290, #396 ) ;
#385 = DIRECTION ( 'NONE',  ( 0.000000000000000000, 0.000000000000000000, -1.000000000000000000 ) ) ;
#386 = DIRECTION ( 'NONE',  ( 0.000000000000000000, 0.000000000000000000, 1.000000000000000000 ) ) ;
#387 = DIRECTION ( 'NONE',  ( 0.000000000000000000, 0.000000000000000000, -1.000000000000000000 ) ) ;
#388 = EDGE_CURVE ( 'NONE', #286, #307, #325, .T. ) ;
#389 = ORIENTED_EDGE ( 'NONE', *, *, #174, .T. ) ;
#390 = ORIENTED_EDGE ( 'NONE', *, *, #108, .T. ) ;
#391 = CARTESIAN_POINT ( 'NONE',  ( -46.99999999999999289, 0.000000000000000000, 0.000000000000000000 ) ) ;
#392 = APPLICATION_PROTOCOL_DEFINITION ( 'international standard', 'config_control_design', 1994, #127 ) ;
#393 = CARTESIAN_POINT ( 'NONE',  ( 13.00000000000000000, 0.000000000000000000, 6.250000000000000000 ) ) ;
#394 = APPROVAL_ROLE ( '' ) ;
#395 = CARTESIAN_POINT ( 'NONE',  ( 46.48091902202271797, 1.959434878635761976E-15, 15.99999999999997335 ) ) ;
#396 = DIRECTION ( 'NONE',  ( 0.000000000000000000, 0.000000000000000000, -1.000000000000000000 ) ) ;
#397 = ORIENTED_EDGE ( 'NONE', *, *, #206, .T. ) ;
#398 = DATE_AND_TIME ( #47, #195 ) ;
#399 = CIRCLE ( 'NONE', #76, 13.99999999999998224 ) ;
#400 = DIRECTION ( 'NONE',  ( 0.000000000000000000, 0.000000000000000000, -1.000000000000000000 ) ) ;
#401 = ORGANIZATION ( 'UNSPECIFIED', 'UNSPECIFIED', '' ) ;
#402 = CARTESIAN_POINT ( 'NONE',  ( -2.000000000000001776, 1.714505518806292666E-15, 13.99999999999998401 ) ) ;
#403 = EDGE_CURVE ( 'NONE', #343, #183, #88, .T. ) ;
#404 = DIRECTION ( 'NONE',  ( 1.000000000000000000, -0.000000000000000000, -0.000000000000000000 ) ) ;
#405 = AXIS2_PLACEMENT_3D ( 'NONE', #69, #37, #287 ) ;
#406 = FACE_OUTER_BOUND ( 'NONE', #316, .T. ) ;
#407 = CARTESIAN_POINT ( 'NONE',  ( 13.00000000000000000, 7.654042494670955634E-16, -6.250000000000000000 ) ) ;
#408 = APPROVAL_STATUS ( 'not_yet_approved' ) ;
#409 = APPROVAL_ROLE ( '' ) ;
ENDSEC;
END-ISO-10303-21;
