ISO-10303-21;
HEADER;
FILE_DESCRIPTION (( 'STEP AP203' ),
    '1' );
FILE_NAME ('3D_R1655_42.4x2_17362165_17362580.STEP',
    '2024-08-05T08:47:50',
    ( '' ),
    ( '' ),
    'SwSTEP 2.0',
    'SolidWorks 2024',
    '' );
FILE_SCHEMA (( 'CONFIG_CONTROL_DESIGN' ));
ENDSEC;

DATA;
#1 = AXIS2_PLACEMENT_3D ( 'NONE', #244, #209, #50 ) ;
#2 = DIRECTION ( 'NONE',  ( -1.000000000000000000, 0.000000000000000000, 3.059992022972416336E-15 ) ) ;
#3 = CARTESIAN_POINT ( 'NONE',  ( 0.000000000000000000, 0.000000000000000000, 0.000000000000000000 ) ) ;
#4 = DATE_TIME_ROLE ( 'creation_date' ) ;
#5 = PRODUCT_RELATED_PRODUCT_CATEGORY ( 'detail', '', ( #188 ) ) ;
#6 = SECURITY_CLASSIFICATION ( '', '', #158 ) ;
#7 = VERTEX_POINT ( 'NONE', #139 ) ;
#8 = CARTESIAN_POINT ( 'NONE',  ( -93.00000000000000000, 0.000000000000000000, -1.021742509199130201E-14 ) ) ;
#9 = CALENDAR_DATE ( 2024, 5, 8 ) ;
#10 = FACE_BOUND ( 'NONE', #198, .T. ) ;
#11 = LOCAL_TIME ( 10, 47, 50.00000000000000000, #109 ) ;
#12 = APPROVAL_DATE_TIME ( #191, #65 ) ;
#13 = ADVANCED_FACE ( 'NONE', ( #219 ), #76, .T. ) ;
#14 = DIRECTION ( 'NONE',  ( 3.059992022972416336E-15, 0.000000000000000000, 1.000000000000000000 ) ) ;
#15 = CARTESIAN_POINT ( 'NONE',  ( -2.845792581364347228E-13, 0.000000000000000000, -93.00000000000000000 ) ) ;
#16 = CIRCLE ( 'NONE', #171, 21.19999999999999574 ) ;
#17 = EDGE_LOOP ( 'NONE', ( #119, #223 ) ) ;
#18 = EDGE_CURVE ( 'NONE', #105, #176, #252, .T. ) ;
#19 = ORIENTED_EDGE ( 'NONE', *, *, #155, .F. ) ;
#20 = CARTESIAN_POINT ( 'NONE',  ( -93.00000000000000000, 0.000000000000000000, -1.021742509199130201E-14 ) ) ;
#21 = CARTESIAN_POINT ( 'NONE',  ( -114.2000000000000028, 0.000000000000000000, -1.941295630993593392E-14 ) ) ;
#22 = TOROIDAL_SURFACE ( 'NONE', #36, 93.00000000000000000, 21.19999999999999574 ) ;
#23 = DIRECTION ( 'NONE',  ( 0.000000000000000000, 0.000000000000000000, 1.000000000000000000 ) ) ;
#24 = ORIENTED_EDGE ( 'NONE', *, *, #18, .T. ) ;
#25 = DIRECTION ( 'NONE',  ( 1.000000000000000000, 0.000000000000000000, 0.000000000000000000 ) ) ;
#26 =( LENGTH_UNIT ( ) NAMED_UNIT ( * ) SI_UNIT ( .MILLI., .METRE. ) );
#27 = ADVANCED_FACE ( 'NONE', ( #235 ), #146, .F. ) ;
#28 = DATE_AND_TIME ( #194, #231 ) ;
#29 = CALENDAR_DATE ( 2024, 5, 8 ) ;
#30 = EDGE_CURVE ( 'NONE', #129, #217, #98, .T. ) ;
#31 = DIRECTION ( 'NONE',  ( 3.059992022972416336E-15, 0.000000000000000000, 1.000000000000000000 ) ) ;
#32 = CARTESIAN_POINT ( 'NONE',  ( -2.777128603803204196E-13, 0.000000000000000000, -93.00000000000000000 ) ) ;
#33 = AXIS2_PLACEMENT_3D ( 'NONE', #8, #55, #172 ) ;
#34 = PLANE ( 'NONE',  #196 ) ;
#35 = ADVANCED_FACE ( 'NONE', ( #166 ), #97, .F. ) ;
#36 = AXIS2_PLACEMENT_3D ( 'NONE', #92, #175, #248 ) ;
#37 = ORIENTED_EDGE ( 'NONE', *, *, #153, .T. ) ;
#38 = MANIFOLD_SOLID_BREP ( 'Wandung1', #121 ) ;
#39 = LOCAL_TIME ( 10, 47, 50.00000000000000000, #173 ) ;
#40 = CC_DESIGN_DATE_AND_TIME_ASSIGNMENT ( #28, #135, ( #6 ) ) ;
#41 = DIRECTION ( 'NONE',  ( -1.098647859353903399E-16, 0.000000000000000000, 1.000000000000000000 ) ) ;
#42 = APPLICATION_CONTEXT ( 'configuration controlled 3d designs of mechanical parts and assemblies' ) ;
#43 = DIRECTION ( 'NONE',  ( 0.000000000000000000, 1.000000000000000000, 0.000000000000000000 ) ) ;
#44 = EDGE_LOOP ( 'NONE', ( #185, #24, #81, #88 ) ) ;
#45 = CARTESIAN_POINT ( 'NONE',  ( 0.000000000000000000, 0.000000000000000000, 0.000000000000000000 ) ) ;
#46 = ORIENTED_EDGE ( 'NONE', *, *, #195, .F. ) ;
#47 = PRODUCT_DEFINITION_FORMATION_WITH_SPECIFIED_SOURCE ( 'ANY', '', #188, .NOT_KNOWN. ) ;
#48 = DIRECTION ( 'NONE',  ( 0.000000000000000000, 1.000000000000000000, 0.000000000000000000 ) ) ;
#49 = APPLICATION_CONTEXT ( 'configuration controlled 3d designs of mechanical parts and assemblies' ) ;
#50 = DIRECTION ( 'NONE',  ( 0.000000000000000000, 0.000000000000000000, 1.000000000000000000 ) ) ;
#51 = DATE_AND_TIME ( #9, #11 ) ;
#52 = PERSON_AND_ORGANIZATION_ROLE ( 'classification_officer' ) ;
#53 = APPROVAL_ROLE ( '' ) ;
#54 =( NAMED_UNIT ( * ) PLANE_ANGLE_UNIT ( ) SI_UNIT ( $, .RADIAN. ) );
#55 = DIRECTION ( 'NONE',  ( -1.098647859353903399E-16, 0.000000000000000000, 1.000000000000000000 ) ) ;
#56 = CIRCLE ( 'NONE', #94, 19.19999999999999574 ) ;
#57 = PERSON_AND_ORGANIZATION ( #245, #246 ) ;
#58 = DIRECTION ( 'NONE',  ( -1.000000000000000000, 0.000000000000000000, 3.059992022972416336E-15 ) ) ;
#59 = CIRCLE ( 'NONE', #200, 73.80000000000001137 ) ;
#60 = EDGE_CURVE ( 'NONE', #176, #144, #112, .T. ) ;
#61 = CARTESIAN_POINT ( 'NONE',  ( -93.00000000000000000, 0.000000000000000000, -1.708382284810565730E-14 ) ) ;
#62 = ORIENTED_EDGE ( 'NONE', *, *, #72, .F. ) ;
#63 = CIRCLE ( 'NONE', #202, 21.19999999999999574 ) ;
#64 = APPROVAL_PERSON_ORGANIZATION ( #85, #110, #165 ) ;
#65 = APPROVAL ( #207, 'UNSPECIFIED' ) ;
#66 = ORIENTED_EDGE ( 'NONE', *, *, #236, .F. ) ;
#67 = DIRECTION ( 'NONE',  ( 0.000000000000000000, 1.000000000000000000, 0.000000000000000000 ) ) ;
#68 = CARTESIAN_POINT ( 'NONE',  ( 0.000000000000000000, -2.351321854362917684E-15, 0.000000000000000000 ) ) ;
#69 = CC_DESIGN_PERSON_AND_ORGANIZATION_ASSIGNMENT ( #228, #184, ( #160 ) ) ;
#70 = CARTESIAN_POINT ( 'NONE',  ( 0.000000000000000000, -2.596251214192388375E-15, 0.000000000000000000 ) ) ;
#71 = CARTESIAN_POINT ( 'NONE',  ( -112.1999999999999886, 0.000000000000000000, -1.232682898195079559E-14 ) ) ;
#72 = EDGE_CURVE ( 'NONE', #144, #80, #63, .T. ) ;
#73 = PERSON_AND_ORGANIZATION_ROLE ( 'design_supplier' ) ;
#74 = CIRCLE ( 'NONE', #1, 112.1999999999999886 ) ;
#75 = COORDINATED_UNIVERSAL_TIME_OFFSET ( 1, 0, .AHEAD. ) ;
#76 = TOROIDAL_SURFACE ( 'NONE', #140, 93.00000000000000000, 21.19999999999999574 ) ;
#77 = DIRECTION ( 'NONE',  ( 0.000000000000000000, 0.000000000000000000, 1.000000000000000000 ) ) ;
#78 = AXIS2_PLACEMENT_3D ( 'NONE', #20, #206, #222 ) ;
#79 = CC_DESIGN_DATE_AND_TIME_ASSIGNMENT ( #51, #4, ( #160 ) ) ;
#80 = VERTEX_POINT ( 'NONE', #21 ) ;
#81 = ORIENTED_EDGE ( 'NONE', *, *, #60, .T. ) ;
#82 =( GEOMETRIC_REPRESENTATION_CONTEXT ( 3 ) GLOBAL_UNCERTAINTY_ASSIGNED_CONTEXT ( ( #108 ) ) GLOBAL_UNIT_ASSIGNED_CONTEXT ( ( #26, #54, #169 ) ) REPRESENTATION_CONTEXT ( 'NONE', 'WORKASPACE' ) );
#83 = CARTESIAN_POINT ( 'NONE',  ( -2.777128603803204196E-13, 0.000000000000000000, -93.00000000000000000 ) ) ;
#84 = EDGE_CURVE ( 'NONE', #176, #105, #16, .T. ) ;
#85 = PERSON_AND_ORGANIZATION ( #245, #246 ) ;
#86 = EDGE_LOOP ( 'NONE', ( #197, #100, #62, #253 ) ) ;
#87 = PERSON_AND_ORGANIZATION_ROLE ( 'design_owner' ) ;
#88 = ORIENTED_EDGE ( 'NONE', *, *, #162, .F. ) ;
#89 = CC_DESIGN_PERSON_AND_ORGANIZATION_ASSIGNMENT ( #115, #52, ( #6 ) ) ;
#90 = DIRECTION ( 'NONE',  ( -1.098647859353907344E-16, 0.000000000000000000, 1.000000000000000000 ) ) ;
#91 = APPROVAL_ROLE ( '' ) ;
#92 = CARTESIAN_POINT ( 'NONE',  ( 0.000000000000000000, 0.000000000000000000, 0.000000000000000000 ) ) ;
#93 = PRODUCT_DEFINITION_SHAPE ( 'NONE', 'NONE',  #160 ) ;
#94 = AXIS2_PLACEMENT_3D ( 'NONE', #15, #58, #14 ) ;
#95 = APPROVAL ( #156, 'UNSPECIFIED' ) ;
#96 = EDGE_LOOP ( 'NONE', ( #163, #167, #106, #183 ) ) ;
#97 = TOROIDAL_SURFACE ( 'NONE', #168, 93.00000000000000000, 19.19999999999999574 ) ;
#98 = CIRCLE ( 'NONE', #78, 19.19999999999999574 ) ;
#99 = CIRCLE ( 'NONE', #242, 19.19999999999999574 ) ;
#100 = ORIENTED_EDGE ( 'NONE', *, *, #141, .T. ) ;
#101 = DIRECTION ( 'NONE',  ( 0.000000000000000000, 1.000000000000000000, 0.000000000000000000 ) ) ;
#102 = PERSON_AND_ORGANIZATION ( #245, #246 ) ;
#103 = ORIENTED_EDGE ( 'NONE', *, *, #30, .T. ) ;
#104 = DATE_AND_TIME ( #205, #161 ) ;
#105 = VERTEX_POINT ( 'NONE', #237 ) ;
#106 = ORIENTED_EDGE ( 'NONE', *, *, #195, .T. ) ;
#107 = APPROVAL_STATUS ( 'not_yet_approved' ) ;
#108 = UNCERTAINTY_MEASURE_WITH_UNIT (LENGTH_MEASURE( 1.000000000000000082E-05 ), #26, 'distance_accuracy_value', 'NONE');
#109 = COORDINATED_UNIVERSAL_TIME_OFFSET ( 1, 0, .AHEAD. ) ;
#110 = APPROVAL ( #107, 'UNSPECIFIED' ) ;
#111 = SHAPE_DEFINITION_REPRESENTATION ( #93, #123 ) ;
#112 = CIRCLE ( 'NONE', #251, 71.79999999999999716 ) ;
#113 = CARTESIAN_POINT ( 'NONE',  ( -2.845792581364347228E-13, 0.000000000000000000, -93.00000000000000000 ) ) ;
#114 = CARTESIAN_POINT ( 'NONE',  ( -71.79999999999999716, 0.000000000000000000, -1.475468938627537436E-14 ) ) ;
#115 = PERSON_AND_ORGANIZATION ( #245, #246 ) ;
#116 = FACE_OUTER_BOUND ( 'NONE', #17, .T. ) ;
#117 = APPROVAL_PERSON_ORGANIZATION ( #147, #65, #91 ) ;
#118 = CARTESIAN_POINT ( 'NONE',  ( -93.00000000000000000, 0.000000000000000000, -1.708382284810565730E-14 ) ) ;
#119 = ORIENTED_EDGE ( 'NONE', *, *, #72, .T. ) ;
#120 = APPROVAL_PERSON_ORGANIZATION ( #230, #95, #53 ) ;
#121 = CLOSED_SHELL ( 'NONE', ( #27, #13, #214, #221, #203, #35 ) ) ;
#122 = EDGE_LOOP ( 'NONE', ( #208, #204 ) ) ;
#123 = ADVANCED_BREP_SHAPE_REPRESENTATION ( '3D_R1655_42.4x2_17362165_17362580', ( #38, #154 ), #82 ) ;
#124 = EDGE_CURVE ( 'NONE', #7, #129, #59, .T. ) ;
#125 = CIRCLE ( 'NONE', #143, 114.2000000000000028 ) ;
#126 = DIRECTION ( 'NONE',  ( 1.000000000000000000, 0.000000000000000000, 1.098647859353907467E-16 ) ) ;
#127 = DIRECTION ( 'NONE',  ( -1.000000000000000000, 0.000000000000000000, 3.059992022972416336E-15 ) ) ;
#128 = APPLICATION_PROTOCOL_DEFINITION ( 'international standard', 'config_control_design', 1994, #49 ) ;
#129 = VERTEX_POINT ( 'NONE', #211 ) ;
#130 = APPLICATION_PROTOCOL_DEFINITION ( 'international standard', 'config_control_design', 1994, #42 ) ;
#131 = COORDINATED_UNIVERSAL_TIME_OFFSET ( 1, 0, .AHEAD. ) ;
#132 = DATE_AND_TIME ( #190, #39 ) ;
#133 = CC_DESIGN_SECURITY_CLASSIFICATION ( #6, ( #47 ) ) ;
#134 = CC_DESIGN_PERSON_AND_ORGANIZATION_ASSIGNMENT ( #174, #73, ( #47 ) ) ;
#135 = DATE_TIME_ROLE ( 'classification_date' ) ;
#136 = CARTESIAN_POINT ( 'NONE',  ( -3.433311049775050534E-13, 0.000000000000000000, -112.1999999999999886 ) ) ;
#137 = ORIENTED_EDGE ( 'NONE', *, *, #124, .T. ) ;
#138 = AXIS2_PLACEMENT_3D ( 'NONE', #61, #170, #227 ) ;
#139 = CARTESIAN_POINT ( 'NONE',  ( -2.258274112953643165E-13, 0.000000000000000000, -73.80000000000001137 ) ) ;
#140 = AXIS2_PLACEMENT_3D ( 'NONE', #179, #238, #187 ) ;
#141 = EDGE_CURVE ( 'NONE', #105, #80, #125, .T. ) ;
#142 = DIRECTION ( 'NONE',  ( 0.000000000000000000, 0.000000000000000000, 1.000000000000000000 ) ) ;
#143 = AXIS2_PLACEMENT_3D ( 'NONE', #159, #232, #77 ) ;
#144 = VERTEX_POINT ( 'NONE', #114 ) ;
#145 = EDGE_LOOP ( 'NONE', ( #66, #19, #137, #103 ) ) ;
#146 = TOROIDAL_SURFACE ( 'NONE', #210, 93.00000000000000000, 19.19999999999999574 ) ;
#147 = PERSON_AND_ORGANIZATION ( #245, #246 ) ;
#148 = DIRECTION ( 'NONE',  ( 0.000000000000000000, 0.000000000000000000, 1.000000000000000000 ) ) ;
#149 = COORDINATED_UNIVERSAL_TIME_OFFSET ( 1, 0, .AHEAD. ) ;
#150 = DESIGN_CONTEXT ( 'detailed design', #42, 'design' ) ;
#151 = DIRECTION ( 'NONE',  ( 1.000000000000000000, 0.000000000000000000, 1.098647859353907344E-16 ) ) ;
#152 = APPROVAL_DATE_TIME ( #104, #110 ) ;
#153 = EDGE_CURVE ( 'NONE', #178, #7, #99, .T. ) ;
#154 = AXIS2_PLACEMENT_3D ( 'NONE', #45, #226, #25 ) ;
#155 = EDGE_CURVE ( 'NONE', #7, #178, #56, .T. ) ;
#156 = APPROVAL_STATUS ( 'not_yet_approved' ) ;
#157 = DIRECTION ( 'NONE',  ( 0.000000000000000000, 0.000000000000000000, 1.000000000000000000 ) ) ;
#158 = SECURITY_CLASSIFICATION_LEVEL ( 'unclassified' ) ;
#159 = CARTESIAN_POINT ( 'NONE',  ( 0.000000000000000000, 0.000000000000000000, 0.000000000000000000 ) ) ;
#160 = PRODUCT_DEFINITION ( 'UNKNOWN', '', #47, #150 ) ;
#161 = LOCAL_TIME ( 10, 47, 50.00000000000000000, #149 ) ;
#162 = EDGE_CURVE ( 'NONE', #80, #144, #181, .T. ) ;
#163 = ORIENTED_EDGE ( 'NONE', *, *, #153, .F. ) ;
#164 = DIRECTION ( 'NONE',  ( 3.059992022972416336E-15, 0.000000000000000000, 1.000000000000000000 ) ) ;
#165 = APPROVAL_ROLE ( '' ) ;
#166 = FACE_OUTER_BOUND ( 'NONE', #145, .T. ) ;
#167 = ORIENTED_EDGE ( 'NONE', *, *, #236, .T. ) ;
#168 = AXIS2_PLACEMENT_3D ( 'NONE', #220, #101, #23 ) ;
#169 =( NAMED_UNIT ( * ) SI_UNIT ( $, .STERADIAN. ) SOLID_ANGLE_UNIT ( ) );
#170 = DIRECTION ( 'NONE',  ( -1.098647859353903399E-16, 0.000000000000000000, 1.000000000000000000 ) ) ;
#171 = AXIS2_PLACEMENT_3D ( 'NONE', #180, #2, #224 ) ;
#172 = DIRECTION ( 'NONE',  ( 1.000000000000000000, 0.000000000000000000, 1.098647859353903153E-16 ) ) ;
#173 = COORDINATED_UNIVERSAL_TIME_OFFSET ( 1, 0, .AHEAD. ) ;
#174 = PERSON_AND_ORGANIZATION ( #245, #246 ) ;
#175 = DIRECTION ( 'NONE',  ( 0.000000000000000000, 1.000000000000000000, 0.000000000000000000 ) ) ;
#176 = VERTEX_POINT ( 'NONE', #192 ) ;
#177 = AXIS2_PLACEMENT_3D ( 'NONE', #83, #127, #164 ) ;
#178 = VERTEX_POINT ( 'NONE', #136 ) ;
#179 = CARTESIAN_POINT ( 'NONE',  ( 0.000000000000000000, 0.000000000000000000, 0.000000000000000000 ) ) ;
#180 = CARTESIAN_POINT ( 'NONE',  ( -2.777128603803204196E-13, 0.000000000000000000, -93.00000000000000000 ) ) ;
#181 = CIRCLE ( 'NONE', #138, 21.19999999999999574 ) ;
#182 = CIRCLE ( 'NONE', #33, 19.19999999999999574 ) ;
#183 = ORIENTED_EDGE ( 'NONE', *, *, #124, .F. ) ;
#184 = PERSON_AND_ORGANIZATION_ROLE ( 'creator' ) ;
#185 = ORIENTED_EDGE ( 'NONE', *, *, #141, .F. ) ;
#186 = CC_DESIGN_APPROVAL ( #95, ( #6 ) ) ;
#187 = DIRECTION ( 'NONE',  ( 0.000000000000000000, 0.000000000000000000, 1.000000000000000000 ) ) ;
#188 = PRODUCT ( '3D_R1655_42.4x2_17362165_17362580', '3D_R1655_42.4x2_17362165_17362580', '', ( #239 ) ) ;
#189 = FACE_BOUND ( 'NONE', #199, .T. ) ;
#190 = CALENDAR_DATE ( 2024, 5, 8 ) ;
#191 = DATE_AND_TIME ( #29, #247 ) ;
#192 = CARTESIAN_POINT ( 'NONE',  ( -2.128410294933051830E-13, 0.000000000000000000, -71.79999999999999716 ) ) ;
#193 = FACE_OUTER_BOUND ( 'NONE', #44, .T. ) ;
#194 = CALENDAR_DATE ( 2024, 5, 8 ) ;
#195 = EDGE_CURVE ( 'NONE', #217, #129, #182, .T. ) ;
#196 = AXIS2_PLACEMENT_3D ( 'NONE', #118, #90, #151 ) ;
#197 = ORIENTED_EDGE ( 'NONE', *, *, #84, .T. ) ;
#198 = EDGE_LOOP ( 'NONE', ( #233, #37 ) ) ;
#199 = EDGE_LOOP ( 'NONE', ( #241, #46 ) ) ;
#200 = AXIS2_PLACEMENT_3D ( 'NONE', #68, #48, #157 ) ;
#201 = CARTESIAN_POINT ( 'NONE',  ( -93.00000000000000000, 0.000000000000000000, -1.708382284810565730E-14 ) ) ;
#202 = AXIS2_PLACEMENT_3D ( 'NONE', #201, #41, #126 ) ;
#203 = ADVANCED_FACE ( 'NONE', ( #10, #216 ), #215, .F. ) ;
#204 = ORIENTED_EDGE ( 'NONE', *, *, #18, .F. ) ;
#205 = CALENDAR_DATE ( 2024, 5, 8 ) ;
#206 = DIRECTION ( 'NONE',  ( -1.098647859353903399E-16, 0.000000000000000000, 1.000000000000000000 ) ) ;
#207 = APPROVAL_STATUS ( 'not_yet_approved' ) ;
#208 = ORIENTED_EDGE ( 'NONE', *, *, #84, .F. ) ;
#209 = DIRECTION ( 'NONE',  ( 0.000000000000000000, 1.000000000000000000, 0.000000000000000000 ) ) ;
#210 = AXIS2_PLACEMENT_3D ( 'NONE', #3, #67, #142 ) ;
#211 = CARTESIAN_POINT ( 'NONE',  ( -73.80000000000001137, 0.000000000000000000, -8.108021202031808429E-15 ) ) ;
#212 = DIRECTION ( 'NONE',  ( -1.000000000000000000, 0.000000000000000000, 3.059992022972416336E-15 ) ) ;
#213 = APPROVAL_DATE_TIME ( #132, #95 ) ;
#214 = ADVANCED_FACE ( 'NONE', ( #193 ), #22, .T. ) ;
#215 = PLANE ( 'NONE',  #218 ) ;
#216 = FACE_OUTER_BOUND ( 'NONE', #122, .T. ) ;
#217 = VERTEX_POINT ( 'NONE', #71 ) ;
#218 = AXIS2_PLACEMENT_3D ( 'NONE', #32, #212, #31 ) ;
#219 = FACE_OUTER_BOUND ( 'NONE', #86, .T. ) ;
#220 = CARTESIAN_POINT ( 'NONE',  ( 0.000000000000000000, 0.000000000000000000, 0.000000000000000000 ) ) ;
#221 = ADVANCED_FACE ( 'NONE', ( #189, #116 ), #34, .T. ) ;
#222 = DIRECTION ( 'NONE',  ( 1.000000000000000000, 0.000000000000000000, 1.098647859353903153E-16 ) ) ;
#223 = ORIENTED_EDGE ( 'NONE', *, *, #162, .T. ) ;
#224 = DIRECTION ( 'NONE',  ( 3.059992022972416336E-15, 0.000000000000000000, 1.000000000000000000 ) ) ;
#225 = CC_DESIGN_PERSON_AND_ORGANIZATION_ASSIGNMENT ( #57, #249, ( #47 ) ) ;
#226 = DIRECTION ( 'NONE',  ( 0.000000000000000000, 0.000000000000000000, 1.000000000000000000 ) ) ;
#227 = DIRECTION ( 'NONE',  ( 1.000000000000000000, 0.000000000000000000, 1.098647859353907467E-16 ) ) ;
#228 = PERSON_AND_ORGANIZATION ( #245, #246 ) ;
#229 = CC_DESIGN_APPROVAL ( #110, ( #160 ) ) ;
#230 = PERSON_AND_ORGANIZATION ( #245, #246 ) ;
#231 = LOCAL_TIME ( 10, 47, 50.00000000000000000, #75 ) ;
#232 = DIRECTION ( 'NONE',  ( 0.000000000000000000, 1.000000000000000000, 0.000000000000000000 ) ) ;
#233 = ORIENTED_EDGE ( 'NONE', *, *, #155, .T. ) ;
#234 = CC_DESIGN_APPROVAL ( #65, ( #47 ) ) ;
#235 = FACE_OUTER_BOUND ( 'NONE', #96, .T. ) ;
#236 = EDGE_CURVE ( 'NONE', #178, #217, #74, .T. ) ;
#237 = CARTESIAN_POINT ( 'NONE',  ( -3.425846912673356057E-13, 0.000000000000000000, -114.2000000000000028 ) ) ;
#238 = DIRECTION ( 'NONE',  ( 0.000000000000000000, 1.000000000000000000, 0.000000000000000000 ) ) ;
#239 = MECHANICAL_CONTEXT ( 'NONE', #49, 'mechanical' ) ;
#240 = CC_DESIGN_PERSON_AND_ORGANIZATION_ASSIGNMENT ( #102, #87, ( #188 ) ) ;
#241 = ORIENTED_EDGE ( 'NONE', *, *, #30, .F. ) ;
#242 = AXIS2_PLACEMENT_3D ( 'NONE', #113, #250, #243 ) ;
#243 = DIRECTION ( 'NONE',  ( 3.059992022972416336E-15, 0.000000000000000000, 1.000000000000000000 ) ) ;
#244 = CARTESIAN_POINT ( 'NONE',  ( 0.000000000000000000, 0.000000000000000000, 0.000000000000000000 ) ) ;
#245 = PERSON ( 'UNSPECIFIED', 'UNSPECIFIED', 'UNSPECIFIED', ('UNSPECIFIED'), ('UNSPECIFIED'), ('UNSPECIFIED') ) ;
#246 = ORGANIZATION ( 'UNSPECIFIED', 'UNSPECIFIED', '' ) ;
#247 = LOCAL_TIME ( 10, 47, 50.00000000000000000, #131 ) ;
#248 = DIRECTION ( 'NONE',  ( 0.000000000000000000, 0.000000000000000000, 1.000000000000000000 ) ) ;
#249 = PERSON_AND_ORGANIZATION_ROLE ( 'creator' ) ;
#250 = DIRECTION ( 'NONE',  ( -1.000000000000000000, 0.000000000000000000, 3.059992022972416336E-15 ) ) ;
#251 = AXIS2_PLACEMENT_3D ( 'NONE', #70, #43, #148 ) ;
#252 = CIRCLE ( 'NONE', #177, 21.19999999999999574 ) ;
#253 = ORIENTED_EDGE ( 'NONE', *, *, #60, .F. ) ;
ENDSEC;
END-ISO-10303-21;
