ISO-10303-21;
HEADER;
FILE_DESCRIPTION (( 'STEP AP203' ),
    '1' );
FILE_NAME ('3D_R1650_21.3x1.6_17353110.STEP',
    '2024-08-03T07:36:35',
    ( '' ),
    ( '' ),
    'SwSTEP 2.0',
    'SolidWorks 2024',
    '' );
FILE_SCHEMA (( 'CONFIG_CONTROL_DESIGN' ));
ENDSEC;

DATA;
#1 = PLANE ( 'NONE',  #173 ) ;
#2 = DIRECTION ( 'NONE',  ( -2.220446049250313081E-16, 0.000000000000000000, 1.000000000000000000 ) ) ;
#3 = APPROVAL_DATE_TIME ( #30, #67 ) ;
#4 = DIRECTION ( 'NONE',  ( 1.000000000000000000, 0.000000000000000000, 2.220446049250313081E-16 ) ) ;
#5 = AXIS2_PLACEMENT_3D ( 'NONE', #100, #17, #132 ) ;
#6 = FACE_BOUND ( 'NONE', #37, .T. ) ;
#7 = AXIS2_PLACEMENT_3D ( 'NONE', #127, #161, #222 ) ;
#8 = EDGE_LOOP ( 'NONE', ( #218, #58, #157, #190 ) ) ;
#9 = APPROVAL ( #119, 'UNSPECIFIED' ) ;
#10 = ORIENTED_EDGE ( 'NONE', *, *, #112, .T. ) ;
#11 = EDGE_LOOP ( 'NONE', ( #247, #133, #148, #31 ) ) ;
#12 = AXIS2_PLACEMENT_3D ( 'NONE', #90, #2, #4 ) ;
#13 = VERTEX_POINT ( 'NONE', #195 ) ;
#14 = ORIENTED_EDGE ( 'NONE', *, *, #84, .F. ) ;
#15 = EDGE_CURVE ( 'NONE', #56, #13, #59, .T. ) ;
#16 = FACE_OUTER_BOUND ( 'NONE', #11, .T. ) ;
#17 = DIRECTION ( 'NONE',  ( -2.220446049250313081E-16, 0.000000000000000000, 1.000000000000000000 ) ) ;
#18 = CIRCLE ( 'NONE', #103, 8.599999999999999645 ) ;
#19 = DATE_TIME_ROLE ( 'classification_date' ) ;
#20 = DIRECTION ( 'NONE',  ( -0.7071067811865441310, 0.000000000000000000, 0.7071067811865509034 ) ) ;
#21 = CC_DESIGN_PERSON_AND_ORGANIZATION_ASSIGNMENT ( #188, #227, ( #164 ) ) ;
#22 = CARTESIAN_POINT ( 'NONE',  ( 0.000000000000000000, 0.000000000000000000, 0.000000000000000000 ) ) ;
#23 = ORIENTED_EDGE ( 'NONE', *, *, #106, .T. ) ;
#24 = AXIS2_PLACEMENT_3D ( 'NONE', #102, #224, #89 ) ;
#25 = APPROVAL_ROLE ( '' ) ;
#26 = PERSON_AND_ORGANIZATION ( #166, #87 ) ;
#27 = CARTESIAN_POINT ( 'NONE',  ( -19.79898987322342663, 0.000000000000000000, -19.79898987322323833 ) ) ;
#28 = LOCAL_TIME ( 9, 36, 35.00000000000000000, #77 ) ;
#29 = APPROVAL_STATUS ( 'not_yet_approved' ) ;
#30 = DATE_AND_TIME ( #208, #50 ) ;
#31 = ORIENTED_EDGE ( 'NONE', *, *, #15, .T. ) ;
#32 = AXIS2_PLACEMENT_3D ( 'NONE', #138, #251, #223 ) ;
#33 = CIRCLE ( 'NONE', #211, 6.999999999999999112 ) ;
#34 = EDGE_LOOP ( 'NONE', ( #118, #128 ) ) ;
#35 = EDGE_CURVE ( 'NONE', #177, #13, #162, .T. ) ;
#36 = DIRECTION ( 'NONE',  ( 0.000000000000000000, 1.000000000000000000, 0.000000000000000000 ) ) ;
#37 = EDGE_LOOP ( 'NONE', ( #113, #94 ) ) ;
#38 = PRODUCT_DEFINITION_SHAPE ( 'NONE', 'NONE',  #164 ) ;
#39 = CALENDAR_DATE ( 2024, 3, 8 ) ;
#40 = CARTESIAN_POINT ( 'NONE',  ( 0.000000000000000000, 0.000000000000000000, 0.000000000000000000 ) ) ;
#41 = CLOSED_SHELL ( 'NONE', ( #49, #155, #209, #71, #160, #142 ) ) ;
#42 = DIRECTION ( 'NONE',  ( 1.000000000000000000, 0.000000000000000000, 2.220446049250313081E-16 ) ) ;
#43 = DATE_AND_TIME ( #79, #28 ) ;
#44 = VERTEX_POINT ( 'NONE', #241 ) ;
#45 = CC_DESIGN_APPROVAL ( #67, ( #164 ) ) ;
#46 = DIRECTION ( 'NONE',  ( -0.7071067811865442421, 0.000000000000000000, 0.7071067811865509034 ) ) ;
#47 = DATE_TIME_ROLE ( 'creation_date' ) ;
#48 = PERSON_AND_ORGANIZATION_ROLE ( 'design_owner' ) ;
#49 = ADVANCED_FACE ( 'NONE', ( #181 ), #65, .F. ) ;
#50 = LOCAL_TIME ( 9, 36, 35.00000000000000000, #52 ) ;
#51 = AXIS2_PLACEMENT_3D ( 'NONE', #55, #154, #42 ) ;
#52 = COORDINATED_UNIVERSAL_TIME_OFFSET ( 1, 0, .AHEAD. ) ;
#53 = CIRCLE ( 'NONE', #32, 6.999999999999999112 ) ;
#54 = CC_DESIGN_APPROVAL ( #9, ( #213 ) ) ;
#55 = CARTESIAN_POINT ( 'NONE',  ( -28.00000000000000355, 0.000000000000000000, -8.673617379884035472E-15 ) ) ;
#56 = VERTEX_POINT ( 'NONE', #219 ) ;
#57 = APPROVAL_DATE_TIME ( #176, #230 ) ;
#58 = ORIENTED_EDGE ( 'NONE', *, *, #187, .T. ) ;
#59 = CIRCLE ( 'NONE', #5, 6.999999999999999112 ) ;
#60 = SECURITY_CLASSIFICATION_LEVEL ( 'unclassified' ) ;
#61 = DIRECTION ( 'NONE',  ( -2.220446049250313081E-16, 0.000000000000000000, 1.000000000000000000 ) ) ;
#62 = EDGE_CURVE ( 'NONE', #44, #97, #83, .T. ) ;
#63 = CARTESIAN_POINT ( 'NONE',  ( 0.000000000000000000, -8.572527594031473190E-16, 0.000000000000000000 ) ) ;
#64 =( NAMED_UNIT ( * ) SI_UNIT ( $, .STERADIAN. ) SOLID_ANGLE_UNIT ( ) );
#65 = TOROIDAL_SURFACE ( 'NONE', #126, 28.00000000000000355, 7.000000000000000000 ) ;
#66 = MECHANICAL_CONTEXT ( 'NONE', #228, 'mechanical' ) ;
#67 = APPROVAL ( #29, 'UNSPECIFIED' ) ;
#68 = DIRECTION ( 'NONE',  ( 0.000000000000000000, 1.000000000000000000, 0.000000000000000000 ) ) ;
#69 =( NAMED_UNIT ( * ) PLANE_ANGLE_UNIT ( ) SI_UNIT ( $, .RADIAN. ) );
#70 = PERSON_AND_ORGANIZATION ( #166, #87 ) ;
#71 = ADVANCED_FACE ( 'NONE', ( #199, #80 ), #1, .T. ) ;
#72 = AXIS2_PLACEMENT_3D ( 'NONE', #22, #194, #95 ) ;
#73 = ORIENTED_EDGE ( 'NONE', *, *, #35, .T. ) ;
#74 = CC_DESIGN_PERSON_AND_ORGANIZATION_ASSIGNMENT ( #182, #200, ( #115 ) ) ;
#75 = ORIENTED_EDGE ( 'NONE', *, *, #62, .F. ) ;
#76 = ORIENTED_EDGE ( 'NONE', *, *, #206, .F. ) ;
#77 = COORDINATED_UNIVERSAL_TIME_OFFSET ( 1, 0, .AHEAD. ) ;
#78 = DIRECTION ( 'NONE',  ( 0.000000000000000000, 0.000000000000000000, 1.000000000000000000 ) ) ;
#79 = CALENDAR_DATE ( 2024, 3, 8 ) ;
#80 = FACE_OUTER_BOUND ( 'NONE', #34, .T. ) ;
#81 = LOCAL_TIME ( 9, 36, 35.00000000000000000, #236 ) ;
#82 = DIRECTION ( 'NONE',  ( 1.000000000000000000, 0.000000000000000000, 2.220446049250313081E-16 ) ) ;
#83 = CIRCLE ( 'NONE', #51, 8.599999999999999645 ) ;
#84 = EDGE_CURVE ( 'NONE', #168, #44, #229, .T. ) ;
#85 = PERSON_AND_ORGANIZATION ( #166, #87 ) ;
#86 =( LENGTH_UNIT ( ) NAMED_UNIT ( * ) SI_UNIT ( .MILLI., .METRE. ) );
#87 = ORGANIZATION ( 'UNSPECIFIED', 'UNSPECIFIED', '' ) ;
#88 = EDGE_CURVE ( 'NONE', #13, #56, #33, .T. ) ;
#89 = DIRECTION ( 'NONE',  ( 0.7071067811865510144, 0.000000000000000000, 0.7071067811865440200 ) ) ;
#90 = CARTESIAN_POINT ( 'NONE',  ( -28.00000000000000355, 0.000000000000000000, -8.673617379884035472E-15 ) ) ;
#91 = APPROVAL_PERSON_ORGANIZATION ( #70, #230, #205 ) ;
#92 = EDGE_LOOP ( 'NONE', ( #186, #73, #109, #76 ) ) ;
#93 = CC_DESIGN_DATE_AND_TIME_ASSIGNMENT ( #43, #19, ( #213 ) ) ;
#94 = ORIENTED_EDGE ( 'NONE', *, *, #149, .T. ) ;
#95 = DIRECTION ( 'NONE',  ( 0.000000000000000000, 0.000000000000000000, 1.000000000000000000 ) ) ;
#96 = APPROVAL_PERSON_ORGANIZATION ( #216, #9, #25 ) ;
#97 = VERTEX_POINT ( 'NONE', #233 ) ;
#98 = PERSON_AND_ORGANIZATION ( #166, #87 ) ;
#99 = DIRECTION ( 'NONE',  ( 0.7071067811865509034, 0.000000000000000000, 0.7071067811865441310 ) ) ;
#100 = CARTESIAN_POINT ( 'NONE',  ( -28.00000000000000355, 0.000000000000000000, -6.217248937900877415E-15 ) ) ;
#101 = CIRCLE ( 'NONE', #7, 8.599999999999999645 ) ;
#102 = CARTESIAN_POINT ( 'NONE',  ( -19.79898987322342663, 0.000000000000000000, -19.79898987322323833 ) ) ;
#103 = AXIS2_PLACEMENT_3D ( 'NONE', #197, #20, #99 ) ;
#104 = FACE_OUTER_BOUND ( 'NONE', #215, .T. ) ;
#105 = CARTESIAN_POINT ( 'NONE',  ( 0.000000000000000000, 0.000000000000000000, 0.000000000000000000 ) ) ;
#106 = EDGE_CURVE ( 'NONE', #139, #97, #146, .T. ) ;
#107 =( GEOMETRIC_REPRESENTATION_CONTEXT ( 3 ) GLOBAL_UNCERTAINTY_ASSIGNED_CONTEXT ( ( #193 ) ) GLOBAL_UNIT_ASSIGNED_CONTEXT ( ( #86, #69, #64 ) ) REPRESENTATION_CONTEXT ( 'NONE', 'WORKASPACE' ) );
#108 = CC_DESIGN_PERSON_AND_ORGANIZATION_ASSIGNMENT ( #85, #48, ( #153 ) ) ;
#109 = ORIENTED_EDGE ( 'NONE', *, *, #88, .T. ) ;
#110 = TOROIDAL_SURFACE ( 'NONE', #72, 28.00000000000000355, 7.000000000000000000 ) ;
#111 = CARTESIAN_POINT ( 'NONE',  ( -28.00000000000000355, 0.000000000000000000, -6.217248937900877415E-15 ) ) ;
#112 = EDGE_CURVE ( 'NONE', #168, #139, #18, .T. ) ;
#113 = ORIENTED_EDGE ( 'NONE', *, *, #234, .T. ) ;
#114 = AXIS2_PLACEMENT_3D ( 'NONE', #135, #171, #117 ) ;
#115 = PRODUCT_DEFINITION_FORMATION_WITH_SPECIFIED_SOURCE ( 'ANY', '', #153, .NOT_KNOWN. ) ;
#116 = DIRECTION ( 'NONE',  ( 0.000000000000000000, 0.000000000000000000, 1.000000000000000000 ) ) ;
#117 = DIRECTION ( 'NONE',  ( 0.000000000000000000, 0.000000000000000000, 1.000000000000000000 ) ) ;
#118 = ORIENTED_EDGE ( 'NONE', *, *, #62, .T. ) ;
#119 = APPROVAL_STATUS ( 'not_yet_approved' ) ;
#120 = APPLICATION_PROTOCOL_DEFINITION ( 'international standard', 'config_control_design', 1994, #237 ) ;
#121 = CARTESIAN_POINT ( 'NONE',  ( 0.000000000000000000, 0.000000000000000000, 0.000000000000000000 ) ) ;
#122 = DATE_AND_TIME ( #246, #172 ) ;
#123 = APPROVAL_STATUS ( 'not_yet_approved' ) ;
#124 = AXIS2_PLACEMENT_3D ( 'NONE', #63, #68, #158 ) ;
#125 = PERSON_AND_ORGANIZATION ( #166, #87 ) ;
#126 = AXIS2_PLACEMENT_3D ( 'NONE', #150, #174, #252 ) ;
#127 = CARTESIAN_POINT ( 'NONE',  ( -19.79898987322342663, 0.000000000000000000, -19.79898987322323833 ) ) ;
#128 = ORIENTED_EDGE ( 'NONE', *, *, #250, .T. ) ;
#129 = AXIS2_PLACEMENT_3D ( 'NONE', #40, #36, #116 ) ;
#130 = VERTEX_POINT ( 'NONE', #156 ) ;
#131 = TOROIDAL_SURFACE ( 'NONE', #239, 28.00000000000000355, 8.599999999999999645 ) ;
#132 = DIRECTION ( 'NONE',  ( 1.000000000000000000, 0.000000000000000000, 2.220446049250313081E-16 ) ) ;
#133 = ORIENTED_EDGE ( 'NONE', *, *, #234, .F. ) ;
#134 = PERSON_AND_ORGANIZATION_ROLE ( 'design_supplier' ) ;
#135 = CARTESIAN_POINT ( 'NONE',  ( 0.000000000000000000, -1.053196247266723694E-15, 0.000000000000000000 ) ) ;
#136 = CIRCLE ( 'NONE', #124, 21.00000000000000355 ) ;
#137 = CC_DESIGN_PERSON_AND_ORGANIZATION_ASSIGNMENT ( #98, #198, ( #213 ) ) ;
#138 = CARTESIAN_POINT ( 'NONE',  ( -19.79898987322342663, 0.000000000000000000, -19.79898987322323833 ) ) ;
#139 = VERTEX_POINT ( 'NONE', #238 ) ;
#140 = APPLICATION_PROTOCOL_DEFINITION ( 'international standard', 'config_control_design', 1994, #228 ) ;
#141 = CIRCLE ( 'NONE', #24, 6.999999999999999112 ) ;
#142 = ADVANCED_FACE ( 'NONE', ( #16 ), #110, .F. ) ;
#143 = AXIS2_PLACEMENT_3D ( 'NONE', #152, #201, #78 ) ;
#144 = FACE_OUTER_BOUND ( 'NONE', #8, .T. ) ;
#145 = CARTESIAN_POINT ( 'NONE',  ( 0.000000000000000000, 0.000000000000000000, 0.000000000000000000 ) ) ;
#146 = CIRCLE ( 'NONE', #129, 36.60000000000000853 ) ;
#147 = AXIS2_PLACEMENT_3D ( 'NONE', #105, #244, #202 ) ;
#148 = ORIENTED_EDGE ( 'NONE', *, *, #206, .T. ) ;
#149 = EDGE_CURVE ( 'NONE', #177, #130, #53, .T. ) ;
#150 = CARTESIAN_POINT ( 'NONE',  ( 0.000000000000000000, 0.000000000000000000, 0.000000000000000000 ) ) ;
#151 = DESIGN_CONTEXT ( 'detailed design', #237, 'design' ) ;
#152 = CARTESIAN_POINT ( 'NONE',  ( 0.000000000000000000, 0.000000000000000000, 0.000000000000000000 ) ) ;
#153 = PRODUCT ( '3D_R1650_21.3x1.6_17353110', '3D_R1650_21.3x1.6_17353110', '', ( #66 ) ) ;
#154 = DIRECTION ( 'NONE',  ( -2.220446049250313081E-16, 0.000000000000000000, 1.000000000000000000 ) ) ;
#155 = ADVANCED_FACE ( 'NONE', ( #203 ), #131, .T. ) ;
#156 = CARTESIAN_POINT ( 'NONE',  ( -14.84924240491756997, -8.572527594031473190E-16, -14.84924240491743141 ) ) ;
#157 = ORIENTED_EDGE ( 'NONE', *, *, #84, .T. ) ;
#158 = DIRECTION ( 'NONE',  ( 0.000000000000000000, 0.000000000000000000, 1.000000000000000000 ) ) ;
#159 = MANIFOLD_SOLID_BREP ( 'Wandung1', #41 ) ;
#160 = ADVANCED_FACE ( 'NONE', ( #6, #104 ), #204, .F. ) ;
#161 = DIRECTION ( 'NONE',  ( -0.7071067811865441310, 0.000000000000000000, 0.7071067811865509034 ) ) ;
#162 = CIRCLE ( 'NONE', #143, 35.00000000000000000 ) ;
#163 = DIRECTION ( 'NONE',  ( 1.000000000000000000, 0.000000000000000000, 0.000000000000000000 ) ) ;
#164 = PRODUCT_DEFINITION ( 'UNKNOWN', '', #115, #151 ) ;
#165 = AXIS2_PLACEMENT_3D ( 'NONE', #145, #242, #163 ) ;
#166 = PERSON ( 'UNSPECIFIED', 'UNSPECIFIED', 'UNSPECIFIED', ('UNSPECIFIED'), ('UNSPECIFIED'), ('UNSPECIFIED') ) ;
#167 = EDGE_LOOP ( 'NONE', ( #170, #249 ) ) ;
#168 = VERTEX_POINT ( 'NONE', #183 ) ;
#169 = CC_DESIGN_APPROVAL ( #230, ( #115 ) ) ;
#170 = ORIENTED_EDGE ( 'NONE', *, *, #15, .F. ) ;
#171 = DIRECTION ( 'NONE',  ( 0.000000000000000000, 1.000000000000000000, 0.000000000000000000 ) ) ;
#172 = LOCAL_TIME ( 9, 36, 35.00000000000000000, #231 ) ;
#173 = AXIS2_PLACEMENT_3D ( 'NONE', #235, #61, #214 ) ;
#174 = DIRECTION ( 'NONE',  ( 0.000000000000000000, 1.000000000000000000, 0.000000000000000000 ) ) ;
#175 = PRODUCT_RELATED_PRODUCT_CATEGORY ( 'detail', '', ( #153 ) ) ;
#176 = DATE_AND_TIME ( #191, #189 ) ;
#177 = VERTEX_POINT ( 'NONE', #221 ) ;
#178 = APPROVAL_DATE_TIME ( #180, #9 ) ;
#179 = ORIENTED_EDGE ( 'NONE', *, *, #187, .F. ) ;
#180 = DATE_AND_TIME ( #39, #81 ) ;
#181 = FACE_OUTER_BOUND ( 'NONE', #92, .T. ) ;
#182 = PERSON_AND_ORGANIZATION ( #166, #87 ) ;
#183 = CARTESIAN_POINT ( 'NONE',  ( -13.71787155501909083, -1.053196247266723694E-15, -13.71787155501895938 ) ) ;
#184 = DIRECTION ( 'NONE',  ( 0.000000000000000000, 1.000000000000000000, 0.000000000000000000 ) ) ;
#185 = CC_DESIGN_PERSON_AND_ORGANIZATION_ASSIGNMENT ( #26, #134, ( #115 ) ) ;
#186 = ORIENTED_EDGE ( 'NONE', *, *, #149, .F. ) ;
#187 = EDGE_CURVE ( 'NONE', #139, #168, #101, .T. ) ;
#188 = PERSON_AND_ORGANIZATION ( #166, #87 ) ;
#189 = LOCAL_TIME ( 9, 36, 35.00000000000000000, #232 ) ;
#190 = ORIENTED_EDGE ( 'NONE', *, *, #250, .F. ) ;
#191 = CALENDAR_DATE ( 2024, 3, 8 ) ;
#192 = EDGE_LOOP ( 'NONE', ( #10, #23, #75, #14 ) ) ;
#193 = UNCERTAINTY_MEASURE_WITH_UNIT (LENGTH_MEASURE( 1.000000000000000082E-05 ), #86, 'distance_accuracy_value', 'NONE');
#194 = DIRECTION ( 'NONE',  ( 0.000000000000000000, 1.000000000000000000, 0.000000000000000000 ) ) ;
#195 = CARTESIAN_POINT ( 'NONE',  ( -35.00000000000000000, 0.000000000000000000, -7.771561172376095783E-15 ) ) ;
#196 = TOROIDAL_SURFACE ( 'NONE', #147, 28.00000000000000355, 8.599999999999999645 ) ;
#197 = CARTESIAN_POINT ( 'NONE',  ( -19.79898987322342663, 0.000000000000000000, -19.79898987322323833 ) ) ;
#198 = PERSON_AND_ORGANIZATION_ROLE ( 'classification_officer' ) ;
#199 = FACE_BOUND ( 'NONE', #167, .T. ) ;
#200 = PERSON_AND_ORGANIZATION_ROLE ( 'creator' ) ;
#201 = DIRECTION ( 'NONE',  ( 0.000000000000000000, 1.000000000000000000, 0.000000000000000000 ) ) ;
#202 = DIRECTION ( 'NONE',  ( 0.000000000000000000, 0.000000000000000000, 1.000000000000000000 ) ) ;
#203 = FACE_OUTER_BOUND ( 'NONE', #192, .T. ) ;
#204 = PLANE ( 'NONE',  #248 ) ;
#205 = APPROVAL_ROLE ( '' ) ;
#206 = EDGE_CURVE ( 'NONE', #130, #56, #136, .T. ) ;
#207 = CIRCLE ( 'NONE', #12, 8.599999999999999645 ) ;
#208 = CALENDAR_DATE ( 2024, 3, 8 ) ;
#209 = ADVANCED_FACE ( 'NONE', ( #144 ), #196, .T. ) ;
#210 = APPROVAL_PERSON_ORGANIZATION ( #125, #67, #226 ) ;
#211 = AXIS2_PLACEMENT_3D ( 'NONE', #111, #217, #82 ) ;
#212 = ORIENTED_EDGE ( 'NONE', *, *, #112, .F. ) ;
#213 = SECURITY_CLASSIFICATION ( '', '', #60 ) ;
#214 = DIRECTION ( 'NONE',  ( 1.000000000000000000, 0.000000000000000000, 2.220446049250313081E-16 ) ) ;
#215 = EDGE_LOOP ( 'NONE', ( #212, #179 ) ) ;
#216 = PERSON_AND_ORGANIZATION ( #166, #87 ) ;
#217 = DIRECTION ( 'NONE',  ( -2.220446049250313081E-16, 0.000000000000000000, 1.000000000000000000 ) ) ;
#218 = ORIENTED_EDGE ( 'NONE', *, *, #106, .F. ) ;
#219 = CARTESIAN_POINT ( 'NONE',  ( -21.00000000000000355, 0.000000000000000000, -4.662936703425658259E-15 ) ) ;
#220 = ADVANCED_BREP_SHAPE_REPRESENTATION ( '3D_R1650_21.3x1.6_17353110', ( #159, #165 ), #107 ) ;
#221 = CARTESIAN_POINT ( 'NONE',  ( -24.74873734152928506, 0.000000000000000000, -24.74873734152904703 ) ) ;
#222 = DIRECTION ( 'NONE',  ( 0.7071067811865509034, 0.000000000000000000, 0.7071067811865441310 ) ) ;
#223 = DIRECTION ( 'NONE',  ( 0.7071067811865510144, 0.000000000000000000, 0.7071067811865440200 ) ) ;
#224 = DIRECTION ( 'NONE',  ( -0.7071067811865441310, 0.000000000000000000, 0.7071067811865509034 ) ) ;
#225 = CC_DESIGN_SECURITY_CLASSIFICATION ( #213, ( #115 ) ) ;
#226 = APPROVAL_ROLE ( '' ) ;
#227 = PERSON_AND_ORGANIZATION_ROLE ( 'creator' ) ;
#228 = APPLICATION_CONTEXT ( 'configuration controlled 3d designs of mechanical parts and assemblies' ) ;
#229 = CIRCLE ( 'NONE', #114, 19.40000000000000568 ) ;
#230 = APPROVAL ( #123, 'UNSPECIFIED' ) ;
#231 = COORDINATED_UNIVERSAL_TIME_OFFSET ( 1, 0, .AHEAD. ) ;
#232 = COORDINATED_UNIVERSAL_TIME_OFFSET ( 1, 0, .AHEAD. ) ;
#233 = CARTESIAN_POINT ( 'NONE',  ( -36.60000000000000853, 0.000000000000000000, -1.058320098223930346E-14 ) ) ;
#234 = EDGE_CURVE ( 'NONE', #130, #177, #141, .T. ) ;
#235 = CARTESIAN_POINT ( 'NONE',  ( -28.00000000000000355, 0.000000000000000000, -8.673617379884035472E-15 ) ) ;
#236 = COORDINATED_UNIVERSAL_TIME_OFFSET ( 1, 0, .AHEAD. ) ;
#237 = APPLICATION_CONTEXT ( 'configuration controlled 3d designs of mechanical parts and assemblies' ) ;
#238 = CARTESIAN_POINT ( 'NONE',  ( -25.88010819142776953, 0.000000000000000000, -25.88010819142752084 ) ) ;
#239 = AXIS2_PLACEMENT_3D ( 'NONE', #121, #184, #245 ) ;
#240 = SHAPE_DEFINITION_REPRESENTATION ( #38, #220 ) ;
#241 = CARTESIAN_POINT ( 'NONE',  ( -19.40000000000000568, 0.000000000000000000, -6.764033777528765907E-15 ) ) ;
#242 = DIRECTION ( 'NONE',  ( 0.000000000000000000, 0.000000000000000000, 1.000000000000000000 ) ) ;
#243 = DIRECTION ( 'NONE',  ( 0.7071067811865507924, 0.000000000000000000, 0.7071067811865441310 ) ) ;
#244 = DIRECTION ( 'NONE',  ( 0.000000000000000000, 1.000000000000000000, 0.000000000000000000 ) ) ;
#245 = DIRECTION ( 'NONE',  ( 0.000000000000000000, 0.000000000000000000, 1.000000000000000000 ) ) ;
#246 = CALENDAR_DATE ( 2024, 3, 8 ) ;
#247 = ORIENTED_EDGE ( 'NONE', *, *, #35, .F. ) ;
#248 = AXIS2_PLACEMENT_3D ( 'NONE', #27, #46, #243 ) ;
#249 = ORIENTED_EDGE ( 'NONE', *, *, #88, .F. ) ;
#250 = EDGE_CURVE ( 'NONE', #97, #44, #207, .T. ) ;
#251 = DIRECTION ( 'NONE',  ( -0.7071067811865441310, 0.000000000000000000, 0.7071067811865509034 ) ) ;
#252 = DIRECTION ( 'NONE',  ( 0.000000000000000000, 0.000000000000000000, 1.000000000000000000 ) ) ;
#253 = CC_DESIGN_DATE_AND_TIME_ASSIGNMENT ( #122, #47, ( #164 ) ) ;
ENDSEC;
END-ISO-10303-21;
