ISO-10303-21;
HEADER;
FILE_DESCRIPTION (( 'STEP AP203' ),
    '1' );
FILE_NAME ('11-0232-06_outokumpu.step',
    '2015-08-11T14:06:53',
    ( '' ),
    ( '' ),
    'SwSTEP 2.0',
    'SolidWorks 2008',
    '' );
FILE_SCHEMA (( 'CONFIG_CONTROL_DESIGN' ));
ENDSEC;

DATA;
#1 = VERTEX_POINT ( 'NONE', #105 ) ;
#2 = VERTEX_POINT ( 'NONE', #104 ) ;
#3 = EDGE_CURVE ( 'NONE', #1, #2, #103, .T. ) ;
#4 = EDGE_CURVE ( 'NONE', #13, #2, #98, .T. ) ;
#5 = ORIENTED_EDGE ( 'NONE', *, *, #3, .T. ) ;
#6 = EDGE_LOOP ( 'NONE', ( #125, #84 ) ) ;
#7 = ADVANCED_FACE ( 'NONE', ( #99 ), #93, .F. ) ;
#8 = EDGE_CURVE ( 'NONE', #38, #13, #58, .T. ) ;
#9 = ORIENTED_EDGE ( 'NONE', *, *, #10, .F. ) ;
#10 = EDGE_CURVE ( 'NONE', #1, #18, #54, .T. ) ;
#11 = ORIENTED_EDGE ( 'NONE', *, *, #8, .F. ) ;
#12 = ORIENTED_EDGE ( 'NONE', *, *, #15, .T. ) ;
#13 = VERTEX_POINT ( 'NONE', #50 ) ;
#14 = EDGE_LOOP ( 'NONE', ( #19, #16, #12, #9 ) ) ;
#15 = EDGE_CURVE ( 'NONE', #17, #18, #49, .T. ) ;
#16 = ORIENTED_EDGE ( 'NONE', *, *, #23, .T. ) ;
#17 = VERTEX_POINT ( 'NONE', #78 ) ;
#18 = VERTEX_POINT ( 'NONE', #77 ) ;
#19 = ORIENTED_EDGE ( 'NONE', *, *, #36, .F. ) ;
#20 = DIRECTION ( 'NONE',  ( -0.0000000000000000000, 9.622224850443487500E-017, 1.000000000000000000 ) ) ;
#21 = DIRECTION ( 'NONE',  ( 0.0000000000000000000, -1.000000000000000000, 9.622224850443487500E-017 ) ) ;
#22 = DIRECTION ( 'NONE',  ( 0.0000000000000000000, 0.0000000000000000000, 1.000000000000000000 ) ) ;
#23 = EDGE_CURVE ( 'NONE', #38, #17, #76, .T. ) ;
#24 = DIRECTION ( 'NONE',  ( 1.000000000000000000, 0.0000000000000000000, 0.0000000000000000000 ) ) ;
#25 = ADVANCED_FACE ( 'NONE', ( #72 ), #71, .T. ) ;
#26 = VERTEX_POINT ( 'NONE', #135 ) ;
#27 = VERTEX_POINT ( 'NONE', #155 ) ;
#28 = ORIENTED_EDGE ( 'NONE', *, *, #39, .F. ) ;
#29 = ORIENTED_EDGE ( 'NONE', *, *, #31, .T. ) ;
#30 = EDGE_CURVE ( 'NONE', #27, #33, #176, .T. ) ;
#31 = EDGE_CURVE ( 'NONE', #44, #33, #160, .T. ) ;
#32 = ORIENTED_EDGE ( 'NONE', *, *, #30, .F. ) ;
#33 = VERTEX_POINT ( 'NONE', #172 ) ;
#34 = CARTESIAN_POINT ( 'NONE',  ( 0.0000000000000000000, 0.0000000000000000000, 0.0000000000000000000 ) ) ;
#35 = AXIS2_PLACEMENT_3D ( 'NONE', #34, #22, #24 ) ;
#36 = EDGE_CURVE ( 'NONE', #38, #1, #171, .T. ) ;
#37 = ORIENTED_EDGE ( 'NONE', *, *, #4, .F. ) ;
#38 = VERTEX_POINT ( 'NONE', #166 ) ;
#39 = EDGE_CURVE ( 'NONE', #26, #27, #165, .T. ) ;
#40 = ORIENTED_EDGE ( 'NONE', *, *, #36, .T. ) ;
#41 = ADVANCED_FACE ( 'NONE', ( #161 ), #134, .F. ) ;
#42 = EDGE_LOOP ( 'NONE', ( #40, #5, #37, #11 ) ) ;
#43 = EDGE_CURVE ( 'NONE', #26, #44, #129, .T. ) ;
#44 = VERTEX_POINT ( 'NONE', #152 ) ;
#45 = MANIFOLD_SOLID_BREP ( 'NONE', #116 ) ;
#46 = EDGE_LOOP ( 'NONE', ( #47, #29, #32, #28 ) ) ;
#47 = ORIENTED_EDGE ( 'NONE', *, *, #43, .T. ) ;
#48 = EDGE_CURVE ( 'NONE', #18, #17, #151, .T. ) ;
#49 = CIRCLE ( 'NONE', #82, 16.62450000000000100 ) ;
#50 = CARTESIAN_POINT ( 'NONE',  ( 0.0000000000000000000, 17.20504033241544300, -13.99999999999999800 ) ) ;
#51 = DIRECTION ( 'NONE',  ( -0.0000000000000000000, 9.622224850443487500E-017, 1.000000000000000000 ) ) ;
#52 = VECTOR ( 'NONE', #51, 1000.000000000000000 ) ;
#53 = CARTESIAN_POINT ( 'NONE',  ( 0.0000000000000000000, -16.62450000000000100, 1.599646770261977800E-015 ) ) ;
#54 = LINE ( 'NONE', #53, #52 ) ;
#55 = DIRECTION ( 'NONE',  ( 0.0000000000000000000, 0.7071067811865473500, -0.7071067811865477900 ) ) ;
#56 = VECTOR ( 'NONE', #55, 999.9999999999998900 ) ;
#57 = CARTESIAN_POINT ( 'NONE',  ( 0.0000000000000000000, 16.62450000000000100, -13.41945966758455500 ) ) ;
#58 = LINE ( 'NONE', #57, #56 ) ;
#59 = DIRECTION ( 'NONE',  ( 0.0000000000000000000, -1.000000000000000000, 9.622224850443488800E-017 ) ) ;
#60 = DIRECTION ( 'NONE',  ( -0.0000000000000000000, 9.622224850443487500E-017, 1.000000000000000000 ) ) ;
#61 = CARTESIAN_POINT ( 'NONE',  ( 0.0000000000000000000, 0.0000000000000000000, 0.0000000000000000000 ) ) ;
#62 = ADVANCED_FACE ( 'NONE', ( #146 ), #145, .F. ) ;
#63 = EDGE_LOOP ( 'NONE', ( #64, #124, #123, #88 ) ) ;
#64 = ORIENTED_EDGE ( 'NONE', *, *, #23, .F. ) ;
#65 = ADVANCED_FACE ( 'NONE', ( #144, #139 ), #70, .F. ) ;
#66 = EDGE_LOOP ( 'NONE', ( #67, #120 ) ) ;
#67 = ORIENTED_EDGE ( 'NONE', *, *, #43, .F. ) ;
#68 = EDGE_LOOP ( 'NONE', ( #69, #85 ) ) ;
#69 = ORIENTED_EDGE ( 'NONE', *, *, #4, .T. ) ;
#70 = PLANE ( 'NONE',  #137 ) ;
#71 = CYLINDRICAL_SURFACE ( 'NONE', #177, 19.75000000000000000 ) ;
#72 = FACE_OUTER_BOUND ( 'NONE', #46, .T. ) ;
#73 = DIRECTION ( 'NONE',  ( -0.0000000000000000000, 9.622224850443487500E-017, 1.000000000000000000 ) ) ;
#74 = VECTOR ( 'NONE', #73, 1000.000000000000000 ) ;
#75 = CARTESIAN_POINT ( 'NONE',  ( 2.035846832912011300E-015, 16.62450000000000100, -1.599646770261977800E-015 ) ) ;
#76 = LINE ( 'NONE', #75, #74 ) ;
#77 = CARTESIAN_POINT ( 'NONE',  ( 0.0000000000000000000, -16.62450000000000100, 9.000000000000005300 ) ) ;
#78 = CARTESIAN_POINT ( 'NONE',  ( 2.035846832912011300E-015, 16.62450000000000100, 9.000000000000001800 ) ) ;
#79 = DIRECTION ( 'NONE',  ( 0.0000000000000000000, -1.000000000000000000, 1.043474074995823700E-016 ) ) ;
#80 = DIRECTION ( 'NONE',  ( -0.0000000000000000000, 9.622224850443487500E-017, 1.000000000000000000 ) ) ;
#81 = CARTESIAN_POINT ( 'NONE',  ( 0.0000000000000000000, 8.660002365399142000E-016, 9.000000000000003600 ) ) ;
#82 = AXIS2_PLACEMENT_3D ( 'NONE', #81, #80, #79 ) ;
#83 = EDGE_CURVE ( 'NONE', #2, #13, #187, .T. ) ;
#84 = ORIENTED_EDGE ( 'NONE', *, *, #15, .F. ) ;
#85 = ORIENTED_EDGE ( 'NONE', *, *, #83, .T. ) ;
#86 = EDGE_LOOP ( 'NONE', ( #108, #109, #110, #111 ) ) ;
#87 = EDGE_CURVE ( 'NONE', #1, #38, #193, .T. ) ;
#88 = ORIENTED_EDGE ( 'NONE', *, *, #48, .T. ) ;
#89 = ORIENTED_EDGE ( 'NONE', *, *, #83, .F. ) ;
#90 = ORIENTED_EDGE ( 'NONE', *, *, #112, .T. ) ;
#91 = EDGE_LOOP ( 'NONE', ( #106, #117, #118, #89 ) ) ;
#92 = AXIS2_PLACEMENT_3D ( 'NONE', #61, #60, #59 ) ;
#93 = CYLINDRICAL_SURFACE ( 'NONE', #92, 16.62450000000000100 ) ;
#94 = DIRECTION ( 'NONE',  ( 0.0000000000000000000, -1.000000000000000000, 1.008264695961492400E-016 ) ) ;
#95 = DIRECTION ( 'NONE',  ( -0.0000000000000000000, 9.622224850443487500E-017, 1.000000000000000000 ) ) ;
#96 = CARTESIAN_POINT ( 'NONE',  ( 0.0000000000000000000, -1.347111479062087800E-015, -13.99999999999999600 ) ) ;
#97 = AXIS2_PLACEMENT_3D ( 'NONE', #96, #95, #94 ) ;
#98 = CIRCLE ( 'NONE', #97, 17.20504033241544300 ) ;
#99 = FACE_OUTER_BOUND ( 'NONE', #14, .T. ) ;
#100 = DIRECTION ( 'NONE',  ( 8.659274570719355400E-017, -0.7071067811865475700, -0.7071067811865474600 ) ) ;
#101 = VECTOR ( 'NONE', #100, 1000.000000000000000 ) ;
#102 = CARTESIAN_POINT ( 'NONE',  ( 2.035846832912011300E-015, -16.62450000000000100, -13.41945966758455100 ) ) ;
#103 = LINE ( 'NONE', #102, #101 ) ;
#104 = CARTESIAN_POINT ( 'NONE',  ( 2.106940170884622200E-015, -17.20504033241544300, -13.99999999999999500 ) ) ;
#105 = CARTESIAN_POINT ( 'NONE',  ( 0.0000000000000000000, -16.62450000000000100, -13.41945966758455100 ) ) ;
#106 = ORIENTED_EDGE ( 'NONE', *, *, #3, .F. ) ;
#107 = ADVANCED_FACE ( 'NONE', ( #194 ), #202, .T. ) ;
#108 = ORIENTED_EDGE ( 'NONE', *, *, #31, .F. ) ;
#109 = ORIENTED_EDGE ( 'NONE', *, *, #121, .T. ) ;
#110 = ORIENTED_EDGE ( 'NONE', *, *, #39, .T. ) ;
#111 = ORIENTED_EDGE ( 'NONE', *, *, #112, .F. ) ;
#112 = EDGE_CURVE ( 'NONE', #33, #27, #203, .T. ) ;
#113 = ADVANCED_FACE ( 'NONE', ( #199 ), #196, .F. ) ;
#114 = EDGE_LOOP ( 'NONE', ( #115, #90 ) ) ;
#115 = ORIENTED_EDGE ( 'NONE', *, *, #30, .T. ) ;
#116 = CLOSED_SHELL ( 'NONE', ( #25, #41, #7, #122, #62, #119, #65, #107, #113 ) ) ;
#117 = ORIENTED_EDGE ( 'NONE', *, *, #87, .T. ) ;
#118 = ORIENTED_EDGE ( 'NONE', *, *, #8, .T. ) ;
#119 = ADVANCED_FACE ( 'NONE', ( #220 ), #219, .F. ) ;
#120 = ORIENTED_EDGE ( 'NONE', *, *, #121, .F. ) ;
#121 = EDGE_CURVE ( 'NONE', #44, #26, #218, .T. ) ;
#122 = ADVANCED_FACE ( 'NONE', ( #210 ), #209, .F. ) ;
#123 = ORIENTED_EDGE ( 'NONE', *, *, #10, .T. ) ;
#124 = ORIENTED_EDGE ( 'NONE', *, *, #87, .F. ) ;
#125 = ORIENTED_EDGE ( 'NONE', *, *, #48, .F. ) ;
#126 = DIRECTION ( 'NONE',  ( 0.0000000000000000000, -1.000000000000000000, 9.622224850443486300E-017 ) ) ;
#127 = CARTESIAN_POINT ( 'NONE',  ( 0.0000000000000000000, -1.347111479062088200E-015, -14.00000000000000000 ) ) ;
#128 = AXIS2_PLACEMENT_3D ( 'NONE', #127, #154, #153 ) ;
#129 = CIRCLE ( 'NONE', #128, 19.75000000000000000 ) ;
#130 = DIRECTION ( 'NONE',  ( 0.0000000000000000000, 1.000000000000000000, -1.043474074995823700E-016 ) ) ;
#131 = DIRECTION ( 'NONE',  ( 0.0000000000000000000, -9.622224850443487500E-017, -1.000000000000000000 ) ) ;
#132 = CARTESIAN_POINT ( 'NONE',  ( 0.0000000000000000000, -1.291250582929561900E-015, -13.41945966758455300 ) ) ;
#133 = AXIS2_PLACEMENT_3D ( 'NONE', #132, #131, #130 ) ;
#134 = CONICAL_SURFACE ( 'NONE', #133, 16.62450000000000100, 0.7853981633974482800 ) ;
#135 = CARTESIAN_POINT ( 'NONE',  ( 0.0000000000000000000, -19.75000000000000000, -13.99999999999999800 ) ) ;
#136 = CARTESIAN_POINT ( 'NONE',  ( 0.0000000000000000000, 0.0000000000000000000, 0.0000000000000000000 ) ) ;
#137 = AXIS2_PLACEMENT_3D ( 'NONE', #138, #20, #21 ) ;
#138 = CARTESIAN_POINT ( 'NONE',  ( 0.0000000000000000000, 19.75000000000000000, -14.00000000000000000 ) ) ;
#139 = FACE_BOUND ( 'NONE', #68, .T. ) ;
#140 = DIRECTION ( 'NONE',  ( 0.0000000000000000000, -1.000000000000000000, 9.622224850443488800E-017 ) ) ;
#141 = DIRECTION ( 'NONE',  ( -0.0000000000000000000, 9.622224850443487500E-017, 1.000000000000000000 ) ) ;
#142 = CARTESIAN_POINT ( 'NONE',  ( 0.0000000000000000000, 0.0000000000000000000, 0.0000000000000000000 ) ) ;
#143 = AXIS2_PLACEMENT_3D ( 'NONE', #142, #141, #140 ) ;
#144 = FACE_OUTER_BOUND ( 'NONE', #66, .T. ) ;
#145 = CYLINDRICAL_SURFACE ( 'NONE', #143, 16.62450000000000100 ) ;
#146 = FACE_OUTER_BOUND ( 'NONE', #63, .T. ) ;
#147 = DIRECTION ( 'NONE',  ( 0.0000000000000000000, -1.000000000000000000, 1.043474074995823700E-016 ) ) ;
#148 = DIRECTION ( 'NONE',  ( -0.0000000000000000000, 9.622224850443487500E-017, 1.000000000000000000 ) ) ;
#149 = CARTESIAN_POINT ( 'NONE',  ( 0.0000000000000000000, 8.660002365399142000E-016, 9.000000000000003600 ) ) ;
#150 = AXIS2_PLACEMENT_3D ( 'NONE', #149, #148, #147 ) ;
#151 = CIRCLE ( 'NONE', #150, 16.62450000000000100 ) ;
#152 = CARTESIAN_POINT ( 'NONE',  ( 2.418597548799195100E-015, 19.75000000000000000, -14.00000000000000200 ) ) ;
#153 = DIRECTION ( 'NONE',  ( 0.0000000000000000000, -1.000000000000000000, 8.783410004945858700E-017 ) ) ;
#154 = DIRECTION ( 'NONE',  ( -0.0000000000000000000, 9.622224850443487500E-017, 1.000000000000000000 ) ) ;
#155 = CARTESIAN_POINT ( 'NONE',  ( 0.0000000000000000000, -19.75000000000000000, 14.00000000000000500 ) ) ;
#156 = DIRECTION ( 'NONE',  ( 0.0000000000000000000, -1.000000000000000000, 8.783410004945858700E-017 ) ) ;
#157 = DIRECTION ( 'NONE',  ( -0.0000000000000000000, 9.622224850443487500E-017, 1.000000000000000000 ) ) ;
#158 = CARTESIAN_POINT ( 'NONE',  ( 0.0000000000000000000, 1.347111479062088600E-015, 14.00000000000000400 ) ) ;
#159 = AXIS2_PLACEMENT_3D ( 'NONE', #158, #157, #156 ) ;
#160 = LINE ( 'NONE', #175, #174 ) ;
#161 = FACE_OUTER_BOUND ( 'NONE', #42, .T. ) ;
#162 = DIRECTION ( 'NONE',  ( -0.0000000000000000000, 9.622224850443487500E-017, 1.000000000000000000 ) ) ;
#163 = VECTOR ( 'NONE', #162, 1000.000000000000000 ) ;
#164 = CARTESIAN_POINT ( 'NONE',  ( 0.0000000000000000000, -19.75000000000000000, 1.900389407962588600E-015 ) ) ;
#165 = LINE ( 'NONE', #164, #163 ) ;
#166 = CARTESIAN_POINT ( 'NONE',  ( 2.035846832912011300E-015, 16.62450000000000100, -13.41945966758455500 ) ) ;
#167 = DIRECTION ( 'NONE',  ( 0.0000000000000000000, -1.000000000000000000, 1.043474074995823700E-016 ) ) ;
#168 = DIRECTION ( 'NONE',  ( -0.0000000000000000000, 9.622224850443487500E-017, 1.000000000000000000 ) ) ;
#169 = CARTESIAN_POINT ( 'NONE',  ( 0.0000000000000000000, -1.291250582929561900E-015, -13.41945966758455300 ) ) ;
#170 = AXIS2_PLACEMENT_3D ( 'NONE', #169, #168, #167 ) ;
#171 = CIRCLE ( 'NONE', #170, 16.62450000000000100 ) ;
#172 = CARTESIAN_POINT ( 'NONE',  ( 2.418597548799195100E-015, 19.75000000000000000, 14.00000000000000200 ) ) ;
#173 = DIRECTION ( 'NONE',  ( -0.0000000000000000000, 9.622224850443487500E-017, 1.000000000000000000 ) ) ;
#174 = VECTOR ( 'NONE', #173, 1000.000000000000000 ) ;
#175 = CARTESIAN_POINT ( 'NONE',  ( 2.418597548799195100E-015, 19.75000000000000000, -1.900389407962588600E-015 ) ) ;
#176 = CIRCLE ( 'NONE', #159, 19.75000000000000000 ) ;
#177 = AXIS2_PLACEMENT_3D ( 'NONE', #136, #178, #126 ) ;
#178 = DIRECTION ( 'NONE',  ( -0.0000000000000000000, 9.622224850443487500E-017, 1.000000000000000000 ) ) ;
#179 = DIRECTION ( 'NONE',  ( 0.0000000000000000000, -1.000000000000000000, 1.008264695961492400E-016 ) ) ;
#180 = DIRECTION ( 'NONE',  ( -0.0000000000000000000, 9.622224850443487500E-017, 1.000000000000000000 ) ) ;
#181 = CARTESIAN_POINT ( 'NONE',  ( 0.0000000000000000000, -1.291250582929561900E-015, -13.41945966758455300 ) ) ;
#182 = UNCERTAINTY_MEASURE_WITH_UNIT (LENGTH_MEASURE( 1.000000000000000100E-005 ), #185, 'distance_accuracy_value', 'NONE');
#183 =( NAMED_UNIT ( * ) SI_UNIT ( $, .STERADIAN. ) SOLID_ANGLE_UNIT ( ) );
#184 =( NAMED_UNIT ( * ) PLANE_ANGLE_UNIT ( ) SI_UNIT ( $, .RADIAN. ) );
#185 =( LENGTH_UNIT ( ) NAMED_UNIT ( * ) SI_UNIT ( .MILLI., .METRE. ) );
#186 = DIRECTION ( 'NONE',  ( 0.0000000000000000000, -1.000000000000000000, 9.622224850443487500E-017 ) ) ;
#187 = CIRCLE ( 'NONE', #228, 17.20504033241544300 ) ;
#188 = CARTESIAN_POINT ( 'NONE',  ( 0.0000000000000000000, -1.347111479062087800E-015, -13.99999999999999600 ) ) ;
#189 = CARTESIAN_POINT ( 'NONE',  ( 0.0000000000000000000, 0.0000000000000000000, 0.0000000000000000000 ) ) ;
#190 = DIRECTION ( 'NONE',  ( 0.0000000000000000000, -1.000000000000000000, 1.043474074995823700E-016 ) ) ;
#191 = DIRECTION ( 'NONE',  ( -0.0000000000000000000, 9.622224850443487500E-017, 1.000000000000000000 ) ) ;
#192 = AXIS2_PLACEMENT_3D ( 'NONE', #181, #191, #190 ) ;
#193 = CIRCLE ( 'NONE', #192, 16.62450000000000100 ) ;
#194 = FACE_OUTER_BOUND ( 'NONE', #86, .T. ) ;
#195 = CARTESIAN_POINT ( 'NONE',  ( 0.0000000000000000000, -1.347111479062088400E-015, 14.00000000000000400 ) ) ;
#196 = PLANE ( 'NONE',  #198 ) ;
#197 = CARTESIAN_POINT ( 'NONE',  ( 0.0000000000000000000, -1.291250582929561900E-015, -13.41945966758455300 ) ) ;
#198 = AXIS2_PLACEMENT_3D ( 'NONE', #195, #222, #221 ) ;
#199 = FACE_OUTER_BOUND ( 'NONE', #114, .T. ) ;
#200 = DIRECTION ( 'NONE',  ( 0.0000000000000000000, -1.000000000000000000, 8.783410004945858700E-017 ) ) ;
#201 = AXIS2_PLACEMENT_3D ( 'NONE', #189, #227, #226 ) ;
#202 = CYLINDRICAL_SURFACE ( 'NONE', #201, 19.75000000000000000 ) ;
#203 = CIRCLE ( 'NONE', #225, 19.75000000000000000 ) ;
#204 = ADVANCED_BREP_SHAPE_REPRESENTATION ( '11-0232-06_outokumpu', ( #45, #35 ), #205 ) ;
#205 =( GEOMETRIC_REPRESENTATION_CONTEXT ( 3 ) GLOBAL_UNCERTAINTY_ASSIGNED_CONTEXT ( ( #182 ) ) GLOBAL_UNIT_ASSIGNED_CONTEXT ( ( #185, #184, #183 ) ) REPRESENTATION_CONTEXT ( 'NONE', 'WORKASPACE' ) );
#206 = CARTESIAN_POINT ( 'NONE',  ( 0.0000000000000000000, 16.62450000000000100, 9.000000000000000000 ) ) ;
#207 = AXIS2_PLACEMENT_3D ( 'NONE', #206, #208, #186 ) ;
#208 = DIRECTION ( 'NONE',  ( -0.0000000000000000000, 9.622224850443487500E-017, 1.000000000000000000 ) ) ;
#209 = PLANE ( 'NONE',  #207 ) ;
#210 = FACE_OUTER_BOUND ( 'NONE', #6, .T. ) ;
#211 = DIRECTION ( 'NONE',  ( 0.0000000000000000000, -1.000000000000000000, 8.783410004945858700E-017 ) ) ;
#212 = DIRECTION ( 'NONE',  ( -0.0000000000000000000, 9.622224850443487500E-017, 1.000000000000000000 ) ) ;
#213 = CARTESIAN_POINT ( 'NONE',  ( 0.0000000000000000000, -1.347111479062088200E-015, -14.00000000000000000 ) ) ;
#214 = AXIS2_PLACEMENT_3D ( 'NONE', #213, #212, #211 ) ;
#215 = DIRECTION ( 'NONE',  ( 0.0000000000000000000, 1.000000000000000000, -1.043474074995823700E-016 ) ) ;
#216 = DIRECTION ( 'NONE',  ( 0.0000000000000000000, -9.622224850443487500E-017, -1.000000000000000000 ) ) ;
#217 = AXIS2_PLACEMENT_3D ( 'NONE', #197, #216, #215 ) ;
#218 = CIRCLE ( 'NONE', #214, 19.75000000000000000 ) ;
#219 = CONICAL_SURFACE ( 'NONE', #217, 16.62450000000000100, 0.7853981633974482800 ) ;
#220 = FACE_OUTER_BOUND ( 'NONE', #91, .T. ) ;
#221 = DIRECTION ( 'NONE',  ( 0.0000000000000000000, 1.000000000000000000, -9.622224850443487500E-017 ) ) ;
#222 = DIRECTION ( 'NONE',  ( 0.0000000000000000000, -9.622224850443487500E-017, -1.000000000000000000 ) ) ;
#223 = DIRECTION ( 'NONE',  ( -0.0000000000000000000, 9.622224850443487500E-017, 1.000000000000000000 ) ) ;
#224 = CARTESIAN_POINT ( 'NONE',  ( 0.0000000000000000000, 1.347111479062088600E-015, 14.00000000000000400 ) ) ;
#225 = AXIS2_PLACEMENT_3D ( 'NONE', #224, #223, #200 ) ;
#226 = DIRECTION ( 'NONE',  ( 0.0000000000000000000, -1.000000000000000000, 9.622224850443486300E-017 ) ) ;
#227 = DIRECTION ( 'NONE',  ( -0.0000000000000000000, 9.622224850443487500E-017, 1.000000000000000000 ) ) ;
#228 = AXIS2_PLACEMENT_3D ( 'NONE', #188, #180, #179 ) ;
#229 = APPLICATION_CONTEXT ( 'configuration controlled 3d designs of mechanical parts and assemblies' ) ;
#230 = PRODUCT_DEFINITION_SHAPE ( 'NONE', 'NONE',  #233 ) ;
#231 = PRODUCT_RELATED_PRODUCT_CATEGORY ( 'detail', '', ( #242 ) ) ;
#232 = PERSON_AND_ORGANIZATION ( #241, #240 ) ;
#233 = PRODUCT_DEFINITION ( 'UNKNOWN', '', #301, #234 ) ;
#234 = DESIGN_CONTEXT ( 'detailed design', #236, 'design' ) ;
#235 = APPLICATION_PROTOCOL_DEFINITION ( 'international standard', 'config_control_design', 1994, #236 ) ;
#236 = APPLICATION_CONTEXT ( 'configuration controlled 3d designs of mechanical parts and assemblies' ) ;
#237 = CC_DESIGN_PERSON_AND_ORGANIZATION_ASSIGNMENT ( #239, #238, ( #242 ) ) ;
#238 = PERSON_AND_ORGANIZATION_ROLE ( 'design_owner' ) ;
#239 = PERSON_AND_ORGANIZATION ( #241, #240 ) ;
#240 = ORGANIZATION ( 'UNSPECIFIED', 'UNSPECIFIED', '' ) ;
#241 = PERSON ( 'UNSPECIFIED', 'UNSPECIFIED', 'UNSPECIFIED', ('UNSPECIFIED'), ('UNSPECIFIED'), ('UNSPECIFIED') ) ;
#242 = PRODUCT ( '11-0232-06_outokumpu', '11-0232-06_outokumpu', '', ( #243 ) ) ;
#243 = MECHANICAL_CONTEXT ( 'NONE', #229, 'mechanical' ) ;
#244 = APPLICATION_PROTOCOL_DEFINITION ( 'international standard', 'config_control_design', 1994, #229 ) ;
#245 = DATE_AND_TIME ( #304, #305 ) ;
#246 = COORDINATED_UNIVERSAL_TIME_OFFSET ( 1, 0, .AHEAD. ) ;
#247 = CC_DESIGN_PERSON_AND_ORGANIZATION_ASSIGNMENT ( #249, #248, ( #233 ) ) ;
#248 = PERSON_AND_ORGANIZATION_ROLE ( 'creator' ) ;
#249 = PERSON_AND_ORGANIZATION ( #241, #240 ) ;
#250 = CC_DESIGN_APPROVAL ( #258, ( #233 ) ) ;
#251 = APPROVAL_DATE_TIME ( #252, #258 ) ;
#252 = DATE_AND_TIME ( #253, #254 ) ;
#253 = CALENDAR_DATE ( 2015, 11, 8 ) ;
#254 = LOCAL_TIME ( 16, 6, 53.00000000000000000, #255 ) ;
#255 = COORDINATED_UNIVERSAL_TIME_OFFSET ( 1, 0, .AHEAD. ) ;
#256 = APPROVAL_PERSON_ORGANIZATION ( #232, #258, #257 ) ;
#257 = APPROVAL_ROLE ( '' ) ;
#258 = APPROVAL ( #259, 'UNSPECIFIED' ) ;
#259 = APPROVAL_STATUS ( 'not_yet_approved' ) ;
#260 = SHAPE_DEFINITION_REPRESENTATION ( #230, #204 ) ;
#261 = CC_DESIGN_SECURITY_CLASSIFICATION ( #282, ( #301 ) ) ;
#262 = CC_DESIGN_APPROVAL ( #270, ( #282 ) ) ;
#263 = APPROVAL_DATE_TIME ( #264, #270 ) ;
#264 = DATE_AND_TIME ( #265, #266 ) ;
#265 = CALENDAR_DATE ( 2015, 11, 8 ) ;
#266 = LOCAL_TIME ( 16, 6, 53.00000000000000000, #267 ) ;
#267 = COORDINATED_UNIVERSAL_TIME_OFFSET ( 1, 0, .AHEAD. ) ;
#268 = APPROVAL_PERSON_ORGANIZATION ( #272, #270, #269 ) ;
#269 = APPROVAL_ROLE ( '' ) ;
#270 = APPROVAL ( #271, 'UNSPECIFIED' ) ;
#271 = APPROVAL_STATUS ( 'not_yet_approved' ) ;
#272 = PERSON_AND_ORGANIZATION ( #241, #240 ) ;
#273 = CC_DESIGN_DATE_AND_TIME_ASSIGNMENT ( #275, #274, ( #282 ) ) ;
#274 = DATE_TIME_ROLE ( 'classification_date' ) ;
#275 = DATE_AND_TIME ( #276, #277 ) ;
#276 = CALENDAR_DATE ( 2015, 11, 8 ) ;
#277 = LOCAL_TIME ( 16, 6, 53.00000000000000000, #278 ) ;
#278 = COORDINATED_UNIVERSAL_TIME_OFFSET ( 1, 0, .AHEAD. ) ;
#279 = CC_DESIGN_PERSON_AND_ORGANIZATION_ASSIGNMENT ( #281, #280, ( #282 ) ) ;
#280 = PERSON_AND_ORGANIZATION_ROLE ( 'classification_officer' ) ;
#281 = PERSON_AND_ORGANIZATION ( #241, #240 ) ;
#282 = SECURITY_CLASSIFICATION ( '', '', #283 ) ;
#283 = SECURITY_CLASSIFICATION_LEVEL ( 'unclassified' ) ;
#284 = CC_DESIGN_PERSON_AND_ORGANIZATION_ASSIGNMENT ( #286, #285, ( #301 ) ) ;
#285 = PERSON_AND_ORGANIZATION_ROLE ( 'design_supplier' ) ;
#286 = PERSON_AND_ORGANIZATION ( #241, #240 ) ;
#287 = CC_DESIGN_PERSON_AND_ORGANIZATION_ASSIGNMENT ( #289, #288, ( #301 ) ) ;
#288 = PERSON_AND_ORGANIZATION_ROLE ( 'creator' ) ;
#289 = PERSON_AND_ORGANIZATION ( #241, #240 ) ;
#290 = CC_DESIGN_APPROVAL ( #298, ( #301 ) ) ;
#291 = APPROVAL_DATE_TIME ( #292, #298 ) ;
#292 = DATE_AND_TIME ( #293, #294 ) ;
#293 = CALENDAR_DATE ( 2015, 11, 8 ) ;
#294 = LOCAL_TIME ( 16, 6, 53.00000000000000000, #295 ) ;
#295 = COORDINATED_UNIVERSAL_TIME_OFFSET ( 1, 0, .AHEAD. ) ;
#296 = APPROVAL_PERSON_ORGANIZATION ( #300, #298, #297 ) ;
#297 = APPROVAL_ROLE ( '' ) ;
#298 = APPROVAL ( #299, 'UNSPECIFIED' ) ;
#299 = APPROVAL_STATUS ( 'not_yet_approved' ) ;
#300 = PERSON_AND_ORGANIZATION ( #241, #240 ) ;
#301 = PRODUCT_DEFINITION_FORMATION_WITH_SPECIFIED_SOURCE ( 'ANY', '', #242, .NOT_KNOWN. ) ;
#302 = CC_DESIGN_DATE_AND_TIME_ASSIGNMENT ( #245, #303, ( #233 ) ) ;
#303 = DATE_TIME_ROLE ( 'creation_date' ) ;
#304 = CALENDAR_DATE ( 2015, 11, 8 ) ;
#305 = LOCAL_TIME ( 16, 6, 53.00000000000000000, #246 ) ;
ENDSEC;
END-ISO-10303-21;
