ISO-10303-21;
HEADER;
FILE_DESCRIPTION (( 'STEP AP203' ),
    '1' );
FILE_NAME ('3D-LR-131-SE_25-20_17106540.STEP',
    '2024-09-02T20:24:52',
    ( '' ),
    ( '' ),
    'SwSTEP 2.0',
    'SolidWorks 2024',
    '' );
FILE_SCHEMA (( 'CONFIG_CONTROL_DESIGN' ));
ENDSEC;

DATA;
#1 = ADVANCED_FACE ( 'NONE', ( #2 ), #328, .T. ) ;
#2 = FACE_OUTER_BOUND ( 'NONE', #325, .T. ) ;
#3 = DIRECTION ( 'NONE',  ( 0.000000000000000000, 0.000000000000000000, 1.000000000000000000 ) ) ;
#4 = VECTOR ( 'NONE', #346, 1000.000000000000000 ) ;
#5 = LINE ( 'NONE', #400, #8 ) ;
#6 = DIRECTION ( 'NONE',  ( 0.000000000000000000, 0.000000000000000000, 1.000000000000000000 ) ) ;
#7 = CARTESIAN_POINT ( 'NONE',  ( -36.70332301863295754, 1.224646799147353059E-15, -9.999999999999998224 ) ) ;
#8 = VECTOR ( 'NONE', #201, 999.9999999999998863 ) ;
#9 = CYLINDRICAL_SURFACE ( 'NONE', #144, 17.50000000000000000 ) ;
#10 = CARTESIAN_POINT ( 'NONE',  ( -8.550000000000002487, 0.000000000000000000, 0.000000000000000000 ) ) ;
#11 = EDGE_CURVE ( 'NONE', #58, #413, #62, .T. ) ;
#12 = EDGE_LOOP ( 'NONE', ( #345, #94 ) ) ;
#13 = AXIS2_PLACEMENT_3D ( 'NONE', #113, #72, #141 ) ;
#14 = FACE_OUTER_BOUND ( 'NONE', #286, .T. ) ;
#15 = VERTEX_POINT ( 'NONE', #358 ) ;
#16 = FACE_OUTER_BOUND ( 'NONE', #127, .T. ) ;
#17 = ORIENTED_EDGE ( 'NONE', *, *, #118, .T. ) ;
#18 = PERSON_AND_ORGANIZATION_ROLE ( 'classification_officer' ) ;
#19 = ORIENTED_EDGE ( 'NONE', *, *, #263, .F. ) ;
#20 = PERSON_AND_ORGANIZATION_ROLE ( 'design_owner' ) ;
#21 = LOCAL_TIME ( 22, 24, 52.00000000000000000, #428 ) ;
#22 = CC_DESIGN_APPROVAL ( #230, ( #77 ) ) ;
#23 = VERTEX_POINT ( 'NONE', #194 ) ;
#24 = CALENDAR_DATE ( 2024, 2, 9 ) ;
#25 = ORIENTED_EDGE ( 'NONE', *, *, #241, .T. ) ;
#26 = EDGE_CURVE ( 'NONE', #291, #58, #91, .T. ) ;
#27 = APPROVAL ( #60, 'UNSPECIFIED' ) ;
#28 = CARTESIAN_POINT ( 'NONE',  ( -9.750000000000001776, 0.000000000000000000, 0.000000000000000000 ) ) ;
#29 = PERSON_AND_ORGANIZATION ( #63, #51 ) ;
#30 = DIRECTION ( 'NONE',  ( -1.000000000000000000, -0.000000000000000000, -0.000000000000000000 ) ) ;
#31 = LOCAL_TIME ( 22, 24, 52.00000000000000000, #128 ) ;
#32 = EDGE_CURVE ( 'NONE', #57, #216, #369, .T. ) ;
#33 = VERTEX_POINT ( 'NONE', #270 ) ;
#34 = DIRECTION ( 'NONE',  ( 0.000000000000000000, 0.000000000000000000, 1.000000000000000000 ) ) ;
#35 = CARTESIAN_POINT ( 'NONE',  ( 9.749999999999994671, 0.000000000000000000, 0.000000000000000000 ) ) ;
#36 = AXIS2_PLACEMENT_3D ( 'NONE', #137, #279, #139 ) ;
#37 = LINE ( 'NONE', #7, #278 ) ;
#38 = ADVANCED_FACE ( 'NONE', ( #390 ), #256, .T. ) ;
#39 = CC_DESIGN_DATE_AND_TIME_ASSIGNMENT ( #160, #332, ( #103 ) ) ;
#40 = FACE_OUTER_BOUND ( 'NONE', #219, .T. ) ;
#41 = DIRECTION ( 'NONE',  ( -1.000000000000000000, -0.000000000000000000, -0.000000000000000000 ) ) ;
#42 = CIRCLE ( 'NONE', #151, 12.50000000000000000 ) ;
#43 = ADVANCED_FACE ( 'NONE', ( #65 ), #331, .T. ) ;
#44 = CARTESIAN_POINT ( 'NONE',  ( 0.7499999999999937828, 0.000000000000000000, 0.000000000000000000 ) ) ;
#45 = CC_DESIGN_PERSON_AND_ORGANIZATION_ASSIGNMENT ( #389, #20, ( #416 ) ) ;
#46 = ORIENTED_EDGE ( 'NONE', *, *, #337, .F. ) ;
#47 = CYLINDRICAL_SURFACE ( 'NONE', #419, 9.999999999999998224 ) ;
#48 = EDGE_LOOP ( 'NONE', ( #46, #71, #330, #155 ) ) ;
#49 = DIRECTION ( 'NONE',  ( 0.000000000000000000, 0.000000000000000000, 1.000000000000000000 ) ) ;
#50 = ORIENTED_EDGE ( 'NONE', *, *, #11, .T. ) ;
#51 = ORGANIZATION ( 'UNSPECIFIED', 'UNSPECIFIED', '' ) ;
#52 = APPROVAL_PERSON_ORGANIZATION ( #329, #230, #98 ) ;
#53 = CC_DESIGN_APPROVAL ( #236, ( #103 ) ) ;
#54 = DIRECTION ( 'NONE',  ( -1.000000000000000000, -0.000000000000000000, -0.000000000000000000 ) ) ;
#55 = VERTEX_POINT ( 'NONE', #134 ) ;
#56 = CARTESIAN_POINT ( 'NONE',  ( -8.550000000000002487, 0.000000000000000000, 17.50000000000000000 ) ) ;
#57 = VERTEX_POINT ( 'NONE', #268 ) ;
#58 = VERTEX_POINT ( 'NONE', #394 ) ;
#59 = EDGE_CURVE ( 'NONE', #388, #99, #106, .T. ) ;
#60 = APPROVAL_STATUS ( 'not_yet_approved' ) ;
#61 = AXIS2_PLACEMENT_3D ( 'NONE', #410, #81, #215 ) ;
#62 = LINE ( 'NONE', #260, #417 ) ;
#63 = PERSON ( 'UNSPECIFIED', 'UNSPECIFIED', 'UNSPECIFIED', ('UNSPECIFIED'), ('UNSPECIFIED'), ('UNSPECIFIED') ) ;
#64 = DIRECTION ( 'NONE',  ( 1.000000000000000000, 0.000000000000000000, 0.000000000000000000 ) ) ;
#65 = FACE_OUTER_BOUND ( 'NONE', #385, .T. ) ;
#66 = APPROVAL_DATE_TIME ( #395, #27 ) ;
#67 = ORIENTED_EDGE ( 'NONE', *, *, #246, .T. ) ;
#68 = COORDINATED_UNIVERSAL_TIME_OFFSET ( 1, 0, .AHEAD. ) ;
#69 = VECTOR ( 'NONE', #197, 1000.000000000000000 ) ;
#70 = CIRCLE ( 'NONE', #339, 15.50000000000000000 ) ;
#71 = ORIENTED_EDGE ( 'NONE', *, *, #276, .T. ) ;
#72 = DIRECTION ( 'NONE',  ( -1.000000000000000000, -0.000000000000000000, -0.000000000000000000 ) ) ;
#73 = CARTESIAN_POINT ( 'NONE',  ( -8.197346038583082972, 0.000000000000000000, 0.000000000000000000 ) ) ;
#74 = EDGE_CURVE ( 'NONE', #88, #375, #319, .T. ) ;
#75 = DIRECTION ( 'NONE',  ( -1.000000000000000000, -0.000000000000000000, -0.000000000000000000 ) ) ;
#76 = AXIS2_PLACEMENT_3D ( 'NONE', #85, #208, #211 ) ;
#77 = PRODUCT_DEFINITION_FORMATION_WITH_SPECIFIED_SOURCE ( 'ANY', '', #416, .NOT_KNOWN. ) ;
#78 = DIRECTION ( 'NONE',  ( -1.000000000000000000, -0.000000000000000000, -0.000000000000000000 ) ) ;
#79 = DIRECTION ( 'NONE',  ( 0.000000000000000000, 0.000000000000000000, 1.000000000000000000 ) ) ;
#80 = ADVANCED_FACE ( 'NONE', ( #429, #136 ), #233, .T. ) ;
#81 = DIRECTION ( 'NONE',  ( -1.000000000000000000, 0.000000000000000000, -0.000000000000000000 ) ) ;
#82 = ORIENTED_EDGE ( 'NONE', *, *, #425, .F. ) ;
#83 = AXIS2_PLACEMENT_3D ( 'NONE', #108, #229, #360 ) ;
#84 = AXIS2_PLACEMENT_3D ( 'NONE', #342, #244, #340 ) ;
#85 = CARTESIAN_POINT ( 'NONE',  ( -9.750000000000001776, 0.000000000000000000, 0.000000000000000000 ) ) ;
#86 = ORIENTED_EDGE ( 'NONE', *, *, #140, .T. ) ;
#87 = LINE ( 'NONE', #314, #312 ) ;
#88 = VERTEX_POINT ( 'NONE', #142 ) ;
#89 = DIRECTION ( 'NONE',  ( 0.000000000000000000, 0.000000000000000000, -1.000000000000000000 ) ) ;
#90 = EDGE_LOOP ( 'NONE', ( #156, #333 ) ) ;
#91 = CIRCLE ( 'NONE', #209, 15.50000000000000000 ) ;
#92 = AXIS2_PLACEMENT_3D ( 'NONE', #397, #111, #275 ) ;
#93 = DIRECTION ( 'NONE',  ( -1.000000000000000000, -0.000000000000000000, -0.000000000000000000 ) ) ;
#94 = ORIENTED_EDGE ( 'NONE', *, *, #168, .F. ) ;
#95 = SECURITY_CLASSIFICATION_LEVEL ( 'unclassified' ) ;
#96 = ORIENTED_EDGE ( 'NONE', *, *, #408, .F. ) ;
#97 = EDGE_CURVE ( 'NONE', #187, #216, #37, .T. ) ;
#98 = APPROVAL_ROLE ( '' ) ;
#99 = VERTEX_POINT ( 'NONE', #207 ) ;
#100 = CLOSED_SHELL ( 'NONE', ( #43, #227, #386, #326, #366, #392, #112, #398, #1, #38, #295, #80, #182 ) ) ;
#101 = COORDINATED_UNIVERSAL_TIME_OFFSET ( 1, 0, .AHEAD. ) ;
#102 = CIRCLE ( 'NONE', #121, 9.999999999999998224 ) ;
#103 = SECURITY_CLASSIFICATION ( '', '', #95 ) ;
#104 = DIRECTION ( 'NONE',  ( -1.000000000000000000, -0.000000000000000000, -0.000000000000000000 ) ) ;
#105 = DATE_AND_TIME ( #421, #302 ) ;
#106 = LINE ( 'NONE', #364, #69 ) ;
#107 = APPLICATION_CONTEXT ( 'configuration controlled 3d designs of mechanical parts and assemblies' ) ;
#108 = CARTESIAN_POINT ( 'NONE',  ( -8.550000000000002487, 0.000000000000000000, 0.000000000000000000 ) ) ;
#109 = VECTOR ( 'NONE', #282, 1000.000000000000000 ) ;
#110 = DIRECTION ( 'NONE',  ( 1.000000000000000000, 0.000000000000000000, 0.000000000000000000 ) ) ;
#111 = DIRECTION ( 'NONE',  ( -1.000000000000000000, -0.000000000000000000, -0.000000000000000000 ) ) ;
#112 = ADVANCED_FACE ( 'NONE', ( #143 ), #204, .F. ) ;
#113 = CARTESIAN_POINT ( 'NONE',  ( -8.550000000000002487, 0.000000000000000000, 0.000000000000000000 ) ) ;
#114 = CC_DESIGN_DATE_AND_TIME_ASSIGNMENT ( #135, #131, ( #355 ) ) ;
#115 = DIRECTION ( 'NONE',  ( -1.000000000000000000, -0.000000000000000000, -0.000000000000000000 ) ) ;
#116 = CIRCLE ( 'NONE', #292, 15.50000000000000000 ) ;
#117 = CYLINDRICAL_SURFACE ( 'NONE', #164, 12.50000000000000000 ) ;
#118 = EDGE_CURVE ( 'NONE', #257, #396, #172, .T. ) ;
#119 = DIRECTION ( 'NONE',  ( 0.000000000000000000, 0.000000000000000000, 1.000000000000000000 ) ) ;
#120 = DIRECTION ( 'NONE',  ( 1.000000000000000000, 0.000000000000000000, 0.000000000000000000 ) ) ;
#121 = AXIS2_PLACEMENT_3D ( 'NONE', #365, #404, #34 ) ;
#122 = DIRECTION ( 'NONE',  ( -1.000000000000000000, -0.000000000000000000, -0.000000000000000000 ) ) ;
#123 = ORIENTED_EDGE ( 'NONE', *, *, #130, .T. ) ;
#124 = CC_DESIGN_PERSON_AND_ORGANIZATION_ASSIGNMENT ( #290, #18, ( #103 ) ) ;
#125 = ORIENTED_EDGE ( 'NONE', *, *, #321, .T. ) ;
#126 = FACE_BOUND ( 'NONE', #212, .T. ) ;
#127 = EDGE_LOOP ( 'NONE', ( #86, #353, #210, #380 ) ) ;
#128 = COORDINATED_UNIVERSAL_TIME_OFFSET ( 1, 0, .AHEAD. ) ;
#129 = ORIENTED_EDGE ( 'NONE', *, *, #168, .T. ) ;
#130 = EDGE_CURVE ( 'NONE', #375, #88, #350, .T. ) ;
#131 = DATE_TIME_ROLE ( 'creation_date' ) ;
#132 = DATE_AND_TIME ( #423, #31 ) ;
#133 = DIRECTION ( 'NONE',  ( -1.000000000000000000, -0.000000000000000000, -0.000000000000000000 ) ) ;
#134 = CARTESIAN_POINT ( 'NONE',  ( -8.197346038583082972, 2.020667218593133100E-15, -15.50000000000000000 ) ) ;
#135 = DATE_AND_TIME ( #264, #376 ) ;
#136 = FACE_OUTER_BOUND ( 'NONE', #90, .T. ) ;
#137 = CARTESIAN_POINT ( 'NONE',  ( -8.197346038583082972, 0.000000000000000000, 0.000000000000000000 ) ) ;
#138 = CC_DESIGN_APPROVAL ( #27, ( #355 ) ) ;
#139 = DIRECTION ( 'NONE',  ( 0.000000000000000000, 0.000000000000000000, 1.000000000000000000 ) ) ;
#140 = EDGE_CURVE ( 'NONE', #413, #55, #320, .T. ) ;
#141 = DIRECTION ( 'NONE',  ( 0.000000000000000000, 0.000000000000000000, 1.000000000000000000 ) ) ;
#142 = CARTESIAN_POINT ( 'NONE',  ( 0.7499999999999937828, 0.000000000000000000, 12.50000000000000000 ) ) ;
#143 = FACE_OUTER_BOUND ( 'NONE', #254, .T. ) ;
#144 = AXIS2_PLACEMENT_3D ( 'NONE', #381, #122, #255 ) ;
#145 = CARTESIAN_POINT ( 'NONE',  ( 0.7499999999999937828, 1.530808498934191521E-15, -12.50000000000000000 ) ) ;
#146 = CARTESIAN_POINT ( 'NONE',  ( -36.70332301863295754, 2.143131898507868248E-15, -17.50000000000000000 ) ) ;
#147 = ORIENTED_EDGE ( 'NONE', *, *, #348, .F. ) ;
#148 = CARTESIAN_POINT ( 'NONE',  ( 9.749999999999994671, 1.530808498934191521E-15, -12.50000000000000000 ) ) ;
#149 = ORIENTED_EDGE ( 'NONE', *, *, #263, .T. ) ;
#150 = AXIS2_PLACEMENT_3D ( 'NONE', #192, #304, #159 ) ;
#151 = AXIS2_PLACEMENT_3D ( 'NONE', #35, #41, #176 ) ;
#152 = ORIENTED_EDGE ( 'NONE', *, *, #307, .T. ) ;
#153 = UNCERTAINTY_MEASURE_WITH_UNIT (LENGTH_MEASURE( 1.000000000000000082E-05 ), #412, 'distance_accuracy_value', 'NONE');
#154 = DIRECTION ( 'NONE',  ( 0.000000000000000000, 0.000000000000000000, 1.000000000000000000 ) ) ;
#155 = ORIENTED_EDGE ( 'NONE', *, *, #130, .F. ) ;
#156 = ORIENTED_EDGE ( 'NONE', *, *, #311, .F. ) ;
#157 = APPROVAL_PERSON_ORGANIZATION ( #261, #27, #162 ) ;
#158 = CALENDAR_DATE ( 2024, 2, 9 ) ;
#159 = DIRECTION ( 'NONE',  ( 0.000000000000000000, 0.000000000000000000, 1.000000000000000000 ) ) ;
#160 = DATE_AND_TIME ( #24, #205 ) ;
#161 = ORIENTED_EDGE ( 'NONE', *, *, #118, .F. ) ;
#162 = APPROVAL_ROLE ( '' ) ;
#163 = CARTESIAN_POINT ( 'NONE',  ( -36.70332301863295754, 0.000000000000000000, 0.000000000000000000 ) ) ;
#164 = AXIS2_PLACEMENT_3D ( 'NONE', #243, #310, #277 ) ;
#165 = APPROVAL_STATUS ( 'not_yet_approved' ) ;
#166 = DIRECTION ( 'NONE',  ( 0.000000000000000000, 0.000000000000000000, 1.000000000000000000 ) ) ;
#167 = ORIENTED_EDGE ( 'NONE', *, *, #97, .T. ) ;
#168 = EDGE_CURVE ( 'NONE', #216, #57, #102, .T. ) ;
#169 = CARTESIAN_POINT ( 'NONE',  ( 0.7499999999999970024, 15.50000000000000000, 0.000000000000000000 ) ) ;
#170 = CC_DESIGN_PERSON_AND_ORGANIZATION_ASSIGNMENT ( #223, #228, ( #77 ) ) ;
#171 = AXIS2_PLACEMENT_3D ( 'NONE', #28, #196, #265 ) ;
#172 = CIRCLE ( 'NONE', #371, 12.50000000000000000 ) ;
#173 = CARTESIAN_POINT ( 'NONE',  ( -36.70332301863295754, 0.000000000000000000, 0.000000000000000000 ) ) ;
#174 = DIRECTION ( 'NONE',  ( -1.000000000000000000, -0.000000000000000000, -0.000000000000000000 ) ) ;
#175 = FACE_OUTER_BOUND ( 'NONE', #48, .T. ) ;
#176 = DIRECTION ( 'NONE',  ( 0.000000000000000000, 0.000000000000000000, 1.000000000000000000 ) ) ;
#177 = AXIS2_PLACEMENT_3D ( 'NONE', #173, #115, #79 ) ;
#178 = CYLINDRICAL_SURFACE ( 'NONE', #266, 15.50000000000000000 ) ;
#179 = ORIENTED_EDGE ( 'NONE', *, *, #74, .F. ) ;
#180 = ADVANCED_BREP_SHAPE_REPRESENTATION ( '3D-LR-131-SE_25-20_17106540', ( #281, #399 ), #334 ) ;
#181 = FACE_OUTER_BOUND ( 'NONE', #262, .T. ) ;
#182 = ADVANCED_FACE ( 'NONE', ( #175 ), #117, .T. ) ;
#183 = ORIENTED_EDGE ( 'NONE', *, *, #337, .T. ) ;
#184 = AXIS2_PLACEMENT_3D ( 'NONE', #232, #30, #166 ) ;
#185 = ORIENTED_EDGE ( 'NONE', *, *, #97, .F. ) ;
#186 = CARTESIAN_POINT ( 'NONE',  ( -36.70332301863295754, 0.000000000000000000, 0.000000000000000000 ) ) ;
#187 = VERTEX_POINT ( 'NONE', #402 ) ;
#188 = EDGE_CURVE ( 'NONE', #15, #187, #203, .T. ) ;
#189 = DIRECTION ( 'NONE',  ( 0.000000000000000000, 0.000000000000000000, 1.000000000000000000 ) ) ;
#190 = ORIENTED_EDGE ( 'NONE', *, *, #234, .F. ) ;
#191 =( NAMED_UNIT ( * ) PLANE_ANGLE_UNIT ( ) SI_UNIT ( $, .RADIAN. ) );
#192 = CARTESIAN_POINT ( 'NONE',  ( -36.70332301863295754, 0.000000000000000000, 0.000000000000000000 ) ) ;
#193 = APPROVAL_STATUS ( 'not_yet_approved' ) ;
#194 = CARTESIAN_POINT ( 'NONE',  ( -8.550000000000002487, 2.143131898507868248E-15, -17.50000000000000000 ) ) ;
#195 = MECHANICAL_CONTEXT ( 'NONE', #107, 'mechanical' ) ;
#196 = DIRECTION ( 'NONE',  ( -1.000000000000000000, -0.000000000000000000, -0.000000000000000000 ) ) ;
#197 = DIRECTION ( 'NONE',  ( -1.000000000000000000, -0.000000000000000000, -0.000000000000000000 ) ) ;
#198 = VECTOR ( 'NONE', #383, 999.9999999999998863 ) ;
#199 = CARTESIAN_POINT ( 'NONE',  ( 0.7499999999999937828, 0.000000000000000000, 0.000000000000000000 ) ) ;
#200 = EDGE_CURVE ( 'NONE', #33, #99, #249, .T. ) ;
#201 = DIRECTION ( 'NONE',  ( -0.1736481776669254184, 0.000000000000000000, 0.9848077530122090195 ) ) ;
#202 = CARTESIAN_POINT ( 'NONE',  ( 0.7499999999999937828, 0.000000000000000000, 0.000000000000000000 ) ) ;
#203 = CIRCLE ( 'NONE', #92, 10.00000000000000000 ) ;
#204 = CYLINDRICAL_SURFACE ( 'NONE', #384, 9.999999999999998224 ) ;
#205 = LOCAL_TIME ( 22, 24, 52.00000000000000000, #418 ) ;
#206 = CARTESIAN_POINT ( 'NONE',  ( -9.750000000000001776, 1.224646799147353059E-15, -9.999999999999998224 ) ) ;
#207 = CARTESIAN_POINT ( 'NONE',  ( -9.750000000000001776, 0.000000000000000000, 17.50000000000000000 ) ) ;
#208 = DIRECTION ( 'NONE',  ( -1.000000000000000000, -0.000000000000000000, -0.000000000000000000 ) ) ;
#209 = AXIS2_PLACEMENT_3D ( 'NONE', #199, #104, #294 ) ;
#210 = ORIENTED_EDGE ( 'NONE', *, *, #241, .F. ) ;
#211 = DIRECTION ( 'NONE',  ( 0.000000000000000000, 0.000000000000000000, 1.000000000000000000 ) ) ;
#212 = EDGE_LOOP ( 'NONE', ( #303, #317 ) ) ;
#213 = DIRECTION ( 'NONE',  ( -1.000000000000000000, -0.000000000000000000, -0.000000000000000000 ) ) ;
#214 = ORIENTED_EDGE ( 'NONE', *, *, #269, .T. ) ;
#215 = DIRECTION ( 'NONE',  ( -0.000000000000000000, 0.000000000000000000, 1.000000000000000000 ) ) ;
#216 = VERTEX_POINT ( 'NONE', #206 ) ;
#217 = AXIS2_PLACEMENT_3D ( 'NONE', #251, #213, #49 ) ;
#218 = FACE_OUTER_BOUND ( 'NONE', #349, .T. ) ;
#219 = EDGE_LOOP ( 'NONE', ( #298, #125, #415, #362 ) ) ;
#220 = PRODUCT_DEFINITION_SHAPE ( 'NONE', 'NONE',  #355 ) ;
#221 = SHAPE_DEFINITION_REPRESENTATION ( #220, #180 ) ;
#222 = EDGE_LOOP ( 'NONE', ( #420, #123 ) ) ;
#223 = PERSON_AND_ORGANIZATION ( #63, #51 ) ;
#224 = ORIENTED_EDGE ( 'NONE', *, *, #269, .F. ) ;
#225 = CIRCLE ( 'NONE', #427, 17.50000000000000000 ) ;
#226 = APPROVAL_PERSON_ORGANIZATION ( #29, #236, #297 ) ;
#227 = ADVANCED_FACE ( 'NONE', ( #40 ), #306, .T. ) ;
#228 = PERSON_AND_ORGANIZATION_ROLE ( 'creator' ) ;
#229 = DIRECTION ( 'NONE',  ( -1.000000000000000000, -0.000000000000000000, -0.000000000000000000 ) ) ;
#230 = APPROVAL ( #193, 'UNSPECIFIED' ) ;
#231 =( NAMED_UNIT ( * ) SI_UNIT ( $, .STERADIAN. ) SOLID_ANGLE_UNIT ( ) );
#232 = CARTESIAN_POINT ( 'NONE',  ( 0.7499999999999937828, 0.000000000000000000, 0.000000000000000000 ) ) ;
#233 = PLANE ( 'NONE',  #391 ) ;
#234 = EDGE_CURVE ( 'NONE', #23, #388, #409, .T. ) ;
#235 = AXIS2_PLACEMENT_3D ( 'NONE', #10, #347, #245 ) ;
#236 = APPROVAL ( #165, 'UNSPECIFIED' ) ;
#237 = DIRECTION ( 'NONE',  ( 0.000000000000000000, 0.000000000000000000, 1.000000000000000000 ) ) ;
#238 = DESIGN_CONTEXT ( 'detailed design', #259, 'design' ) ;
#239 = CARTESIAN_POINT ( 'NONE',  ( -36.70332301863295754, 0.000000000000000000, 9.999999999999998224 ) ) ;
#240 = CARTESIAN_POINT ( 'NONE',  ( 9.749999999999994671, 0.000000000000000000, 0.000000000000000000 ) ) ;
#241 = EDGE_CURVE ( 'NONE', #388, #23, #225, .T. ) ;
#242 = VECTOR ( 'NONE', #93, 1000.000000000000000 ) ;
#243 = CARTESIAN_POINT ( 'NONE',  ( -36.70332301863295754, 0.000000000000000000, 0.000000000000000000 ) ) ;
#244 = DIRECTION ( 'NONE',  ( -1.000000000000000000, -0.000000000000000000, -0.000000000000000000 ) ) ;
#245 = DIRECTION ( 'NONE',  ( 0.000000000000000000, 0.000000000000000000, 1.000000000000000000 ) ) ;
#246 = EDGE_CURVE ( 'NONE', #413, #388, #5, .T. ) ;
#247 = CC_DESIGN_PERSON_AND_ORGANIZATION_ASSIGNMENT ( #357, #299, ( #77 ) ) ;
#248 = CARTESIAN_POINT ( 'NONE',  ( -36.70332301863295754, 1.530808498934191521E-15, -12.50000000000000000 ) ) ;
#249 = CIRCLE ( 'NONE', #84, 17.50000000000000000 ) ;
#250 = ORIENTED_EDGE ( 'NONE', *, *, #188, .F. ) ;
#251 = CARTESIAN_POINT ( 'NONE',  ( 9.749999999999994671, 0.000000000000000000, 0.000000000000000000 ) ) ;
#252 = EDGE_LOOP ( 'NONE', ( #161, #424 ) ) ;
#253 = FACE_BOUND ( 'NONE', #12, .T. ) ;
#254 = EDGE_LOOP ( 'NONE', ( #185, #250, #149, #351 ) ) ;
#255 = DIRECTION ( 'NONE',  ( 0.000000000000000000, 0.000000000000000000, 1.000000000000000000 ) ) ;
#256 = CONICAL_SURFACE ( 'NONE', #83, 17.50000000000000000, 1.396263401595468689 ) ;
#257 = VERTEX_POINT ( 'NONE', #341 ) ;
#258 = VECTOR ( 'NONE', #367, 1000.000000000000000 ) ;
#259 = APPLICATION_CONTEXT ( 'configuration controlled 3d designs of mechanical parts and assemblies' ) ;
#260 = CARTESIAN_POINT ( 'NONE',  ( -36.70332301863295754, 0.000000000000000000, 15.50000000000000000 ) ) ;
#261 = PERSON_AND_ORGANIZATION ( #63, #51 ) ;
#262 = EDGE_LOOP ( 'NONE', ( #82, #167, #129, #19 ) ) ;
#263 = EDGE_CURVE ( 'NONE', #15, #57, #368, .T. ) ;
#264 = CALENDAR_DATE ( 2024, 2, 9 ) ;
#265 = DIRECTION ( 'NONE',  ( 0.000000000000000000, 0.000000000000000000, 1.000000000000000000 ) ) ;
#266 = AXIS2_PLACEMENT_3D ( 'NONE', #186, #287, #154 ) ;
#267 = DIRECTION ( 'NONE',  ( 0.000000000000000000, 0.000000000000000000, 1.000000000000000000 ) ) ;
#268 = CARTESIAN_POINT ( 'NONE',  ( -9.750000000000001776, 0.000000000000000000, 9.999999999999998224 ) ) ;
#269 = EDGE_CURVE ( 'NONE', #55, #413, #70, .T. ) ;
#270 = CARTESIAN_POINT ( 'NONE',  ( -9.750000000000001776, 2.143131898507868248E-15, -17.50000000000000000 ) ) ;
#271 = FACE_OUTER_BOUND ( 'NONE', #323, .T. ) ;
#272 = CONICAL_SURFACE ( 'NONE', #235, 17.50000000000000000, 1.396263401595468689 ) ;
#273 = CC_DESIGN_SECURITY_CLASSIFICATION ( #103, ( #77 ) ) ;
#274 = DIRECTION ( 'NONE',  ( -1.000000000000000000, -0.000000000000000000, -0.000000000000000000 ) ) ;
#275 = DIRECTION ( 'NONE',  ( 0.000000000000000000, 0.000000000000000000, 1.000000000000000000 ) ) ;
#276 = EDGE_CURVE ( 'NONE', #396, #257, #42, .T. ) ;
#277 = DIRECTION ( 'NONE',  ( 0.000000000000000000, 0.000000000000000000, 1.000000000000000000 ) ) ;
#278 = VECTOR ( 'NONE', #78, 1000.000000000000000 ) ;
#279 = DIRECTION ( 'NONE',  ( -1.000000000000000000, -0.000000000000000000, -0.000000000000000000 ) ) ;
#280 = PLANE ( 'NONE',  #301 ) ;
#281 = MANIFOLD_SOLID_BREP ( 'Rotation1', #100 ) ;
#282 = DIRECTION ( 'NONE',  ( -1.000000000000000000, -0.000000000000000000, -0.000000000000000000 ) ) ;
#283 = ORIENTED_EDGE ( 'NONE', *, *, #59, .F. ) ;
#284 = PLANE ( 'NONE',  #61 ) ;
#285 = AXIS2_PLACEMENT_3D ( 'NONE', #202, #336, #338 ) ;
#286 = EDGE_LOOP ( 'NONE', ( #152, #378 ) ) ;
#287 = DIRECTION ( 'NONE',  ( -1.000000000000000000, -0.000000000000000000, -0.000000000000000000 ) ) ;
#288 = CARTESIAN_POINT ( 'NONE',  ( 9.749999999999996447, 12.50000000000000000, 0.000000000000000000 ) ) ;
#289 = ORIENTED_EDGE ( 'NONE', *, *, #408, .T. ) ;
#290 = PERSON_AND_ORGANIZATION ( #63, #51 ) ;
#291 = VERTEX_POINT ( 'NONE', #313 ) ;
#292 = AXIS2_PLACEMENT_3D ( 'NONE', #44, #379, #189 ) ;
#293 = PERSON_AND_ORGANIZATION ( #63, #51 ) ;
#294 = DIRECTION ( 'NONE',  ( 0.000000000000000000, 0.000000000000000000, 1.000000000000000000 ) ) ;
#295 = ADVANCED_FACE ( 'NONE', ( #271 ), #178, .T. ) ;
#296 = CC_DESIGN_PERSON_AND_ORGANIZATION_ASSIGNMENT ( #293, #393, ( #355 ) ) ;
#297 = APPROVAL_ROLE ( '' ) ;
#298 = ORIENTED_EDGE ( 'NONE', *, *, #311, .T. ) ;
#299 = PERSON_AND_ORGANIZATION_ROLE ( 'design_supplier' ) ;
#300 = DIRECTION ( 'NONE',  ( -1.000000000000000000, -0.000000000000000000, -0.000000000000000000 ) ) ;
#301 = AXIS2_PLACEMENT_3D ( 'NONE', #288, #120, #89 ) ;
#302 = LOCAL_TIME ( 22, 24, 52.00000000000000000, #68 ) ;
#303 = ORIENTED_EDGE ( 'NONE', *, *, #188, .T. ) ;
#304 = DIRECTION ( 'NONE',  ( -1.000000000000000000, -0.000000000000000000, -0.000000000000000000 ) ) ;
#305 = CARTESIAN_POINT ( 'NONE',  ( -36.70332301863295754, 0.000000000000000000, 0.000000000000000000 ) ) ;
#306 = CYLINDRICAL_SURFACE ( 'NONE', #177, 15.50000000000000000 ) ;
#307 = EDGE_CURVE ( 'NONE', #99, #33, #403, .T. ) ;
#308 = PRODUCT_RELATED_PRODUCT_CATEGORY ( 'detail', '', ( #416 ) ) ;
#309 = DIRECTION ( 'NONE',  ( 0.000000000000000000, 0.000000000000000000, 1.000000000000000000 ) ) ;
#310 = DIRECTION ( 'NONE',  ( -1.000000000000000000, -0.000000000000000000, -0.000000000000000000 ) ) ;
#311 = EDGE_CURVE ( 'NONE', #58, #291, #116, .T. ) ;
#312 = VECTOR ( 'NONE', #318, 1000.000000000000000 ) ;
#313 = CARTESIAN_POINT ( 'NONE',  ( 0.7499999999999937828, 1.898202538678397557E-15, -15.50000000000000000 ) ) ;
#314 = CARTESIAN_POINT ( 'NONE',  ( -36.70332301863295754, 0.000000000000000000, 12.50000000000000000 ) ) ;
#315 = ORIENTED_EDGE ( 'NONE', *, *, #234, .T. ) ;
#316 = LINE ( 'NONE', #414, #242 ) ;
#317 = ORIENTED_EDGE ( 'NONE', *, *, #425, .T. ) ;
#318 = DIRECTION ( 'NONE',  ( -1.000000000000000000, -0.000000000000000000, -0.000000000000000000 ) ) ;
#319 = CIRCLE ( 'NONE', #184, 12.50000000000000000 ) ;
#320 = CIRCLE ( 'NONE', #36, 15.50000000000000000 ) ;
#321 = EDGE_CURVE ( 'NONE', #291, #55, #316, .T. ) ;
#322 = FACE_OUTER_BOUND ( 'NONE', #252, .T. ) ;
#323 = EDGE_LOOP ( 'NONE', ( #411, #335, #50, #224 ) ) ;
#324 = APPROVAL_DATE_TIME ( #105, #230 ) ;
#325 = EDGE_LOOP ( 'NONE', ( #96, #315, #387, #382 ) ) ;
#326 = ADVANCED_FACE ( 'NONE', ( #218 ), #9, .T. ) ;
#327 = CARTESIAN_POINT ( 'NONE',  ( 0.000000000000000000, 0.000000000000000000, 0.000000000000000000 ) ) ;
#328 = CYLINDRICAL_SURFACE ( 'NONE', #150, 17.50000000000000000 ) ;
#329 = PERSON_AND_ORGANIZATION ( #63, #51 ) ;
#330 = ORIENTED_EDGE ( 'NONE', *, *, #354, .T. ) ;
#331 = CYLINDRICAL_SURFACE ( 'NONE', #370, 12.50000000000000000 ) ;
#332 = DATE_TIME_ROLE ( 'classification_date' ) ;
#333 = ORIENTED_EDGE ( 'NONE', *, *, #26, .F. ) ;
#334 =( GEOMETRIC_REPRESENTATION_CONTEXT ( 3 ) GLOBAL_UNCERTAINTY_ASSIGNED_CONTEXT ( ( #153 ) ) GLOBAL_UNIT_ASSIGNED_CONTEXT ( ( #412, #191, #231 ) ) REPRESENTATION_CONTEXT ( 'NONE', 'WORKASPACE' ) );
#335 = ORIENTED_EDGE ( 'NONE', *, *, #26, .T. ) ;
#336 = DIRECTION ( 'NONE',  ( -1.000000000000000000, -0.000000000000000000, -0.000000000000000000 ) ) ;
#337 = EDGE_CURVE ( 'NONE', #396, #375, #405, .T. ) ;
#338 = DIRECTION ( 'NONE',  ( 0.000000000000000000, 0.000000000000000000, 1.000000000000000000 ) ) ;
#339 = AXIS2_PLACEMENT_3D ( 'NONE', #73, #75, #6 ) ;
#340 = DIRECTION ( 'NONE',  ( 0.000000000000000000, 0.000000000000000000, 1.000000000000000000 ) ) ;
#341 = CARTESIAN_POINT ( 'NONE',  ( 9.749999999999994671, 0.000000000000000000, 12.50000000000000000 ) ) ;
#342 = CARTESIAN_POINT ( 'NONE',  ( -9.750000000000001776, 0.000000000000000000, 0.000000000000000000 ) ) ;
#343 = CIRCLE ( 'NONE', #217, 10.00000000000000000 ) ;
#344 = LINE ( 'NONE', #146, #109 ) ;
#345 = ORIENTED_EDGE ( 'NONE', *, *, #32, .F. ) ;
#346 = DIRECTION ( 'NONE',  ( -1.000000000000000000, -0.000000000000000000, -0.000000000000000000 ) ) ;
#347 = DIRECTION ( 'NONE',  ( -1.000000000000000000, -0.000000000000000000, -0.000000000000000000 ) ) ;
#348 = EDGE_CURVE ( 'NONE', #55, #23, #374, .T. ) ;
#349 = EDGE_LOOP ( 'NONE', ( #25, #289, #407, #283 ) ) ;
#350 = CIRCLE ( 'NONE', #285, 12.50000000000000000 ) ;
#351 = ORIENTED_EDGE ( 'NONE', *, *, #32, .T. ) ;
#352 = CARTESIAN_POINT ( 'NONE',  ( -36.70332301863295754, 0.000000000000000000, 0.000000000000000000 ) ) ;
#353 = ORIENTED_EDGE ( 'NONE', *, *, #348, .T. ) ;
#354 = EDGE_CURVE ( 'NONE', #257, #88, #87, .T. ) ;
#355 = PRODUCT_DEFINITION ( 'UNKNOWN', '', #77, #238 ) ;
#356 = EDGE_LOOP ( 'NONE', ( #147, #214, #67, #190 ) ) ;
#357 = PERSON_AND_ORGANIZATION ( #63, #51 ) ;
#358 = CARTESIAN_POINT ( 'NONE',  ( 9.749999999999994671, 0.000000000000000000, 10.00000000000000000 ) ) ;
#359 = APPROVAL_DATE_TIME ( #132, #236 ) ;
#360 = DIRECTION ( 'NONE',  ( 0.000000000000000000, 0.000000000000000000, 1.000000000000000000 ) ) ;
#361 = APPLICATION_PROTOCOL_DEFINITION ( 'international standard', 'config_control_design', 1994, #259 ) ;
#362 = ORIENTED_EDGE ( 'NONE', *, *, #11, .F. ) ;
#363 = APPLICATION_PROTOCOL_DEFINITION ( 'international standard', 'config_control_design', 1994, #107 ) ;
#364 = CARTESIAN_POINT ( 'NONE',  ( -36.70332301863295754, 0.000000000000000000, 17.50000000000000000 ) ) ;
#365 = CARTESIAN_POINT ( 'NONE',  ( -9.750000000000001776, 0.000000000000000000, 0.000000000000000000 ) ) ;
#366 = ADVANCED_FACE ( 'NONE', ( #181 ), #47, .F. ) ;
#367 = DIRECTION ( 'NONE',  ( -1.000000000000000000, -0.000000000000000000, -0.000000000000000000 ) ) ;
#368 = LINE ( 'NONE', #239, #258 ) ;
#369 = CIRCLE ( 'NONE', #171, 9.999999999999998224 ) ;
#370 = AXIS2_PLACEMENT_3D ( 'NONE', #163, #300, #426 ) ;
#371 = AXIS2_PLACEMENT_3D ( 'NONE', #240, #373, #3 ) ;
#372 = DIRECTION ( 'NONE',  ( 0.000000000000000000, 0.000000000000000000, -1.000000000000000000 ) ) ;
#373 = DIRECTION ( 'NONE',  ( -1.000000000000000000, -0.000000000000000000, -0.000000000000000000 ) ) ;
#374 = LINE ( 'NONE', #377, #198 ) ;
#375 = VERTEX_POINT ( 'NONE', #145 ) ;
#376 = LOCAL_TIME ( 22, 24, 52.00000000000000000, #101 ) ;
#377 = CARTESIAN_POINT ( 'NONE',  ( -8.550000000000002487, 2.143131898507868248E-15, -17.50000000000000000 ) ) ;
#378 = ORIENTED_EDGE ( 'NONE', *, *, #200, .T. ) ;
#379 = DIRECTION ( 'NONE',  ( -1.000000000000000000, -0.000000000000000000, -0.000000000000000000 ) ) ;
#380 = ORIENTED_EDGE ( 'NONE', *, *, #246, .F. ) ;
#381 = CARTESIAN_POINT ( 'NONE',  ( -36.70332301863295754, 0.000000000000000000, 0.000000000000000000 ) ) ;
#382 = ORIENTED_EDGE ( 'NONE', *, *, #200, .F. ) ;
#383 = DIRECTION ( 'NONE',  ( -0.1736481776669254184, 1.206041662501898854E-16, -0.9848077530122090195 ) ) ;
#384 = AXIS2_PLACEMENT_3D ( 'NONE', #305, #174, #237 ) ;
#385 = EDGE_LOOP ( 'NONE', ( #17, #183, #179, #422 ) ) ;
#386 = ADVANCED_FACE ( 'NONE', ( #16 ), #272, .T. ) ;
#387 = ORIENTED_EDGE ( 'NONE', *, *, #59, .T. ) ;
#388 = VERTEX_POINT ( 'NONE', #56 ) ;
#389 = PERSON_AND_ORGANIZATION ( #63, #51 ) ;
#390 = FACE_OUTER_BOUND ( 'NONE', #356, .T. ) ;
#391 = AXIS2_PLACEMENT_3D ( 'NONE', #169, #110, #372 ) ;
#392 = ADVANCED_FACE ( 'NONE', ( #126, #322 ), #280, .T. ) ;
#393 = PERSON_AND_ORGANIZATION_ROLE ( 'creator' ) ;
#394 = CARTESIAN_POINT ( 'NONE',  ( 0.7499999999999937828, 0.000000000000000000, 15.50000000000000000 ) ) ;
#395 = DATE_AND_TIME ( #158, #21 ) ;
#396 = VERTEX_POINT ( 'NONE', #148 ) ;
#397 = CARTESIAN_POINT ( 'NONE',  ( 9.749999999999994671, 0.000000000000000000, 0.000000000000000000 ) ) ;
#398 = ADVANCED_FACE ( 'NONE', ( #14, #253 ), #284, .T. ) ;
#399 = AXIS2_PLACEMENT_3D ( 'NONE', #327, #267, #64 ) ;
#400 = CARTESIAN_POINT ( 'NONE',  ( -8.550000000000002487, 0.000000000000000000, 17.50000000000000000 ) ) ;
#401 = CARTESIAN_POINT ( 'NONE',  ( -8.550000000000002487, 0.000000000000000000, 0.000000000000000000 ) ) ;
#402 = CARTESIAN_POINT ( 'NONE',  ( 9.749999999999994671, 1.224646799147353256E-15, -10.00000000000000000 ) ) ;
#403 = CIRCLE ( 'NONE', #76, 17.50000000000000000 ) ;
#404 = DIRECTION ( 'NONE',  ( -1.000000000000000000, -0.000000000000000000, -0.000000000000000000 ) ) ;
#405 = LINE ( 'NONE', #248, #4 ) ;
#406 = CARTESIAN_POINT ( 'NONE',  ( -8.197346038583082972, 0.000000000000000000, 15.50000000000000000 ) ) ;
#407 = ORIENTED_EDGE ( 'NONE', *, *, #307, .F. ) ;
#408 = EDGE_CURVE ( 'NONE', #23, #33, #344, .T. ) ;
#409 = CIRCLE ( 'NONE', #13, 17.50000000000000000 ) ;
#410 = CARTESIAN_POINT ( 'NONE',  ( -9.750000000000003553, 9.999999999999998224, 0.000000000000000000 ) ) ;
#411 = ORIENTED_EDGE ( 'NONE', *, *, #321, .F. ) ;
#412 =( LENGTH_UNIT ( ) NAMED_UNIT ( * ) SI_UNIT ( .MILLI., .METRE. ) );
#413 = VERTEX_POINT ( 'NONE', #406 ) ;
#414 = CARTESIAN_POINT ( 'NONE',  ( -36.70332301863295754, 1.898202538678397557E-15, -15.50000000000000000 ) ) ;
#415 = ORIENTED_EDGE ( 'NONE', *, *, #140, .F. ) ;
#416 = PRODUCT ( '3D-LR-131-SE_25-20_17106540', '3D-LR-131-SE_25-20_17106540', '', ( #195 ) ) ;
#417 = VECTOR ( 'NONE', #133, 1000.000000000000000 ) ;
#418 = COORDINATED_UNIVERSAL_TIME_OFFSET ( 1, 0, .AHEAD. ) ;
#419 = AXIS2_PLACEMENT_3D ( 'NONE', #352, #54, #119 ) ;
#420 = ORIENTED_EDGE ( 'NONE', *, *, #74, .T. ) ;
#421 = CALENDAR_DATE ( 2024, 2, 9 ) ;
#422 = ORIENTED_EDGE ( 'NONE', *, *, #354, .F. ) ;
#423 = CALENDAR_DATE ( 2024, 2, 9 ) ;
#424 = ORIENTED_EDGE ( 'NONE', *, *, #276, .F. ) ;
#425 = EDGE_CURVE ( 'NONE', #187, #15, #343, .T. ) ;
#426 = DIRECTION ( 'NONE',  ( 0.000000000000000000, 0.000000000000000000, 1.000000000000000000 ) ) ;
#427 = AXIS2_PLACEMENT_3D ( 'NONE', #401, #274, #309 ) ;
#428 = COORDINATED_UNIVERSAL_TIME_OFFSET ( 1, 0, .AHEAD. ) ;
#429 = FACE_BOUND ( 'NONE', #222, .T. ) ;
ENDSEC;
END-ISO-10303-21;
