ISO-10303-21;
HEADER;
FILE_DESCRIPTION (( 'STEP AP203' ),
    '1' );
FILE_NAME ('3D_M-7012G_DN80_174731050.STEP',
    '2024-10-04T13:21:30',
    ( '' ),
    ( '' ),
    'SwSTEP 2.0',
    'SolidWorks 2024',
    '' );
FILE_SCHEMA (( 'CONFIG_CONTROL_DESIGN' ));
ENDSEC;

DATA;
#1 = LINE ( 'NONE', #149, #128 ) ;
#2 = APPLICATION_CONTEXT ( 'configuration controlled 3d designs of mechanical parts and assemblies' ) ;
#3 = FACE_BOUND ( 'NONE', #181, .T. ) ;
#4 = PRODUCT_RELATED_PRODUCT_CATEGORY ( 'detail', '', ( #121 ) ) ;
#5 = CIRCLE ( 'NONE', #162, 45.00000000000000711 ) ;
#6 = PERSON_AND_ORGANIZATION_ROLE ( 'creator' ) ;
#7 = DATE_AND_TIME ( #157, #200 ) ;
#8 = LOCAL_TIME ( 15, 21, 30.00000000000000000, #64 ) ;
#9 = DIRECTION ( 'NONE',  ( 0.000000000000000000, 0.000000000000000000, 1.000000000000000000 ) ) ;
#10 = VERTEX_POINT ( 'NONE', #106 ) ;
#11 = CARTESIAN_POINT ( 'NONE',  ( 0.000000000000000000, 0.000000000000000000, 0.000000000000000000 ) ) ;
#12 = APPROVAL_ROLE ( '' ) ;
#13 = DIRECTION ( 'NONE',  ( 0.000000000000000000, 1.000000000000000000, 0.000000000000000000 ) ) ;
#14 = LINE ( 'NONE', #52, #24 ) ;
#15 = DIRECTION ( 'NONE',  ( -0.000000000000000000, -1.000000000000000000, -0.000000000000000000 ) ) ;
#16 = VERTEX_POINT ( 'NONE', #100 ) ;
#17 = CC_DESIGN_PERSON_AND_ORGANIZATION_ASSIGNMENT ( #59, #153, ( #121 ) ) ;
#18 = AXIS2_PLACEMENT_3D ( 'NONE', #228, #55, #108 ) ;
#19 = DIRECTION ( 'NONE',  ( -0.000000000000000000, -1.000000000000000000, -0.000000000000000000 ) ) ;
#20 = DIRECTION ( 'NONE',  ( -0.000000000000000000, -1.000000000000000000, -0.000000000000000000 ) ) ;
#21 = CYLINDRICAL_SURFACE ( 'NONE', #229, 40.00000000000000000 ) ;
#22 = EDGE_CURVE ( 'NONE', #10, #16, #158, .T. ) ;
#23 = PLANE ( 'NONE',  #72 ) ;
#24 = VECTOR ( 'NONE', #104, 1000.000000000000000 ) ;
#25 =( NAMED_UNIT ( * ) PLANE_ANGLE_UNIT ( ) SI_UNIT ( $, .RADIAN. ) );
#26 = PERSON_AND_ORGANIZATION ( #195, #130 ) ;
#27 = PERSON_AND_ORGANIZATION ( #195, #130 ) ;
#28 = AXIS2_PLACEMENT_3D ( 'NONE', #209, #74, #127 ) ;
#29 = VERTEX_POINT ( 'NONE', #123 ) ;
#30 = ORIENTED_EDGE ( 'NONE', *, *, #77, .T. ) ;
#31 = DIRECTION ( 'NONE',  ( -0.000000000000000000, -1.000000000000000000, -0.000000000000000000 ) ) ;
#32 = DIRECTION ( 'NONE',  ( 0.000000000000000000, 0.000000000000000000, 1.000000000000000000 ) ) ;
#33 = ORIENTED_EDGE ( 'NONE', *, *, #180, .T. ) ;
#34 = ORIENTED_EDGE ( 'NONE', *, *, #22, .F. ) ;
#35 = ORIENTED_EDGE ( 'NONE', *, *, #115, .T. ) ;
#36 = CARTESIAN_POINT ( 'NONE',  ( 0.000000000000000000, 85.00000000000000000, -40.00000000000000000 ) ) ;
#37 = AXIS2_PLACEMENT_3D ( 'NONE', #248, #51, #73 ) ;
#38 = ADVANCED_FACE ( 'NONE', ( #163, #124 ), #160, .F. ) ;
#39 = PERSON_AND_ORGANIZATION_ROLE ( 'creator' ) ;
#40 = APPLICATION_PROTOCOL_DEFINITION ( 'international standard', 'config_control_design', 1994, #2 ) ;
#41 = DESIGN_CONTEXT ( 'detailed design', #2, 'design' ) ;
#42 = APPROVAL_STATUS ( 'not_yet_approved' ) ;
#43 = PERSON_AND_ORGANIZATION ( #195, #130 ) ;
#44 = ADVANCED_FACE ( 'NONE', ( #68 ), #206, .T. ) ;
#45 = AXIS2_PLACEMENT_3D ( 'NONE', #241, #142, #226 ) ;
#46 = CARTESIAN_POINT ( 'NONE',  ( 0.000000000000000000, 85.00000000000000000, -45.00000000000000711 ) ) ;
#47 = PRODUCT_DEFINITION_FORMATION_WITH_SPECIFIED_SOURCE ( 'ANY', '', #121, .NOT_KNOWN. ) ;
#48 = ORIENTED_EDGE ( 'NONE', *, *, #152, .T. ) ;
#49 = APPROVAL ( #42, 'UNSPECIFIED' ) ;
#50 = CYLINDRICAL_SURFACE ( 'NONE', #148, 45.00000000000000711 ) ;
#51 = DIRECTION ( 'NONE',  ( 0.000000000000000000, 1.000000000000000000, 0.000000000000000000 ) ) ;
#52 = CARTESIAN_POINT ( 'NONE',  ( 4.898587196589413026E-15, 85.00000000000000000, 40.00000000000000000 ) ) ;
#53 = DIRECTION ( 'NONE',  ( 0.000000000000000000, 1.000000000000000000, 0.000000000000000000 ) ) ;
#54 = VERTEX_POINT ( 'NONE', #66 ) ;
#55 = DIRECTION ( 'NONE',  ( 0.000000000000000000, 1.000000000000000000, 0.000000000000000000 ) ) ;
#56 = CARTESIAN_POINT ( 'NONE',  ( 0.000000000000000000, 85.00000000000000000, 0.000000000000000000 ) ) ;
#57 = APPROVAL_PERSON_ORGANIZATION ( #199, #249, #83 ) ;
#58 = EDGE_CURVE ( 'NONE', #218, #54, #220, .T. ) ;
#59 = PERSON_AND_ORGANIZATION ( #195, #130 ) ;
#60 = COORDINATED_UNIVERSAL_TIME_OFFSET ( 1, 0, .AHEAD. ) ;
#61 = DATE_AND_TIME ( #118, #8 ) ;
#62 = DIRECTION ( 'NONE',  ( 0.000000000000000000, -0.000000000000000000, 1.000000000000000000 ) ) ;
#63 = CC_DESIGN_PERSON_AND_ORGANIZATION_ASSIGNMENT ( #27, #6, ( #47 ) ) ;
#64 = COORDINATED_UNIVERSAL_TIME_OFFSET ( 1, 0, .AHEAD. ) ;
#65 = ORIENTED_EDGE ( 'NONE', *, *, #115, .F. ) ;
#66 = CARTESIAN_POINT ( 'NONE',  ( 0.000000000000000000, 0.000000000000000000, -45.00000000000000711 ) ) ;
#67 = AXIS2_PLACEMENT_3D ( 'NONE', #225, #246, #93 ) ;
#68 = FACE_OUTER_BOUND ( 'NONE', #183, .T. ) ;
#69 = VERTEX_POINT ( 'NONE', #87 ) ;
#70 = DIRECTION ( 'NONE',  ( 0.000000000000000000, 0.000000000000000000, 1.000000000000000000 ) ) ;
#71 = ORIENTED_EDGE ( 'NONE', *, *, #107, .T. ) ;
#72 = AXIS2_PLACEMENT_3D ( 'NONE', #213, #175, #62 ) ;
#73 = DIRECTION ( 'NONE',  ( 0.000000000000000000, 0.000000000000000000, 1.000000000000000000 ) ) ;
#74 = DIRECTION ( 'NONE',  ( 0.000000000000000000, 1.000000000000000000, 0.000000000000000000 ) ) ;
#75 = CARTESIAN_POINT ( 'NONE',  ( 0.000000000000000000, 0.000000000000000000, 0.000000000000000000 ) ) ;
#76 = CIRCLE ( 'NONE', #67, 40.00000000000000000 ) ;
#77 = EDGE_CURVE ( 'NONE', #16, #10, #76, .T. ) ;
#78 = APPROVAL_STATUS ( 'not_yet_approved' ) ;
#79 = APPLICATION_CONTEXT ( 'configuration controlled 3d designs of mechanical parts and assemblies' ) ;
#80 = CC_DESIGN_APPROVAL ( #98, ( #47 ) ) ;
#81 = CC_DESIGN_SECURITY_CLASSIFICATION ( #176, ( #47 ) ) ;
#82 = PERSON_AND_ORGANIZATION_ROLE ( 'design_supplier' ) ;
#83 = APPROVAL_ROLE ( '' ) ;
#84 = LOCAL_TIME ( 15, 21, 30.00000000000000000, #60 ) ;
#85 = PRODUCT_DEFINITION ( 'UNKNOWN', '', #47, #41 ) ;
#86 = EDGE_LOOP ( 'NONE', ( #202, #71, #48, #34 ) ) ;
#87 = CARTESIAN_POINT ( 'NONE',  ( 4.898587196589413026E-15, 85.00000000000000000, 40.00000000000000000 ) ) ;
#88 = PRODUCT_DEFINITION_SHAPE ( 'NONE', 'NONE',  #85 ) ;
#89 = CIRCLE ( 'NONE', #28, 45.00000000000000711 ) ;
#90 = CARTESIAN_POINT ( 'NONE',  ( 0.000000000000000000, 0.000000000000000000, 0.000000000000000000 ) ) ;
#91 = ORIENTED_EDGE ( 'NONE', *, *, #156, .F. ) ;
#92 = APPROVAL_PERSON_ORGANIZATION ( #111, #98, #134 ) ;
#93 = DIRECTION ( 'NONE',  ( 0.000000000000000000, 0.000000000000000000, 1.000000000000000000 ) ) ;
#94 = APPROVAL_STATUS ( 'not_yet_approved' ) ;
#95 = CIRCLE ( 'NONE', #173, 45.00000000000000711 ) ;
#96 = APPROVAL_DATE_TIME ( #7, #249 ) ;
#97 = FACE_OUTER_BOUND ( 'NONE', #187, .T. ) ;
#98 = APPROVAL ( #94, 'UNSPECIFIED' ) ;
#99 = ORIENTED_EDGE ( 'NONE', *, *, #126, .T. ) ;
#100 = CARTESIAN_POINT ( 'NONE',  ( 0.000000000000000000, 0.000000000000000000, -40.00000000000000000 ) ) ;
#101 = DIRECTION ( 'NONE',  ( 0.000000000000000000, 1.000000000000000000, 0.000000000000000000 ) ) ;
#102 = FACE_OUTER_BOUND ( 'NONE', #145, .T. ) ;
#103 = AXIS2_PLACEMENT_3D ( 'NONE', #147, #53, #161 ) ;
#104 = DIRECTION ( 'NONE',  ( -0.000000000000000000, -1.000000000000000000, -0.000000000000000000 ) ) ;
#105 = ORIENTED_EDGE ( 'NONE', *, *, #152, .F. ) ;
#106 = CARTESIAN_POINT ( 'NONE',  ( 4.898587196589413026E-15, 0.000000000000000000, 40.00000000000000000 ) ) ;
#107 = EDGE_CURVE ( 'NONE', #69, #201, #214, .T. ) ;
#108 = DIRECTION ( 'NONE',  ( 0.000000000000000000, 0.000000000000000000, 1.000000000000000000 ) ) ;
#109 = ADVANCED_FACE ( 'NONE', ( #222 ), #50, .T. ) ;
#110 = APPROVAL_PERSON_ORGANIZATION ( #26, #49, #12 ) ;
#111 = PERSON_AND_ORGANIZATION ( #195, #130 ) ;
#112 = APPROVAL_DATE_TIME ( #132, #98 ) ;
#113 = VECTOR ( 'NONE', #20, 1000.000000000000000 ) ;
#114 =( LENGTH_UNIT ( ) NAMED_UNIT ( * ) SI_UNIT ( .MILLI., .METRE. ) );
#115 = EDGE_CURVE ( 'NONE', #29, #218, #5, .T. ) ;
#116 = CARTESIAN_POINT ( 'NONE',  ( 0.000000000000000000, 0.000000000000000000, 0.000000000000000000 ) ) ;
#117 =( GEOMETRIC_REPRESENTATION_CONTEXT ( 3 ) GLOBAL_UNCERTAINTY_ASSIGNED_CONTEXT ( ( #235 ) ) GLOBAL_UNIT_ASSIGNED_CONTEXT ( ( #114, #25, #234 ) ) REPRESENTATION_CONTEXT ( 'NONE', 'WORKASPACE' ) );
#118 = CALENDAR_DATE ( 2024, 4, 10 ) ;
#119 = VERTEX_POINT ( 'NONE', #140 ) ;
#120 = ORIENTED_EDGE ( 'NONE', *, *, #129, .F. ) ;
#121 = PRODUCT ( '3D_M-7012G_DN80_174731050', '3D_M-7012G_DN80_174731050', '', ( #172 ) ) ;
#122 = ORIENTED_EDGE ( 'NONE', *, *, #129, .T. ) ;
#123 = CARTESIAN_POINT ( 'NONE',  ( 5.510910596163090344E-15, 85.00000000000000000, 45.00000000000000711 ) ) ;
#124 = FACE_BOUND ( 'NONE', #182, .T. ) ;
#125 = ORIENTED_EDGE ( 'NONE', *, *, #180, .F. ) ;
#126 = EDGE_CURVE ( 'NONE', #54, #119, #138, .T. ) ;
#127 = DIRECTION ( 'NONE',  ( 0.000000000000000000, 0.000000000000000000, 1.000000000000000000 ) ) ;
#128 = VECTOR ( 'NONE', #193, 1000.000000000000000 ) ;
#129 = EDGE_CURVE ( 'NONE', #119, #54, #95, .T. ) ;
#130 = ORGANIZATION ( 'UNSPECIFIED', 'UNSPECIFIED', '' ) ;
#131 = CC_DESIGN_DATE_AND_TIME_ASSIGNMENT ( #155, #198, ( #85 ) ) ;
#132 = DATE_AND_TIME ( #171, #223 ) ;
#133 = CALENDAR_DATE ( 2024, 4, 10 ) ;
#134 = APPROVAL_ROLE ( '' ) ;
#135 = EDGE_CURVE ( 'NONE', #69, #10, #14, .T. ) ;
#136 = PERSON_AND_ORGANIZATION ( #195, #130 ) ;
#137 = ORIENTED_EDGE ( 'NONE', *, *, #107, .F. ) ;
#138 = CIRCLE ( 'NONE', #37, 45.00000000000000711 ) ;
#139 = ORIENTED_EDGE ( 'NONE', *, *, #211, .F. ) ;
#140 = CARTESIAN_POINT ( 'NONE',  ( 5.510910596163090344E-15, 0.000000000000000000, 45.00000000000000711 ) ) ;
#141 = ORIENTED_EDGE ( 'NONE', *, *, #22, .T. ) ;
#142 = DIRECTION ( 'NONE',  ( -0.000000000000000000, -1.000000000000000000, -0.000000000000000000 ) ) ;
#143 = CC_DESIGN_APPROVAL ( #49, ( #176 ) ) ;
#144 = MANIFOLD_SOLID_BREP ( 'Aufsatz-Linear austragen1', #167 ) ;
#145 = EDGE_LOOP ( 'NONE', ( #179, #240, #203, #105 ) ) ;
#146 = ADVANCED_FACE ( 'NONE', ( #102 ), #245, .F. ) ;
#147 = CARTESIAN_POINT ( 'NONE',  ( 0.000000000000000000, 85.00000000000000000, 0.000000000000000000 ) ) ;
#148 = AXIS2_PLACEMENT_3D ( 'NONE', #224, #31, #168 ) ;
#149 = CARTESIAN_POINT ( 'NONE',  ( 0.000000000000000000, 85.00000000000000000, -40.00000000000000000 ) ) ;
#150 = COORDINATED_UNIVERSAL_TIME_OFFSET ( 1, 0, .AHEAD. ) ;
#151 = CIRCLE ( 'NONE', #18, 40.00000000000000000 ) ;
#152 = EDGE_CURVE ( 'NONE', #201, #16, #1, .T. ) ;
#153 = PERSON_AND_ORGANIZATION_ROLE ( 'design_owner' ) ;
#154 = CALENDAR_DATE ( 2024, 4, 10 ) ;
#155 = DATE_AND_TIME ( #154, #190 ) ;
#156 = EDGE_CURVE ( 'NONE', #29, #119, #210, .T. ) ;
#157 = CALENDAR_DATE ( 2024, 4, 10 ) ;
#158 = CIRCLE ( 'NONE', #219, 40.00000000000000000 ) ;
#159 = ORIENTED_EDGE ( 'NONE', *, *, #156, .T. ) ;
#160 = PLANE ( 'NONE',  #185 ) ;
#161 = DIRECTION ( 'NONE',  ( 0.000000000000000000, 0.000000000000000000, 1.000000000000000000 ) ) ;
#162 = AXIS2_PLACEMENT_3D ( 'NONE', #204, #101, #244 ) ;
#163 = FACE_OUTER_BOUND ( 'NONE', #208, .T. ) ;
#164 = DIRECTION ( 'NONE',  ( 0.000000000000000000, 1.000000000000000000, 0.000000000000000000 ) ) ;
#165 = AXIS2_PLACEMENT_3D ( 'NONE', #116, #9, #174 ) ;
#166 = DIRECTION ( 'NONE',  ( -0.000000000000000000, -1.000000000000000000, -0.000000000000000000 ) ) ;
#167 = CLOSED_SHELL ( 'NONE', ( #146, #109, #216, #38, #44, #170 ) ) ;
#168 = DIRECTION ( 'NONE',  ( 0.000000000000000000, 0.000000000000000000, -1.000000000000000000 ) ) ;
#169 = APPLICATION_PROTOCOL_DEFINITION ( 'international standard', 'config_control_design', 1994, #79 ) ;
#170 = ADVANCED_FACE ( 'NONE', ( #232 ), #21, .F. ) ;
#171 = CALENDAR_DATE ( 2024, 4, 10 ) ;
#172 = MECHANICAL_CONTEXT ( 'NONE', #79, 'mechanical' ) ;
#173 = AXIS2_PLACEMENT_3D ( 'NONE', #75, #205, #32 ) ;
#174 = DIRECTION ( 'NONE',  ( 1.000000000000000000, 0.000000000000000000, 0.000000000000000000 ) ) ;
#175 = DIRECTION ( 'NONE',  ( 0.000000000000000000, 1.000000000000000000, 0.000000000000000000 ) ) ;
#176 = SECURITY_CLASSIFICATION ( '', '', #236 ) ;
#177 = APPROVAL_DATE_TIME ( #61, #49 ) ;
#178 = SHAPE_DEFINITION_REPRESENTATION ( #88, #230 ) ;
#179 = ORIENTED_EDGE ( 'NONE', *, *, #211, .T. ) ;
#180 = EDGE_CURVE ( 'NONE', #218, #29, #89, .T. ) ;
#181 = EDGE_LOOP ( 'NONE', ( #139, #137 ) ) ;
#182 = EDGE_LOOP ( 'NONE', ( #30, #141 ) ) ;
#183 = EDGE_LOOP ( 'NONE', ( #91, #125, #242, #99 ) ) ;
#184 = DIRECTION ( 'NONE',  ( 0.000000000000000000, -0.000000000000000000, 1.000000000000000000 ) ) ;
#185 = AXIS2_PLACEMENT_3D ( 'NONE', #11, #13, #184 ) ;
#186 = CARTESIAN_POINT ( 'NONE',  ( 0.000000000000000000, 85.00000000000000000, 0.000000000000000000 ) ) ;
#187 = EDGE_LOOP ( 'NONE', ( #33, #35 ) ) ;
#188 = CARTESIAN_POINT ( 'NONE',  ( 0.000000000000000000, 85.00000000000000000, -45.00000000000000711 ) ) ;
#189 = DIRECTION ( 'NONE',  ( 0.000000000000000000, 0.000000000000000000, -1.000000000000000000 ) ) ;
#190 = LOCAL_TIME ( 15, 21, 30.00000000000000000, #194 ) ;
#191 = CARTESIAN_POINT ( 'NONE',  ( 5.510910596163090344E-15, 85.00000000000000000, 45.00000000000000711 ) ) ;
#192 = CC_DESIGN_PERSON_AND_ORGANIZATION_ASSIGNMENT ( #238, #39, ( #85 ) ) ;
#193 = DIRECTION ( 'NONE',  ( -0.000000000000000000, -1.000000000000000000, -0.000000000000000000 ) ) ;
#194 = COORDINATED_UNIVERSAL_TIME_OFFSET ( 1, 0, .AHEAD. ) ;
#195 = PERSON ( 'UNSPECIFIED', 'UNSPECIFIED', 'UNSPECIFIED', ('UNSPECIFIED'), ('UNSPECIFIED'), ('UNSPECIFIED') ) ;
#196 = DATE_TIME_ROLE ( 'classification_date' ) ;
#197 = VECTOR ( 'NONE', #19, 1000.000000000000000 ) ;
#198 = DATE_TIME_ROLE ( 'creation_date' ) ;
#199 = PERSON_AND_ORGANIZATION ( #195, #130 ) ;
#200 = LOCAL_TIME ( 15, 21, 30.00000000000000000, #150 ) ;
#201 = VERTEX_POINT ( 'NONE', #36 ) ;
#202 = ORIENTED_EDGE ( 'NONE', *, *, #135, .F. ) ;
#203 = ORIENTED_EDGE ( 'NONE', *, *, #77, .F. ) ;
#204 = CARTESIAN_POINT ( 'NONE',  ( 0.000000000000000000, 85.00000000000000000, 0.000000000000000000 ) ) ;
#205 = DIRECTION ( 'NONE',  ( 0.000000000000000000, 1.000000000000000000, 0.000000000000000000 ) ) ;
#206 = CYLINDRICAL_SURFACE ( 'NONE', #45, 45.00000000000000711 ) ;
#207 = ORIENTED_EDGE ( 'NONE', *, *, #58, .F. ) ;
#208 = EDGE_LOOP ( 'NONE', ( #217, #120 ) ) ;
#209 = CARTESIAN_POINT ( 'NONE',  ( 0.000000000000000000, 85.00000000000000000, 0.000000000000000000 ) ) ;
#210 = LINE ( 'NONE', #191, #113 ) ;
#211 = EDGE_CURVE ( 'NONE', #201, #69, #151, .T. ) ;
#212 = DATE_AND_TIME ( #133, #84 ) ;
#213 = CARTESIAN_POINT ( 'NONE',  ( 0.000000000000000000, 85.00000000000000000, 0.000000000000000000 ) ) ;
#214 = CIRCLE ( 'NONE', #103, 40.00000000000000000 ) ;
#215 = COORDINATED_UNIVERSAL_TIME_OFFSET ( 1, 0, .AHEAD. ) ;
#216 = ADVANCED_FACE ( 'NONE', ( #97, #3 ), #23, .T. ) ;
#217 = ORIENTED_EDGE ( 'NONE', *, *, #126, .F. ) ;
#218 = VERTEX_POINT ( 'NONE', #46 ) ;
#219 = AXIS2_PLACEMENT_3D ( 'NONE', #90, #164, #70 ) ;
#220 = LINE ( 'NONE', #188, #197 ) ;
#221 = EDGE_LOOP ( 'NONE', ( #65, #159, #122, #207 ) ) ;
#222 = FACE_OUTER_BOUND ( 'NONE', #221, .T. ) ;
#223 = LOCAL_TIME ( 15, 21, 30.00000000000000000, #215 ) ;
#224 = CARTESIAN_POINT ( 'NONE',  ( 0.000000000000000000, 85.00000000000000000, 0.000000000000000000 ) ) ;
#225 = CARTESIAN_POINT ( 'NONE',  ( 0.000000000000000000, 0.000000000000000000, 0.000000000000000000 ) ) ;
#226 = DIRECTION ( 'NONE',  ( 0.000000000000000000, 0.000000000000000000, -1.000000000000000000 ) ) ;
#227 = CC_DESIGN_PERSON_AND_ORGANIZATION_ASSIGNMENT ( #43, #82, ( #47 ) ) ;
#228 = CARTESIAN_POINT ( 'NONE',  ( 0.000000000000000000, 85.00000000000000000, 0.000000000000000000 ) ) ;
#229 = AXIS2_PLACEMENT_3D ( 'NONE', #56, #166, #247 ) ;
#230 = ADVANCED_BREP_SHAPE_REPRESENTATION ( '3D_M-7012G_DN80_174731050', ( #144, #165 ), #117 ) ;
#231 = CC_DESIGN_DATE_AND_TIME_ASSIGNMENT ( #212, #196, ( #176 ) ) ;
#232 = FACE_OUTER_BOUND ( 'NONE', #86, .T. ) ;
#233 = CC_DESIGN_APPROVAL ( #249, ( #85 ) ) ;
#234 =( NAMED_UNIT ( * ) SI_UNIT ( $, .STERADIAN. ) SOLID_ANGLE_UNIT ( ) );
#235 = UNCERTAINTY_MEASURE_WITH_UNIT (LENGTH_MEASURE( 1.000000000000000082E-05 ), #114, 'distance_accuracy_value', 'NONE');
#236 = SECURITY_CLASSIFICATION_LEVEL ( 'unclassified' ) ;
#237 = PERSON_AND_ORGANIZATION_ROLE ( 'classification_officer' ) ;
#238 = PERSON_AND_ORGANIZATION ( #195, #130 ) ;
#239 = CC_DESIGN_PERSON_AND_ORGANIZATION_ASSIGNMENT ( #136, #237, ( #176 ) ) ;
#240 = ORIENTED_EDGE ( 'NONE', *, *, #135, .T. ) ;
#241 = CARTESIAN_POINT ( 'NONE',  ( 0.000000000000000000, 85.00000000000000000, 0.000000000000000000 ) ) ;
#242 = ORIENTED_EDGE ( 'NONE', *, *, #58, .T. ) ;
#243 = AXIS2_PLACEMENT_3D ( 'NONE', #186, #15, #189 ) ;
#244 = DIRECTION ( 'NONE',  ( 0.000000000000000000, 0.000000000000000000, 1.000000000000000000 ) ) ;
#245 = CYLINDRICAL_SURFACE ( 'NONE', #243, 40.00000000000000000 ) ;
#246 = DIRECTION ( 'NONE',  ( 0.000000000000000000, 1.000000000000000000, 0.000000000000000000 ) ) ;
#247 = DIRECTION ( 'NONE',  ( 0.000000000000000000, 0.000000000000000000, -1.000000000000000000 ) ) ;
#248 = CARTESIAN_POINT ( 'NONE',  ( 0.000000000000000000, 0.000000000000000000, 0.000000000000000000 ) ) ;
#249 = APPROVAL ( #78, 'UNSPECIFIED' ) ;
ENDSEC;
END-ISO-10303-21;
