ISO-10303-21;
HEADER;
FILE_DESCRIPTION (( 'STEP AP203' ),
    '1' );
FILE_NAME ('OT214-450-456x3_OSTP.step',
    '2021-02-10T12:58:50',
    ( '' ),
    ( '' ),
    'SwSTEP 2.0',
    'SolidWorks 2014',
    '' );
FILE_SCHEMA (( 'CONFIG_CONTROL_DESIGN' ));
ENDSEC;

DATA;
#1 = EDGE_CURVE ( 'NONE', #242, #5, #182, .T. ) ;
#2 = ADVANCED_BREP_SHAPE_REPRESENTATION ( 'OT214-450-456x3_OSTP', ( #42, #162 ), #79 ) ;
#3 = CIRCLE ( 'NONE', #140, 225.0000000000000000 ) ;
#4 = PERSON_AND_ORGANIZATION ( #213, #45 ) ;
#5 = VERTEX_POINT ( 'NONE', #11 ) ;
#6 = TOROIDAL_SURFACE ( 'NONE', #251, 550.0000000000000000, 225.0000000000000000 ) ;
#7 = PRODUCT_DEFINITION ( 'UNKNOWN', '', #204, #89 ) ;
#8 = DIRECTION ( 'NONE',  ( 0.0000000000000000000, 0.0000000000000000000, 1.000000000000000000 ) ) ;
#9 = ORIENTED_EDGE ( 'NONE', *, *, #193, .F. ) ;
#10 = DIRECTION ( 'NONE',  ( 0.0000000000000000000, 1.000000000000000000, 0.0000000000000000000 ) ) ;
#11 = CARTESIAN_POINT ( 'NONE',  ( -227.9999999999999700, 0.0000000000000000000, 0.0000000000000000000 ) ) ;
#12 = AXIS2_PLACEMENT_3D ( 'NONE', #92, #235, #32 ) ;
#13 = CARTESIAN_POINT ( 'NONE',  ( 549.9999999999998900, 550.0000000000000000, 0.0000000000000000000 ) ) ;
#14 = CARTESIAN_POINT ( 'NONE',  ( 550.0000000000000000, 0.0000000000000000000, 0.0000000000000000000 ) ) ;
#15 = CIRCLE ( 'NONE', #131, 224.9999999999999700 ) ;
#16 = CC_DESIGN_PERSON_AND_ORGANIZATION_ASSIGNMENT ( #250, #202, ( #204 ) ) ;
#17 = APPROVAL_ROLE ( '' ) ;
#18 = APPROVAL_STATUS ( 'not_yet_approved' ) ;
#19 = EDGE_CURVE ( 'NONE', #5, #242, #75, .T. ) ;
#20 = DATE_AND_TIME ( #199, #108 ) ;
#21 = FACE_BOUND ( 'NONE', #206, .T. ) ;
#22 = ORIENTED_EDGE ( 'NONE', *, *, #47, .T. ) ;
#23 = EDGE_LOOP ( 'NONE', ( #171, #149, #84, #230 ) ) ;
#24 = SECURITY_CLASSIFICATION ( '', '', #198 ) ;
#25 = VERTEX_POINT ( 'NONE', #107 ) ;
#26 = PERSON_AND_ORGANIZATION ( #213, #45 ) ;
#27 = CC_DESIGN_APPROVAL ( #185, ( #24 ) ) ;
#28 = FACE_OUTER_BOUND ( 'NONE', #69, .T. ) ;
#29 = VERTEX_POINT ( 'NONE', #132 ) ;
#30 = DIRECTION ( 'NONE',  ( 0.0000000000000000000, 0.0000000000000000000, 1.000000000000000000 ) ) ;
#31 = CARTESIAN_POINT ( 'NONE',  ( 549.9999999999998900, 322.0000000000000000, -2.792194702055965800E-014 ) ) ;
#32 = DIRECTION ( 'NONE',  ( 1.000000000000000000, 0.0000000000000000000, 0.0000000000000000000 ) ) ;
#33 = UNCERTAINTY_MEASURE_WITH_UNIT (LENGTH_MEASURE( 1.000000000000000100E-005 ), #179, 'distance_accuracy_value', 'NONE');
#34 = DIRECTION ( 'NONE',  ( 0.0000000000000000000, 0.0000000000000000000, 1.000000000000000000 ) ) ;
#35 = ORIENTED_EDGE ( 'NONE', *, *, #64, .T. ) ;
#36 = AXIS2_PLACEMENT_3D ( 'NONE', #93, #77, #153 ) ;
#37 = CARTESIAN_POINT ( 'NONE',  ( -224.9999999999999700, 0.0000000000000000000, 0.0000000000000000000 ) ) ;
#38 = APPLICATION_CONTEXT ( 'configuration controlled 3d designs of mechanical parts and assemblies' ) ;
#39 = COORDINATED_UNIVERSAL_TIME_OFFSET ( 1, 0, .AHEAD. ) ;
#40 = ORIENTED_EDGE ( 'NONE', *, *, #189, .T. ) ;
#41 = AXIS2_PLACEMENT_3D ( 'NONE', #90, #70, #148 ) ;
#42 = MANIFOLD_SOLID_BREP ( 'cut-body', #222 ) ;
#43 = APPROVAL_DATE_TIME ( #138, #240 ) ;
#44 = COORDINATED_UNIVERSAL_TIME_OFFSET ( 1, 0, .AHEAD. ) ;
#45 = ORGANIZATION ( 'UNSPECIFIED', 'UNSPECIFIED', '' ) ;
#46 = COORDINATED_UNIVERSAL_TIME_OFFSET ( 1, 0, .AHEAD. ) ;
#47 = EDGE_CURVE ( 'NONE', #223, #200, #72, .T. ) ;
#48 = FACE_OUTER_BOUND ( 'NONE', #23, .T. ) ;
#49 = ORIENTED_EDGE ( 'NONE', *, *, #189, .F. ) ;
#50 = CARTESIAN_POINT ( 'NONE',  ( 550.0000000000000000, 550.0000000000000000, 0.0000000000000000000 ) ) ;
#51 = CC_DESIGN_SECURITY_CLASSIFICATION ( #24, ( #204 ) ) ;
#52 = PLANE ( 'NONE',  #150 ) ;
#53 = DIRECTION ( 'NONE',  ( 0.0000000000000000000, 0.0000000000000000000, 1.000000000000000000 ) ) ;
#54 = CIRCLE ( 'NONE', #36, 325.0000000000000600 ) ;
#55 = ORIENTED_EDGE ( 'NONE', *, *, #170, .T. ) ;
#56 = CARTESIAN_POINT ( 'NONE',  ( 0.0000000000000000000, 0.0000000000000000000, 0.0000000000000000000 ) ) ;
#57 = LOCAL_TIME ( 13, 58, 50.00000000000000000, #39 ) ;
#58 =( NAMED_UNIT ( * ) SI_UNIT ( $, .STERADIAN. ) SOLID_ANGLE_UNIT ( ) );
#59 = PERSON_AND_ORGANIZATION_ROLE ( 'classification_officer' ) ;
#60 = APPLICATION_PROTOCOL_DEFINITION ( 'international standard', 'config_control_design', 1994, #38 ) ;
#61 = EDGE_CURVE ( 'NONE', #29, #163, #147, .T. ) ;
#62 = FACE_OUTER_BOUND ( 'NONE', #174, .T. ) ;
#63 = ORIENTED_EDGE ( 'NONE', *, *, #110, .F. ) ;
#64 = EDGE_CURVE ( 'NONE', #25, #29, #15, .T. ) ;
#65 = FACE_BOUND ( 'NONE', #124, .T. ) ;
#66 = CARTESIAN_POINT ( 'NONE',  ( 549.9999999999998900, 550.0000000000000000, 0.0000000000000000000 ) ) ;
#67 = DATE_AND_TIME ( #83, #208 ) ;
#68 = ORIENTED_EDGE ( 'NONE', *, *, #126, .T. ) ;
#69 = EDGE_LOOP ( 'NONE', ( #105, #248, #55, #49 ) ) ;
#70 = DIRECTION ( 'NONE',  ( 0.0000000000000000000, 0.0000000000000000000, 1.000000000000000000 ) ) ;
#71 = PRODUCT_RELATED_PRODUCT_CATEGORY ( 'detail', '', ( #167 ) ) ;
#72 = CIRCLE ( 'NONE', #239, 228.0000000000000000 ) ;
#73 = CARTESIAN_POINT ( 'NONE',  ( 0.0000000000000000000, 0.0000000000000000000, 0.0000000000000000000 ) ) ;
#74 = CARTESIAN_POINT ( 'NONE',  ( 550.0000000000000000, 0.0000000000000000000, 0.0000000000000000000 ) ) ;
#75 = CIRCLE ( 'NONE', #120, 228.0000000000000000 ) ;
#76 = EDGE_CURVE ( 'NONE', #223, #5, #169, .T. ) ;
#77 = DIRECTION ( 'NONE',  ( 0.0000000000000000000, 0.0000000000000000000, 1.000000000000000000 ) ) ;
#78 = LOCAL_TIME ( 13, 58, 50.00000000000000000, #44 ) ;
#79 =( GEOMETRIC_REPRESENTATION_CONTEXT ( 3 ) GLOBAL_UNCERTAINTY_ASSIGNED_CONTEXT ( ( #33 ) ) GLOBAL_UNIT_ASSIGNED_CONTEXT ( ( #179, #201, #58 ) ) REPRESENTATION_CONTEXT ( 'NONE', 'WORKASPACE' ) );
#80 = ADVANCED_FACE ( 'NONE', ( #118 ), #217, .F. ) ;
#81 = APPROVAL_PERSON_ORGANIZATION ( #4, #240, #17 ) ;
#82 = ADVANCED_FACE ( 'NONE', ( #28 ), #6, .F. ) ;
#83 = CALENDAR_DATE ( 2021, 10, 2 ) ;
#84 = ORIENTED_EDGE ( 'NONE', *, *, #193, .T. ) ;
#85 = DIRECTION ( 'NONE',  ( 1.000000000000000000, 6.123233995736766000E-017, 0.0000000000000000000 ) ) ;
#86 = AXIS2_PLACEMENT_3D ( 'NONE', #94, #114, #215 ) ;
#87 = CALENDAR_DATE ( 2021, 10, 2 ) ;
#88 = CIRCLE ( 'NONE', #86, 224.9999999999999700 ) ;
#89 = DESIGN_CONTEXT ( 'detailed design', #253, 'design' ) ;
#90 = CARTESIAN_POINT ( 'NONE',  ( 550.0000000000000000, 0.0000000000000000000, 0.0000000000000000000 ) ) ;
#91 = AXIS2_PLACEMENT_3D ( 'NONE', #136, #212, #135 ) ;
#92 = CARTESIAN_POINT ( 'NONE',  ( 550.0000000000000000, 0.0000000000000000000, 0.0000000000000000000 ) ) ;
#93 = CARTESIAN_POINT ( 'NONE',  ( 550.0000000000000000, 0.0000000000000000000, -2.755455298081544600E-014 ) ) ;
#94 = CARTESIAN_POINT ( 'NONE',  ( 550.0000000000000000, 550.0000000000000000, 0.0000000000000000000 ) ) ;
#95 = PLANE ( 'NONE',  #145 ) ;
#96 = CARTESIAN_POINT ( 'NONE',  ( 550.0000000000000000, 0.0000000000000000000, 0.0000000000000000000 ) ) ;
#97 = APPROVAL_ROLE ( '' ) ;
#98 = SHAPE_DEFINITION_REPRESENTATION ( #186, #2 ) ;
#99 = EDGE_CURVE ( 'NONE', #100, #163, #3, .T. ) ;
#100 = VERTEX_POINT ( 'NONE', #115 ) ;
#101 = APPROVAL_STATUS ( 'not_yet_approved' ) ;
#102 = ADVANCED_FACE ( 'NONE', ( #21, #234 ), #52, .T. ) ;
#103 = AXIS2_PLACEMENT_3D ( 'NONE', #96, #53, #111 ) ;
#104 = AXIS2_PLACEMENT_3D ( 'NONE', #177, #197, #30 ) ;
#105 = ORIENTED_EDGE ( 'NONE', *, *, #61, .F. ) ;
#106 = DIRECTION ( 'NONE',  ( 0.0000000000000000000, 0.0000000000000000000, 1.000000000000000000 ) ) ;
#107 = CARTESIAN_POINT ( 'NONE',  ( 550.0000000000000000, 325.0000000000000000, -2.755455298081545300E-014 ) ) ;
#108 = LOCAL_TIME ( 13, 58, 50.00000000000000000, #123 ) ;
#109 = CIRCLE ( 'NONE', #91, 322.0000000000000600 ) ;
#110 = EDGE_CURVE ( 'NONE', #29, #25, #88, .T. ) ;
#111 = DIRECTION ( 'NONE',  ( 1.000000000000000000, 0.0000000000000000000, 0.0000000000000000000 ) ) ;
#112 = ORIENTED_EDGE ( 'NONE', *, *, #99, .F. ) ;
#113 = CARTESIAN_POINT ( 'NONE',  ( 549.9999999999998900, 778.0000000000000000, 0.0000000000000000000 ) ) ;
#114 = DIRECTION ( 'NONE',  ( 1.000000000000000000, 6.123233995736766000E-017, 0.0000000000000000000 ) ) ;
#115 = CARTESIAN_POINT ( 'NONE',  ( 225.0000000000000300, 0.0000000000000000000, -2.755455298081545300E-014 ) ) ;
#116 = DATE_AND_TIME ( #87, #78 ) ;
#117 = DATE_TIME_ROLE ( 'classification_date' ) ;
#118 = FACE_OUTER_BOUND ( 'NONE', #187, .T. ) ;
#119 = TOROIDAL_SURFACE ( 'NONE', #224, 550.0000000000000000, 228.0000000000000000 ) ;
#120 = AXIS2_PLACEMENT_3D ( 'NONE', #128, #226, #190 ) ;
#121 = DIRECTION ( 'NONE',  ( 1.000000000000000000, 0.0000000000000000000, 0.0000000000000000000 ) ) ;
#122 = ADVANCED_FACE ( 'NONE', ( #48 ), #119, .T. ) ;
#123 = COORDINATED_UNIVERSAL_TIME_OFFSET ( 1, 0, .AHEAD. ) ;
#124 = EDGE_LOOP ( 'NONE', ( #127, #40 ) ) ;
#125 = ORIENTED_EDGE ( 'NONE', *, *, #61, .T. ) ;
#126 = EDGE_CURVE ( 'NONE', #200, #223, #165, .T. ) ;
#127 = ORIENTED_EDGE ( 'NONE', *, *, #99, .T. ) ;
#128 = CARTESIAN_POINT ( 'NONE',  ( 0.0000000000000000000, 0.0000000000000000000, 0.0000000000000000000 ) ) ;
#129 = LOCAL_TIME ( 13, 58, 50.00000000000000000, #46 ) ;
#130 = DIRECTION ( 'NONE',  ( 1.000000000000000000, 6.123233995736766000E-017, 0.0000000000000000000 ) ) ;
#131 = AXIS2_PLACEMENT_3D ( 'NONE', #50, #130, #209 ) ;
#132 = CARTESIAN_POINT ( 'NONE',  ( 550.0000000000000000, 775.0000000000000000, 0.0000000000000000000 ) ) ;
#133 = PERSON_AND_ORGANIZATION ( #213, #45 ) ;
#134 = FACE_OUTER_BOUND ( 'NONE', #243, .T. ) ;
#135 = DIRECTION ( 'NONE',  ( 1.000000000000000000, 0.0000000000000000000, 0.0000000000000000000 ) ) ;
#136 = CARTESIAN_POINT ( 'NONE',  ( 550.0000000000000000, 0.0000000000000000000, -2.792194702055965200E-014 ) ) ;
#137 = DIRECTION ( 'NONE',  ( 0.0000000000000000000, -0.0000000000000000000, 1.000000000000000000 ) ) ;
#138 = DATE_AND_TIME ( #236, #57 ) ;
#139 = DIRECTION ( 'NONE',  ( 0.0000000000000000000, 0.0000000000000000000, 1.000000000000000000 ) ) ;
#140 = AXIS2_PLACEMENT_3D ( 'NONE', #73, #233, #231 ) ;
#141 = APPROVAL_PERSON_ORGANIZATION ( #191, #185, #180 ) ;
#142 = DATE_TIME_ROLE ( 'creation_date' ) ;
#143 = PERSON_AND_ORGANIZATION_ROLE ( 'creator' ) ;
#144 = ADVANCED_FACE ( 'NONE', ( #62 ), #219, .T. ) ;
#145 = AXIS2_PLACEMENT_3D ( 'NONE', #56, #232, #137 ) ;
#146 = PERSON_AND_ORGANIZATION ( #213, #45 ) ;
#147 = CIRCLE ( 'NONE', #41, 775.0000000000001100 ) ;
#148 = DIRECTION ( 'NONE',  ( 1.000000000000000000, 0.0000000000000000000, 0.0000000000000000000 ) ) ;
#149 = ORIENTED_EDGE ( 'NONE', *, *, #126, .F. ) ;
#150 = AXIS2_PLACEMENT_3D ( 'NONE', #13, #252, #139 ) ;
#151 = CARTESIAN_POINT ( 'NONE',  ( 0.0000000000000000000, 0.0000000000000000000, 0.0000000000000000000 ) ) ;
#152 = CARTESIAN_POINT ( 'NONE',  ( 0.0000000000000000000, 0.0000000000000000000, 0.0000000000000000000 ) ) ;
#153 = DIRECTION ( 'NONE',  ( 1.000000000000000000, 0.0000000000000000000, 0.0000000000000000000 ) ) ;
#154 = DIRECTION ( 'NONE',  ( 0.0000000000000000000, 1.000000000000000000, 0.0000000000000000000 ) ) ;
#155 = CARTESIAN_POINT ( 'NONE',  ( 0.0000000000000000000, 0.0000000000000000000, 0.0000000000000000000 ) ) ;
#156 = DIRECTION ( 'NONE',  ( 1.000000000000000000, 0.0000000000000000000, 0.0000000000000000000 ) ) ;
#157 = PERSON_AND_ORGANIZATION_ROLE ( 'creator' ) ;
#158 = EDGE_LOOP ( 'NONE', ( #68, #22 ) ) ;
#159 = APPLICATION_PROTOCOL_DEFINITION ( 'international standard', 'config_control_design', 1994, #253 ) ;
#160 = ORIENTED_EDGE ( 'NONE', *, *, #76, .T. ) ;
#161 = APPROVAL_STATUS ( 'not_yet_approved' ) ;
#162 = AXIS2_PLACEMENT_3D ( 'NONE', #155, #194, #121 ) ;
#163 = VERTEX_POINT ( 'NONE', #37 ) ;
#164 = PERSON_AND_ORGANIZATION ( #213, #45 ) ;
#165 = CIRCLE ( 'NONE', #104, 228.0000000000000000 ) ;
#166 = CC_DESIGN_PERSON_AND_ORGANIZATION_ASSIGNMENT ( #26, #220, ( #167 ) ) ;
#167 = PRODUCT ( 'OT214-450-456x3_OSTP', 'OT214-450-456x3_OSTP', '', ( #238 ) ) ;
#168 = COORDINATED_UNIVERSAL_TIME_OFFSET ( 1, 0, .AHEAD. ) ;
#169 = CIRCLE ( 'NONE', #12, 778.0000000000000000 ) ;
#170 = EDGE_CURVE ( 'NONE', #25, #100, #54, .T. ) ;
#171 = ORIENTED_EDGE ( 'NONE', *, *, #76, .F. ) ;
#172 = ORIENTED_EDGE ( 'NONE', *, *, #64, .F. ) ;
#173 = DIRECTION ( 'NONE',  ( 0.0000000000000000000, 0.0000000000000000000, 1.000000000000000000 ) ) ;
#174 = EDGE_LOOP ( 'NONE', ( #229, #160, #225, #9 ) ) ;
#175 = CC_DESIGN_DATE_AND_TIME_ASSIGNMENT ( #205, #142, ( #7 ) ) ;
#176 = DIRECTION ( 'NONE',  ( 1.000000000000000000, 0.0000000000000000000, 0.0000000000000000000 ) ) ;
#177 = CARTESIAN_POINT ( 'NONE',  ( 549.9999999999998900, 550.0000000000000000, 0.0000000000000000000 ) ) ;
#178 = APPROVAL_DATE_TIME ( #67, #185 ) ;
#179 =( LENGTH_UNIT ( ) NAMED_UNIT ( * ) SI_UNIT ( .MILLI., .METRE. ) );
#180 = APPROVAL_ROLE ( '' ) ;
#181 = APPROVAL ( #161, 'UNSPECIFIED' ) ;
#182 = CIRCLE ( 'NONE', #211, 228.0000000000000000 ) ;
#183 = ORIENTED_EDGE ( 'NONE', *, *, #19, .F. ) ;
#184 = ORIENTED_EDGE ( 'NONE', *, *, #170, .F. ) ;
#185 = APPROVAL ( #18, 'UNSPECIFIED' ) ;
#186 = PRODUCT_DEFINITION_SHAPE ( 'NONE', 'NONE',  #7 ) ;
#187 = EDGE_LOOP ( 'NONE', ( #35, #125, #112, #184 ) ) ;
#188 = CC_DESIGN_APPROVAL ( #240, ( #204 ) ) ;
#189 = EDGE_CURVE ( 'NONE', #163, #100, #192, .T. ) ;
#190 = DIRECTION ( 'NONE',  ( 0.0000000000000000000, 0.0000000000000000000, 1.000000000000000000 ) ) ;
#191 = PERSON_AND_ORGANIZATION ( #213, #45 ) ;
#192 = CIRCLE ( 'NONE', #218, 225.0000000000000000 ) ;
#193 = EDGE_CURVE ( 'NONE', #200, #242, #109, .T. ) ;
#194 = DIRECTION ( 'NONE',  ( 0.0000000000000000000, 0.0000000000000000000, 1.000000000000000000 ) ) ;
#195 = CARTESIAN_POINT ( 'NONE',  ( 228.0000000000000300, 0.0000000000000000000, -2.792194702055965800E-014 ) ) ;
#196 = DIRECTION ( 'NONE',  ( 0.0000000000000000000, 0.0000000000000000000, 1.000000000000000000 ) ) ;
#197 = DIRECTION ( 'NONE',  ( 1.000000000000000000, 6.123233995736766000E-017, 0.0000000000000000000 ) ) ;
#198 = SECURITY_CLASSIFICATION_LEVEL ( 'unclassified' ) ;
#199 = CALENDAR_DATE ( 2021, 10, 2 ) ;
#200 = VERTEX_POINT ( 'NONE', #31 ) ;
#201 =( NAMED_UNIT ( * ) PLANE_ANGLE_UNIT ( ) SI_UNIT ( $, .RADIAN. ) );
#202 = PERSON_AND_ORGANIZATION_ROLE ( 'design_supplier' ) ;
#203 = CC_DESIGN_PERSON_AND_ORGANIZATION_ASSIGNMENT ( #164, #59, ( #24 ) ) ;
#204 = PRODUCT_DEFINITION_FORMATION_WITH_SPECIFIED_SOURCE ( 'ANY', '', #167, .NOT_KNOWN. ) ;
#205 = DATE_AND_TIME ( #207, #129 ) ;
#206 = EDGE_LOOP ( 'NONE', ( #172, #63 ) ) ;
#207 = CALENDAR_DATE ( 2021, 10, 2 ) ;
#208 = LOCAL_TIME ( 13, 58, 50.00000000000000000, #168 ) ;
#209 = DIRECTION ( 'NONE',  ( 0.0000000000000000000, 1.000000000000000000, 0.0000000000000000000 ) ) ;
#210 = DIRECTION ( 'NONE',  ( 1.000000000000000000, 0.0000000000000000000, 0.0000000000000000000 ) ) ;
#211 = AXIS2_PLACEMENT_3D ( 'NONE', #151, #10, #228 ) ;
#212 = DIRECTION ( 'NONE',  ( 0.0000000000000000000, 0.0000000000000000000, 1.000000000000000000 ) ) ;
#213 = PERSON ( 'UNSPECIFIED', 'UNSPECIFIED', 'UNSPECIFIED', ('UNSPECIFIED'), ('UNSPECIFIED'), ('UNSPECIFIED') ) ;
#214 = CC_DESIGN_DATE_AND_TIME_ASSIGNMENT ( #116, #117, ( #24 ) ) ;
#215 = DIRECTION ( 'NONE',  ( 0.0000000000000000000, 1.000000000000000000, 0.0000000000000000000 ) ) ;
#216 = APPROVAL_PERSON_ORGANIZATION ( #241, #181, #97 ) ;
#217 = TOROIDAL_SURFACE ( 'NONE', #227, 550.0000000000000000, 225.0000000000000000 ) ;
#218 = AXIS2_PLACEMENT_3D ( 'NONE', #152, #154, #173 ) ;
#219 = TOROIDAL_SURFACE ( 'NONE', #103, 550.0000000000000000, 228.0000000000000000 ) ;
#220 = PERSON_AND_ORGANIZATION_ROLE ( 'design_owner' ) ;
#221 = ORIENTED_EDGE ( 'NONE', *, *, #1, .F. ) ;
#222 = CLOSED_SHELL ( 'NONE', ( #80, #144, #122, #102, #237, #82 ) ) ;
#223 = VERTEX_POINT ( 'NONE', #113 ) ;
#224 = AXIS2_PLACEMENT_3D ( 'NONE', #14, #34, #156 ) ;
#225 = ORIENTED_EDGE ( 'NONE', *, *, #19, .T. ) ;
#226 = DIRECTION ( 'NONE',  ( 0.0000000000000000000, 1.000000000000000000, 0.0000000000000000000 ) ) ;
#227 = AXIS2_PLACEMENT_3D ( 'NONE', #246, #106, #176 ) ;
#228 = DIRECTION ( 'NONE',  ( 0.0000000000000000000, 0.0000000000000000000, 1.000000000000000000 ) ) ;
#229 = ORIENTED_EDGE ( 'NONE', *, *, #47, .F. ) ;
#230 = ORIENTED_EDGE ( 'NONE', *, *, #1, .T. ) ;
#231 = DIRECTION ( 'NONE',  ( 0.0000000000000000000, 0.0000000000000000000, 1.000000000000000000 ) ) ;
#232 = DIRECTION ( 'NONE',  ( 0.0000000000000000000, 1.000000000000000000, 0.0000000000000000000 ) ) ;
#233 = DIRECTION ( 'NONE',  ( 0.0000000000000000000, 1.000000000000000000, 0.0000000000000000000 ) ) ;
#234 = FACE_OUTER_BOUND ( 'NONE', #158, .T. ) ;
#235 = DIRECTION ( 'NONE',  ( 0.0000000000000000000, 0.0000000000000000000, 1.000000000000000000 ) ) ;
#236 = CALENDAR_DATE ( 2021, 10, 2 ) ;
#237 = ADVANCED_FACE ( 'NONE', ( #65, #134 ), #95, .F. ) ;
#238 = MECHANICAL_CONTEXT ( 'NONE', #38, 'mechanical' ) ;
#239 = AXIS2_PLACEMENT_3D ( 'NONE', #66, #85, #8 ) ;
#240 = APPROVAL ( #101, 'UNSPECIFIED' ) ;
#241 = PERSON_AND_ORGANIZATION ( #213, #45 ) ;
#242 = VERTEX_POINT ( 'NONE', #195 ) ;
#243 = EDGE_LOOP ( 'NONE', ( #221, #183 ) ) ;
#244 = CC_DESIGN_PERSON_AND_ORGANIZATION_ASSIGNMENT ( #133, #143, ( #7 ) ) ;
#245 = CC_DESIGN_PERSON_AND_ORGANIZATION_ASSIGNMENT ( #146, #157, ( #204 ) ) ;
#246 = CARTESIAN_POINT ( 'NONE',  ( 550.0000000000000000, 0.0000000000000000000, 0.0000000000000000000 ) ) ;
#247 = APPROVAL_DATE_TIME ( #20, #181 ) ;
#248 = ORIENTED_EDGE ( 'NONE', *, *, #110, .T. ) ;
#249 = CC_DESIGN_APPROVAL ( #181, ( #7 ) ) ;
#250 = PERSON_AND_ORGANIZATION ( #213, #45 ) ;
#251 = AXIS2_PLACEMENT_3D ( 'NONE', #74, #196, #210 ) ;
#252 = DIRECTION ( 'NONE',  ( 1.000000000000000000, 6.123233995736766000E-017, -0.0000000000000000000 ) ) ;
#253 = APPLICATION_CONTEXT ( 'configuration controlled 3d designs of mechanical parts and assemblies' ) ;
ENDSEC;
END-ISO-10303-21;
