ISO-10303-21;
HEADER;
FILE_DESCRIPTION (( 'STEP AP203' ),
    '1' );
FILE_NAME ('3D_R1655_54x2_17362200.STEP',
    '2024-08-05T08:52:33',
    ( '' ),
    ( '' ),
    'SwSTEP 2.0',
    'SolidWorks 2024',
    '' );
FILE_SCHEMA (( 'CONFIG_CONTROL_DESIGN' ));
ENDSEC;

DATA;
#1 = ORIENTED_EDGE ( 'NONE', *, *, #28, .T. ) ;
#2 = CIRCLE ( 'NONE', #138, 149.0000000000000000 ) ;
#3 = APPLICATION_CONTEXT ( 'configuration controlled 3d designs of mechanical parts and assemblies' ) ;
#4 = ORIENTED_EDGE ( 'NONE', *, *, #190, .F. ) ;
#5 = DATE_AND_TIME ( #77, #87 ) ;
#6 = EDGE_LOOP ( 'NONE', ( #1, #173 ) ) ;
#7 = CC_DESIGN_APPROVAL ( #247, ( #85 ) ) ;
#8 = AXIS2_PLACEMENT_3D ( 'NONE', #12, #163, #242 ) ;
#9 = DIRECTION ( 'NONE',  ( 0.000000000000000000, 1.000000000000000000, 0.000000000000000000 ) ) ;
#10 = CARTESIAN_POINT ( 'NONE',  ( -3.643114942623557861E-13, 0.000000000000000000, -122.0000000000000000 ) ) ;
#11 = CARTESIAN_POINT ( 'NONE',  ( 0.000000000000000000, -3.306546357697853339E-15, 0.000000000000000000 ) ) ;
#12 = CARTESIAN_POINT ( 'NONE',  ( -122.0000000000000000, 0.000000000000000000, -2.363864961612870388E-14 ) ) ;
#13 = DATE_AND_TIME ( #204, #51 ) ;
#14 = CC_DESIGN_PERSON_AND_ORGANIZATION_ASSIGNMENT ( #209, #250, ( #207 ) ) ;
#15 = LOCAL_TIME ( 10, 52, 33.00000000000000000, #132 ) ;
#16 = CIRCLE ( 'NONE', #8, 24.99999999999999289 ) ;
#17 = AXIS2_PLACEMENT_3D ( 'NONE', #10, #199, #123 ) ;
#18 = APPROVAL_STATUS ( 'not_yet_approved' ) ;
#19 = CARTESIAN_POINT ( 'NONE',  ( 0.000000000000000000, 0.000000000000000000, 0.000000000000000000 ) ) ;
#20 = DIRECTION ( 'NONE',  ( 0.000000000000000000, 0.000000000000000000, 1.000000000000000000 ) ) ;
#21 = APPROVAL_PERSON_ORGANIZATION ( #230, #247, #147 ) ;
#22 = DATE_AND_TIME ( #153, #15 ) ;
#23 = ORIENTED_EDGE ( 'NONE', *, *, #156, .F. ) ;
#24 = EDGE_CURVE ( 'NONE', #135, #211, #106, .T. ) ;
#25 = EDGE_LOOP ( 'NONE', ( #232, #212 ) ) ;
#26 = PERSON_AND_ORGANIZATION_ROLE ( 'creator' ) ;
#27 = APPROVAL_STATUS ( 'not_yet_approved' ) ;
#28 = EDGE_CURVE ( 'NONE', #174, #179, #94, .T. ) ;
#29 = FACE_OUTER_BOUND ( 'NONE', #100, .T. ) ;
#30 = CARTESIAN_POINT ( 'NONE',  ( 0.000000000000000000, 0.000000000000000000, 0.000000000000000000 ) ) ;
#31 = DIRECTION ( 'NONE',  ( 0.000000000000000000, 0.000000000000000000, 1.000000000000000000 ) ) ;
#32 = FACE_BOUND ( 'NONE', #6, .T. ) ;
#33 = DIRECTION ( 'NONE',  ( 0.000000000000000000, 0.000000000000000000, 1.000000000000000000 ) ) ;
#34 = EDGE_CURVE ( 'NONE', #220, #236, #16, .T. ) ;
#35 = CALENDAR_DATE ( 2024, 5, 8 ) ;
#36 = DIRECTION ( 'NONE',  ( 0.000000000000000000, 0.000000000000000000, 1.000000000000000000 ) ) ;
#37 = PERSON_AND_ORGANIZATION_ROLE ( 'creator' ) ;
#38 = CARTESIAN_POINT ( 'NONE',  ( -97.00000000000000000, 0.000000000000000000, -1.879466403905315004E-14 ) ) ;
#39 = CARTESIAN_POINT ( 'NONE',  ( 0.000000000000000000, 0.000000000000000000, 0.000000000000000000 ) ) ;
#40 = EDGE_CURVE ( 'NONE', #174, #220, #161, .T. ) ;
#41 = SECURITY_CLASSIFICATION_LEVEL ( 'unclassified' ) ;
#42 = TOROIDAL_SURFACE ( 'NONE', #95, 122.0000000000000000, 26.99999999999999645 ) ;
#43 = ORIENTED_EDGE ( 'NONE', *, *, #28, .F. ) ;
#44 = CARTESIAN_POINT ( 'NONE',  ( 0.000000000000000000, 0.000000000000000000, 0.000000000000000000 ) ) ;
#45 = DIRECTION ( 'NONE',  ( 0.000000000000000000, 0.000000000000000000, 1.000000000000000000 ) ) ;
#46 = CIRCLE ( 'NONE', #134, 26.99999999999999645 ) ;
#47 = TOROIDAL_SURFACE ( 'NONE', #215, 122.0000000000000000, 26.99999999999999645 ) ;
#48 = PLANE ( 'NONE',  #234 ) ;
#49 = CC_DESIGN_PERSON_AND_ORGANIZATION_ASSIGNMENT ( #63, #65, ( #64 ) ) ;
#50 = DIRECTION ( 'NONE',  ( -1.000000000000000000, 0.000000000000000000, 2.976097385824784112E-15 ) ) ;
#51 = LOCAL_TIME ( 10, 52, 33.00000000000000000, #131 ) ;
#52 = COORDINATED_UNIVERSAL_TIME_OFFSET ( 1, 0, .AHEAD. ) ;
#53 = CARTESIAN_POINT ( 'NONE',  ( 0.000000000000000000, 0.000000000000000000, 0.000000000000000000 ) ) ;
#54 = CALENDAR_DATE ( 2024, 5, 8 ) ;
#55 = DIRECTION ( 'NONE',  ( 0.000000000000000000, 1.000000000000000000, 0.000000000000000000 ) ) ;
#56 = APPROVAL_STATUS ( 'not_yet_approved' ) ;
#57 = PRODUCT_RELATED_PRODUCT_CATEGORY ( 'detail', '', ( #207 ) ) ;
#58 = DATE_TIME_ROLE ( 'classification_date' ) ;
#59 = ORIENTED_EDGE ( 'NONE', *, *, #243, .F. ) ;
#60 = AXIS2_PLACEMENT_3D ( 'NONE', #158, #218, #66 ) ;
#61 = ORIENTED_EDGE ( 'NONE', *, *, #127, .T. ) ;
#62 = ADVANCED_FACE ( 'NONE', ( #216 ), #144, .F. ) ;
#63 = PERSON_AND_ORGANIZATION ( #142, #124 ) ;
#64 = SECURITY_CLASSIFICATION ( '', '', #41 ) ;
#65 = PERSON_AND_ORGANIZATION_ROLE ( 'classification_officer' ) ;
#66 = DIRECTION ( 'NONE',  ( 2.976097385824783323E-15, 0.000000000000000000, 1.000000000000000000 ) ) ;
#67 = EDGE_CURVE ( 'NONE', #179, #174, #246, .T. ) ;
#68 = DIRECTION ( 'NONE',  ( 2.976097385824784112E-15, 0.000000000000000000, 1.000000000000000000 ) ) ;
#69 = CARTESIAN_POINT ( 'NONE',  ( 0.000000000000000000, 0.000000000000000000, 0.000000000000000000 ) ) ;
#70 = CLOSED_SHELL ( 'NONE', ( #196, #130, #208, #115, #76, #62 ) ) ;
#71 = DIRECTION ( 'NONE',  ( 1.000000000000000000, 0.000000000000000000, 1.937594230830225638E-16 ) ) ;
#72 = DIRECTION ( 'NONE',  ( 0.000000000000000000, 1.000000000000000000, 0.000000000000000000 ) ) ;
#73 = CARTESIAN_POINT ( 'NONE',  ( 0.000000000000000000, 0.000000000000000000, 0.000000000000000000 ) ) ;
#74 =( NAMED_UNIT ( * ) PLANE_ANGLE_UNIT ( ) SI_UNIT ( $, .RADIAN. ) );
#75 = APPLICATION_PROTOCOL_DEFINITION ( 'international standard', 'config_control_design', 1994, #169 ) ;
#76 = ADVANCED_FACE ( 'NONE', ( #32, #159 ), #162, .F. ) ;
#77 = CALENDAR_DATE ( 2024, 5, 8 ) ;
#78 = ORIENTED_EDGE ( 'NONE', *, *, #40, .F. ) ;
#79 = ORIENTED_EDGE ( 'NONE', *, *, #24, .F. ) ;
#80 = ORIENTED_EDGE ( 'NONE', *, *, #34, .F. ) ;
#81 = EDGE_LOOP ( 'NONE', ( #80, #59 ) ) ;
#82 = LOCAL_TIME ( 10, 52, 33.00000000000000000, #92 ) ;
#83 = CIRCLE ( 'NONE', #110, 26.99999999999999645 ) ;
#84 = DIRECTION ( 'NONE',  ( 0.000000000000000000, 1.000000000000000000, 0.000000000000000000 ) ) ;
#85 = PRODUCT_DEFINITION ( 'UNKNOWN', '', #180, #143 ) ;
#86 = CARTESIAN_POINT ( 'NONE',  ( -122.0000000000000000, 0.000000000000000000, -2.241103642439664886E-14 ) ) ;
#87 = LOCAL_TIME ( 10, 52, 33.00000000000000000, #191 ) ;
#88 = DIRECTION ( 'NONE',  ( 0.000000000000000000, 1.000000000000000000, 0.000000000000000000 ) ) ;
#89 = ORIENTED_EDGE ( 'NONE', *, *, #251, .T. ) ;
#90 = DIRECTION ( 'NONE',  ( 0.000000000000000000, 1.000000000000000000, 0.000000000000000000 ) ) ;
#91 = DATE_AND_TIME ( #35, #233 ) ;
#92 = COORDINATED_UNIVERSAL_TIME_OFFSET ( 1, 0, .AHEAD. ) ;
#93 = DIRECTION ( 'NONE',  ( -1.937594230830221694E-16, 0.000000000000000000, 1.000000000000000000 ) ) ;
#94 = CIRCLE ( 'NONE', #109, 24.99999999999999289 ) ;
#95 = AXIS2_PLACEMENT_3D ( 'NONE', #44, #9, #45 ) ;
#96 = ORIENTED_EDGE ( 'NONE', *, *, #251, .F. ) ;
#97 = CC_DESIGN_APPROVAL ( #103, ( #180 ) ) ;
#98 = AXIS2_PLACEMENT_3D ( 'NONE', #137, #72, #33 ) ;
#99 = APPROVAL_DATE_TIME ( #22, #151 ) ;
#100 = EDGE_LOOP ( 'NONE', ( #154, #89, #116, #4 ) ) ;
#101 = DIRECTION ( 'NONE',  ( 1.000000000000000000, 0.000000000000000000, 1.937594230830225885E-16 ) ) ;
#102 = FACE_BOUND ( 'NONE', #81, .T. ) ;
#103 = APPROVAL ( #18, 'UNSPECIFIED' ) ;
#104 = CARTESIAN_POINT ( 'NONE',  ( -4.374863157162431919E-13, 0.000000000000000000, -147.0000000000000000 ) ) ;
#105 = FACE_OUTER_BOUND ( 'NONE', #152, .T. ) ;
#106 = CIRCLE ( 'NONE', #205, 26.99999999999999645 ) ;
#107 = PRODUCT_DEFINITION_SHAPE ( 'NONE', 'NONE',  #85 ) ;
#108 = MECHANICAL_CONTEXT ( 'NONE', #169, 'mechanical' ) ;
#109 = AXIS2_PLACEMENT_3D ( 'NONE', #182, #125, #183 ) ;
#110 = AXIS2_PLACEMENT_3D ( 'NONE', #86, #140, #160 ) ;
#111 = ORIENTED_EDGE ( 'NONE', *, *, #34, .T. ) ;
#112 = AXIS2_PLACEMENT_3D ( 'NONE', #146, #93, #206 ) ;
#113 = APPROVAL_DATE_TIME ( #214, #103 ) ;
#114 = VERTEX_POINT ( 'NONE', #141 ) ;
#115 = ADVANCED_FACE ( 'NONE', ( #102, #105 ), #48, .T. ) ;
#116 = ORIENTED_EDGE ( 'NONE', *, *, #172, .F. ) ;
#117 = DIRECTION ( 'NONE',  ( 0.000000000000000000, 0.000000000000000000, 1.000000000000000000 ) ) ;
#118 = APPROVAL_PERSON_ORGANIZATION ( #213, #151, #150 ) ;
#119 = AXIS2_PLACEMENT_3D ( 'NONE', #69, #177, #31 ) ;
#120 = CARTESIAN_POINT ( 'NONE',  ( -122.0000000000000000, 0.000000000000000000, -2.241103642439664886E-14 ) ) ;
#121 = ORIENTED_EDGE ( 'NONE', *, *, #67, .F. ) ;
#122 = MANIFOLD_SOLID_BREP ( 'Wandung1', #70 ) ;
#123 = DIRECTION ( 'NONE',  ( 2.976097385824784112E-15, 0.000000000000000000, 1.000000000000000000 ) ) ;
#124 = ORGANIZATION ( 'UNSPECIFIED', 'UNSPECIFIED', '' ) ;
#125 = DIRECTION ( 'NONE',  ( -1.000000000000000000, 0.000000000000000000, 2.976097385824784112E-15 ) ) ;
#126 = CARTESIAN_POINT ( 'NONE',  ( -147.0000000000000000, 0.000000000000000000, -2.848263519320426087E-14 ) ) ;
#127 = EDGE_CURVE ( 'NONE', #114, #194, #46, .T. ) ;
#128 = UNCERTAINTY_MEASURE_WITH_UNIT (LENGTH_MEASURE( 1.000000000000000082E-05 ), #165, 'distance_accuracy_value', 'NONE');
#129 = CARTESIAN_POINT ( 'NONE',  ( -2.839568648450866119E-13, 0.000000000000000000, -95.00000000000000000 ) ) ;
#130 = ADVANCED_FACE ( 'NONE', ( #29 ), #42, .T. ) ;
#131 = COORDINATED_UNIVERSAL_TIME_OFFSET ( 1, 0, .AHEAD. ) ;
#132 = COORDINATED_UNIVERSAL_TIME_OFFSET ( 1, 0, .AHEAD. ) ;
#133 = ORIENTED_EDGE ( 'NONE', *, *, #40, .T. ) ;
#134 = AXIS2_PLACEMENT_3D ( 'NONE', #178, #50, #245 ) ;
#135 = VERTEX_POINT ( 'NONE', #198 ) ;
#136 = CC_DESIGN_DATE_AND_TIME_ASSIGNMENT ( #5, #58, ( #64 ) ) ;
#137 = CARTESIAN_POINT ( 'NONE',  ( 0.000000000000000000, -3.061616997868382254E-15, 0.000000000000000000 ) ) ;
#138 = AXIS2_PLACEMENT_3D ( 'NONE', #39, #168, #248 ) ;
#139 = CARTESIAN_POINT ( 'NONE',  ( -2.886814464250040684E-13, 0.000000000000000000, -97.00000000000000000 ) ) ;
#140 = DIRECTION ( 'NONE',  ( -1.937594230830221694E-16, 0.000000000000000000, 1.000000000000000000 ) ) ;
#141 = CARTESIAN_POINT ( 'NONE',  ( -4.446661236796249098E-13, 0.000000000000000000, -149.0000000000000000 ) ) ;
#142 = PERSON ( 'UNSPECIFIED', 'UNSPECIFIED', 'UNSPECIFIED', ('UNSPECIFIED'), ('UNSPECIFIED'), ('UNSPECIFIED') ) ;
#143 = DESIGN_CONTEXT ( 'detailed design', #3, 'design' ) ;
#144 = TOROIDAL_SURFACE ( 'NONE', #175, 122.0000000000000000, 24.99999999999999289 ) ;
#145 = APPROVAL_DATE_TIME ( #13, #247 ) ;
#146 = CARTESIAN_POINT ( 'NONE',  ( -122.0000000000000000, 0.000000000000000000, -2.363864961612870388E-14 ) ) ;
#147 = APPROVAL_ROLE ( '' ) ;
#148 = CC_DESIGN_PERSON_AND_ORGANIZATION_ASSIGNMENT ( #224, #37, ( #85 ) ) ;
#149 = DIRECTION ( 'NONE',  ( 1.000000000000000000, 0.000000000000000000, 0.000000000000000000 ) ) ;
#150 = APPROVAL_ROLE ( '' ) ;
#151 = APPROVAL ( #27, 'UNSPECIFIED' ) ;
#152 = EDGE_LOOP ( 'NONE', ( #235, #240 ) ) ;
#153 = CALENDAR_DATE ( 2024, 5, 8 ) ;
#154 = ORIENTED_EDGE ( 'NONE', *, *, #170, .T. ) ;
#155 = ORIENTED_EDGE ( 'NONE', *, *, #156, .T. ) ;
#156 = EDGE_CURVE ( 'NONE', #179, #236, #181, .T. ) ;
#157 = AXIS2_PLACEMENT_3D ( 'NONE', #53, #36, #149 ) ;
#158 = CARTESIAN_POINT ( 'NONE',  ( -3.630838810706236554E-13, 0.000000000000000000, -122.0000000000000000 ) ) ;
#159 = FACE_OUTER_BOUND ( 'NONE', #25, .T. ) ;
#160 = DIRECTION ( 'NONE',  ( 1.000000000000000000, 0.000000000000000000, 1.937594230830225885E-16 ) ) ;
#161 = CIRCLE ( 'NONE', #98, 97.00000000000000000 ) ;
#162 = PLANE ( 'NONE',  #197 ) ;
#163 = DIRECTION ( 'NONE',  ( -1.937594230830221694E-16, 0.000000000000000000, 1.000000000000000000 ) ) ;
#164 = CC_DESIGN_PERSON_AND_ORGANIZATION_ASSIGNMENT ( #237, #231, ( #180 ) ) ;
#165 =( LENGTH_UNIT ( ) NAMED_UNIT ( * ) SI_UNIT ( .MILLI., .METRE. ) );
#166 = DATE_TIME_ROLE ( 'creation_date' ) ;
#167 = FACE_OUTER_BOUND ( 'NONE', #193, .T. ) ;
#168 = DIRECTION ( 'NONE',  ( 0.000000000000000000, 1.000000000000000000, 0.000000000000000000 ) ) ;
#169 = APPLICATION_CONTEXT ( 'configuration controlled 3d designs of mechanical parts and assemblies' ) ;
#170 = EDGE_CURVE ( 'NONE', #194, #114, #189, .T. ) ;
#171 = PERSON_AND_ORGANIZATION ( #142, #124 ) ;
#172 = EDGE_CURVE ( 'NONE', #211, #135, #83, .T. ) ;
#173 = ORIENTED_EDGE ( 'NONE', *, *, #67, .T. ) ;
#174 = VERTEX_POINT ( 'NONE', #139 ) ;
#175 = AXIS2_PLACEMENT_3D ( 'NONE', #30, #84, #117 ) ;
#176 = AXIS2_PLACEMENT_3D ( 'NONE', #73, #55, #188 ) ;
#177 = DIRECTION ( 'NONE',  ( 0.000000000000000000, 1.000000000000000000, 0.000000000000000000 ) ) ;
#178 = CARTESIAN_POINT ( 'NONE',  ( -3.643114942623557861E-13, 0.000000000000000000, -122.0000000000000000 ) ) ;
#179 = VERTEX_POINT ( 'NONE', #104 ) ;
#180 = PRODUCT_DEFINITION_FORMATION_WITH_SPECIFIED_SOURCE ( 'ANY', '', #207, .NOT_KNOWN. ) ;
#181 = CIRCLE ( 'NONE', #119, 147.0000000000000000 ) ;
#182 = CARTESIAN_POINT ( 'NONE',  ( -3.630838810706236554E-13, 0.000000000000000000, -122.0000000000000000 ) ) ;
#183 = DIRECTION ( 'NONE',  ( 2.976097385824783323E-15, 0.000000000000000000, 1.000000000000000000 ) ) ;
#184 = CARTESIAN_POINT ( 'NONE',  ( -95.00000000000000000, 0.000000000000000000, -1.717953200115503885E-14 ) ) ;
#185 = PERSON_AND_ORGANIZATION ( #142, #124 ) ;
#186 = CIRCLE ( 'NONE', #112, 24.99999999999999289 ) ;
#187 = FACE_OUTER_BOUND ( 'NONE', #200, .T. ) ;
#188 = DIRECTION ( 'NONE',  ( 0.000000000000000000, 0.000000000000000000, 1.000000000000000000 ) ) ;
#189 = CIRCLE ( 'NONE', #17, 26.99999999999999645 ) ;
#190 = EDGE_CURVE ( 'NONE', #194, #211, #202, .T. ) ;
#191 = COORDINATED_UNIVERSAL_TIME_OFFSET ( 1, 0, .AHEAD. ) ;
#192 = ORIENTED_EDGE ( 'NONE', *, *, #243, .T. ) ;
#193 = EDGE_LOOP ( 'NONE', ( #121, #155, #192, #78 ) ) ;
#194 = VERTEX_POINT ( 'NONE', #129 ) ;
#195 = CARTESIAN_POINT ( 'NONE',  ( -122.0000000000000000, 0.000000000000000000, -2.241103642439664886E-14 ) ) ;
#196 = ADVANCED_FACE ( 'NONE', ( #167 ), #228, .F. ) ;
#197 = AXIS2_PLACEMENT_3D ( 'NONE', #239, #244, #68 ) ;
#198 = CARTESIAN_POINT ( 'NONE',  ( -149.0000000000000000, 0.000000000000000000, -2.764254084763825572E-14 ) ) ;
#199 = DIRECTION ( 'NONE',  ( -1.000000000000000000, 0.000000000000000000, 2.976097385824784112E-15 ) ) ;
#200 = EDGE_LOOP ( 'NONE', ( #96, #61, #253, #79 ) ) ;
#201 =( GEOMETRIC_REPRESENTATION_CONTEXT ( 3 ) GLOBAL_UNCERTAINTY_ASSIGNED_CONTEXT ( ( #128 ) ) GLOBAL_UNIT_ASSIGNED_CONTEXT ( ( #165, #74, #227 ) ) REPRESENTATION_CONTEXT ( 'NONE', 'WORKASPACE' ) );
#202 = CIRCLE ( 'NONE', #219, 95.00000000000000000 ) ;
#203 = DIRECTION ( 'NONE',  ( -1.937594230830221694E-16, 0.000000000000000000, 1.000000000000000000 ) ) ;
#204 = CALENDAR_DATE ( 2024, 5, 8 ) ;
#205 = AXIS2_PLACEMENT_3D ( 'NONE', #195, #203, #101 ) ;
#206 = DIRECTION ( 'NONE',  ( 1.000000000000000000, 0.000000000000000000, 1.937594230830221694E-16 ) ) ;
#207 = PRODUCT ( '3D_R1655_54x2_17362200', '3D_R1655_54x2_17362200', '', ( #108 ) ) ;
#208 = ADVANCED_FACE ( 'NONE', ( #187 ), #47, .T. ) ;
#209 = PERSON_AND_ORGANIZATION ( #142, #124 ) ;
#210 = SHAPE_DEFINITION_REPRESENTATION ( #107, #252 ) ;
#211 = VERTEX_POINT ( 'NONE', #184 ) ;
#212 = ORIENTED_EDGE ( 'NONE', *, *, #127, .F. ) ;
#213 = PERSON_AND_ORGANIZATION ( #142, #124 ) ;
#214 = DATE_AND_TIME ( #54, #82 ) ;
#215 = AXIS2_PLACEMENT_3D ( 'NONE', #19, #90, #20 ) ;
#216 = FACE_OUTER_BOUND ( 'NONE', #238, .T. ) ;
#217 = APPROVAL_PERSON_ORGANIZATION ( #185, #103, #226 ) ;
#218 = DIRECTION ( 'NONE',  ( -1.000000000000000000, 0.000000000000000000, 2.976097385824784112E-15 ) ) ;
#219 = AXIS2_PLACEMENT_3D ( 'NONE', #11, #88, #221 ) ;
#220 = VERTEX_POINT ( 'NONE', #38 ) ;
#221 = DIRECTION ( 'NONE',  ( 0.000000000000000000, 0.000000000000000000, 1.000000000000000000 ) ) ;
#222 = DIRECTION ( 'NONE',  ( -1.937594230830225638E-16, 0.000000000000000000, 1.000000000000000000 ) ) ;
#223 = CC_DESIGN_APPROVAL ( #151, ( #64 ) ) ;
#224 = PERSON_AND_ORGANIZATION ( #142, #124 ) ;
#225 = CC_DESIGN_DATE_AND_TIME_ASSIGNMENT ( #91, #166, ( #85 ) ) ;
#226 = APPROVAL_ROLE ( '' ) ;
#227 =( NAMED_UNIT ( * ) SI_UNIT ( $, .STERADIAN. ) SOLID_ANGLE_UNIT ( ) );
#228 = TOROIDAL_SURFACE ( 'NONE', #176, 122.0000000000000000, 24.99999999999999289 ) ;
#229 = CC_DESIGN_PERSON_AND_ORGANIZATION_ASSIGNMENT ( #171, #26, ( #180 ) ) ;
#230 = PERSON_AND_ORGANIZATION ( #142, #124 ) ;
#231 = PERSON_AND_ORGANIZATION_ROLE ( 'design_supplier' ) ;
#232 = ORIENTED_EDGE ( 'NONE', *, *, #170, .F. ) ;
#233 = LOCAL_TIME ( 10, 52, 33.00000000000000000, #52 ) ;
#234 = AXIS2_PLACEMENT_3D ( 'NONE', #120, #222, #71 ) ;
#235 = ORIENTED_EDGE ( 'NONE', *, *, #172, .T. ) ;
#236 = VERTEX_POINT ( 'NONE', #126 ) ;
#237 = PERSON_AND_ORGANIZATION ( #142, #124 ) ;
#238 = EDGE_LOOP ( 'NONE', ( #23, #43, #133, #111 ) ) ;
#239 = CARTESIAN_POINT ( 'NONE',  ( -3.643114942623557861E-13, 0.000000000000000000, -122.0000000000000000 ) ) ;
#240 = ORIENTED_EDGE ( 'NONE', *, *, #24, .T. ) ;
#241 = CC_DESIGN_SECURITY_CLASSIFICATION ( #64, ( #180 ) ) ;
#242 = DIRECTION ( 'NONE',  ( 1.000000000000000000, 0.000000000000000000, 1.937594230830221694E-16 ) ) ;
#243 = EDGE_CURVE ( 'NONE', #236, #220, #186, .T. ) ;
#244 = DIRECTION ( 'NONE',  ( -1.000000000000000000, 0.000000000000000000, 2.976097385824784112E-15 ) ) ;
#245 = DIRECTION ( 'NONE',  ( 2.976097385824784112E-15, 0.000000000000000000, 1.000000000000000000 ) ) ;
#246 = CIRCLE ( 'NONE', #60, 24.99999999999999289 ) ;
#247 = APPROVAL ( #56, 'UNSPECIFIED' ) ;
#248 = DIRECTION ( 'NONE',  ( 0.000000000000000000, 0.000000000000000000, 1.000000000000000000 ) ) ;
#249 = APPLICATION_PROTOCOL_DEFINITION ( 'international standard', 'config_control_design', 1994, #3 ) ;
#250 = PERSON_AND_ORGANIZATION_ROLE ( 'design_owner' ) ;
#251 = EDGE_CURVE ( 'NONE', #114, #135, #2, .T. ) ;
#252 = ADVANCED_BREP_SHAPE_REPRESENTATION ( '3D_R1655_54x2_17362200', ( #122, #157 ), #201 ) ;
#253 = ORIENTED_EDGE ( 'NONE', *, *, #190, .T. ) ;
ENDSEC;
END-ISO-10303-21;
