ISO-10303-21;
HEADER;
FILE_DESCRIPTION (( 'STEP AP203' ),
    '1' );
FILE_NAME ('3D_R169-K_48-26_17325310.STEP',
    '2024-07-11T10:22:24',
    ( '' ),
    ( '' ),
    'SwSTEP 2.0',
    'SolidWorks 2024',
    '' );
FILE_SCHEMA (( 'CONFIG_CONTROL_DESIGN' ));
ENDSEC;

DATA;
#1 = AXIS2_PLACEMENT_3D ( 'NONE', #30, #106, #176 ) ;
#2 = ADVANCED_FACE ( 'NONE', ( #82 ), #111, .T. ) ;
#3 = FACE_BOUND ( 'NONE', #156, .T. ) ;
#4 = DATE_AND_TIME ( #11, #145 ) ;
#5 = LINE ( 'NONE', #202, #165 ) ;
#6 = AXIS2_PLACEMENT_3D ( 'NONE', #186, #36, #164 ) ;
#7 = DIRECTION ( 'NONE',  ( 0.000000000000000000, 0.000000000000000000, 1.000000000000000000 ) ) ;
#8 = VERTEX_POINT ( 'NONE', #122 ) ;
#9 = PERSON_AND_ORGANIZATION ( #77, #81 ) ;
#10 = CARTESIAN_POINT ( 'NONE',  ( 40.00000000000000000, 0.000000000000000000, 0.000000000000000000 ) ) ;
#11 = CALENDAR_DATE ( 2024, 11, 7 ) ;
#12 = ORIENTED_EDGE ( 'NONE', *, *, #171, .T. ) ;
#13 = AXIS2_PLACEMENT_3D ( 'NONE', #27, #152, #196 ) ;
#14 = LINE ( 'NONE', #160, #91 ) ;
#15 = EDGE_CURVE ( 'NONE', #97, #120, #5, .T. ) ;
#16 = CARTESIAN_POINT ( 'NONE',  ( 40.00000000000000000, 0.000000000000000000, 0.000000000000000000 ) ) ;
#17 = CIRCLE ( 'NONE', #94, 11.37967997642876483 ) ;
#18 = APPROVAL_STATUS ( 'not_yet_approved' ) ;
#19 = CARTESIAN_POINT ( 'NONE',  ( 0.000000000000000000, 4.436283029911286895E-15, -24.14999999999999858 ) ) ;
#20 = APPROVAL_DATE_TIME ( #72, #43 ) ;
#21 =( NAMED_UNIT ( * ) SI_UNIT ( $, .STERADIAN. ) SOLID_ANGLE_UNIT ( ) );
#22 = AXIS2_PLACEMENT_3D ( 'NONE', #172, #61, #7 ) ;
#23 = EDGE_LOOP ( 'NONE', ( #45, #12 ) ) ;
#24 = EDGE_CURVE ( 'NONE', #137, #97, #170, .T. ) ;
#25 = CONICAL_SURFACE ( 'NONE', #22, 11.51793154949053388, 0.2613802385101894887 ) ;
#26 = EDGE_CURVE ( 'NONE', #120, #8, #57, .T. ) ;
#27 = CARTESIAN_POINT ( 'NONE',  ( 0.000000000000000000, 0.000000000000000000, 0.000000000000000000 ) ) ;
#28 = ORIENTED_EDGE ( 'NONE', *, *, #248, .F. ) ;
#29 = CARTESIAN_POINT ( 'NONE',  ( 40.00000000000000000, 0.000000000000000000, 0.000000000000000000 ) ) ;
#30 = CARTESIAN_POINT ( 'NONE',  ( 40.00000000000000000, 0.000000000000000000, 0.000000000000000000 ) ) ;
#31 = CARTESIAN_POINT ( 'NONE',  ( 0.000000000000000000, 0.000000000000000000, 22.07967997642876057 ) ) ;
#32 = CONICAL_SURFACE ( 'NONE', #229, 11.51793154949053388, 0.2613802385101894887 ) ;
#33 = ADVANCED_BREP_SHAPE_REPRESENTATION ( '3D_R169-K_48-26_17325310', ( #168, #182 ), #188 ) ;
#34 = COORDINATED_UNIVERSAL_TIME_OFFSET ( 1, 0, .AHEAD. ) ;
#35 = PERSON_AND_ORGANIZATION ( #77, #81 ) ;
#36 = DIRECTION ( 'NONE',  ( 1.000000000000000000, 0.000000000000000000, 0.000000000000000000 ) ) ;
#37 = PERSON_AND_ORGANIZATION_ROLE ( 'design_owner' ) ;
#38 = CARTESIAN_POINT ( 'NONE',  ( 39.48317168948872080, 1.410539800488189605E-15, -11.51793154949053388 ) ) ;
#39 = DIRECTION ( 'NONE',  ( 0.000000000000000000, 0.000000000000000000, -1.000000000000000000 ) ) ;
#40 = DIRECTION ( 'NONE',  ( 0.000000000000000000, 0.000000000000000000, 1.000000000000000000 ) ) ;
#41 = APPROVAL_PERSON_ORGANIZATION ( #180, #43, #112 ) ;
#42 = EDGE_LOOP ( 'NONE', ( #102, #131, #107, #44 ) ) ;
#43 = APPROVAL ( #18, 'UNSPECIFIED' ) ;
#44 = ORIENTED_EDGE ( 'NONE', *, *, #63, .F. ) ;
#45 = ORIENTED_EDGE ( 'NONE', *, *, #24, .T. ) ;
#46 = LOCAL_TIME ( 12, 22, 24.00000000000000000, #128 ) ;
#47 = EDGE_LOOP ( 'NONE', ( #217, #86, #191, #28 ) ) ;
#48 = VERTEX_POINT ( 'NONE', #31 ) ;
#49 = DIRECTION ( 'NONE',  ( 0.000000000000000000, 0.000000000000000000, -1.000000000000000000 ) ) ;
#50 = AXIS2_PLACEMENT_3D ( 'NONE', #110, #70, #181 ) ;
#51 = LOCAL_TIME ( 12, 22, 24.00000000000000000, #79 ) ;
#52 = CARTESIAN_POINT ( 'NONE',  ( 0.000000000000000000, 2.703980940933138870E-15, -22.07967997642876057 ) ) ;
#53 = PRODUCT_DEFINITION ( 'UNKNOWN', '', #87, #58 ) ;
#54 = DIRECTION ( 'NONE',  ( 1.000000000000000000, 0.000000000000000000, 0.000000000000000000 ) ) ;
#55 = APPROVAL_STATUS ( 'not_yet_approved' ) ;
#56 =( NAMED_UNIT ( * ) PLANE_ANGLE_UNIT ( ) SI_UNIT ( $, .RADIAN. ) );
#57 = CIRCLE ( 'NONE', #108, 24.14999999999999858 ) ;
#58 = DESIGN_CONTEXT ( 'detailed design', #132, 'design' ) ;
#59 = CIRCLE ( 'NONE', #6, 22.07967997642876057 ) ;
#60 = APPROVAL_DATE_TIME ( #4, #142 ) ;
#61 = DIRECTION ( 'NONE',  ( -1.000000000000000000, -0.000000000000000000, -0.000000000000000000 ) ) ;
#62 = EDGE_LOOP ( 'NONE', ( #233, #67 ) ) ;
#63 = EDGE_CURVE ( 'NONE', #137, #8, #14, .T. ) ;
#64 = FACE_OUTER_BOUND ( 'NONE', #47, .T. ) ;
#65 = DIRECTION ( 'NONE',  ( -1.000000000000000000, -0.000000000000000000, -0.000000000000000000 ) ) ;
#66 = DATE_AND_TIME ( #159, #231 ) ;
#67 = ORIENTED_EDGE ( 'NONE', *, *, #26, .F. ) ;
#68 = CC_DESIGN_PERSON_AND_ORGANIZATION_ASSIGNMENT ( #78, #141, ( #53 ) ) ;
#69 = LINE ( 'NONE', #38, #157 ) ;
#70 = DIRECTION ( 'NONE',  ( 1.000000000000000000, 0.000000000000000000, 0.000000000000000000 ) ) ;
#71 = DIRECTION ( 'NONE',  ( 0.000000000000000000, 0.000000000000000000, 1.000000000000000000 ) ) ;
#72 = DATE_AND_TIME ( #127, #129 ) ;
#73 = EDGE_CURVE ( 'NONE', #221, #85, #69, .T. ) ;
#74 = CARTESIAN_POINT ( 'NONE',  ( 0.000000000000000000, 0.000000000000000000, 0.000000000000000000 ) ) ;
#75 = CIRCLE ( 'NONE', #206, 11.37967997642876483 ) ;
#76 = APPROVAL_PERSON_ORGANIZATION ( #9, #174, #155 ) ;
#77 = PERSON ( 'UNSPECIFIED', 'UNSPECIFIED', 'UNSPECIFIED', ('UNSPECIFIED'), ('UNSPECIFIED'), ('UNSPECIFIED') ) ;
#78 = PERSON_AND_ORGANIZATION ( #77, #81 ) ;
#79 = COORDINATED_UNIVERSAL_TIME_OFFSET ( 1, 0, .AHEAD. ) ;
#80 = EDGE_CURVE ( 'NONE', #48, #85, #59, .T. ) ;
#81 = ORGANIZATION ( 'UNSPECIFIED', 'UNSPECIFIED', '' ) ;
#82 = FACE_OUTER_BOUND ( 'NONE', #169, .T. ) ;
#83 = PERSON_AND_ORGANIZATION ( #77, #81 ) ;
#84 = ORIENTED_EDGE ( 'NONE', *, *, #80, .T. ) ;
#85 = VERTEX_POINT ( 'NONE', #52 ) ;
#86 = ORIENTED_EDGE ( 'NONE', *, *, #194, .T. ) ;
#87 = PRODUCT_DEFINITION_FORMATION_WITH_SPECIFIED_SOURCE ( 'ANY', '', #124, .NOT_KNOWN. ) ;
#88 = EDGE_LOOP ( 'NONE', ( #117, #212, #154, #197 ) ) ;
#89 = PRODUCT_DEFINITION_SHAPE ( 'NONE', 'NONE',  #53 ) ;
#90 = COORDINATED_UNIVERSAL_TIME_OFFSET ( 1, 0, .AHEAD. ) ;
#91 = VECTOR ( 'NONE', #161, 1000.000000000000114 ) ;
#92 = DIRECTION ( 'NONE',  ( 1.000000000000000000, 0.000000000000000000, 0.000000000000000000 ) ) ;
#93 = DATE_AND_TIME ( #223, #46 ) ;
#94 = AXIS2_PLACEMENT_3D ( 'NONE', #16, #126, #183 ) ;
#95 = SECURITY_CLASSIFICATION ( '', '', #190 ) ;
#96 = PERSON_AND_ORGANIZATION ( #77, #81 ) ;
#97 = VERTEX_POINT ( 'NONE', #109 ) ;
#98 = AXIS2_PLACEMENT_3D ( 'NONE', #235, #100, #116 ) ;
#99 = PLANE ( 'NONE',  #13 ) ;
#100 = DIRECTION ( 'NONE',  ( -1.000000000000000000, -0.000000000000000000, -0.000000000000000000 ) ) ;
#101 = ADVANCED_FACE ( 'NONE', ( #245 ), #32, .F. ) ;
#102 = ORIENTED_EDGE ( 'NONE', *, *, #171, .F. ) ;
#103 = DATE_AND_TIME ( #177, #51 ) ;
#104 = DIRECTION ( 'NONE',  ( 1.000000000000000000, 0.000000000000000000, 0.000000000000000000 ) ) ;
#105 = FACE_OUTER_BOUND ( 'NONE', #62, .T. ) ;
#106 = DIRECTION ( 'NONE',  ( 1.000000000000000000, 0.000000000000000000, 0.000000000000000000 ) ) ;
#107 = ORIENTED_EDGE ( 'NONE', *, *, #26, .T. ) ;
#108 = AXIS2_PLACEMENT_3D ( 'NONE', #239, #138, #204 ) ;
#109 = CARTESIAN_POINT ( 'NONE',  ( 40.00000000000000000, 8.235749724265949955E-16, -13.44999999999999929 ) ) ;
#110 = CARTESIAN_POINT ( 'NONE',  ( 0.000000000000000000, 0.000000000000000000, 0.000000000000000000 ) ) ;
#111 = CONICAL_SURFACE ( 'NONE', #192, 13.44999999999999929, 0.2613802385101894887 ) ;
#112 = APPROVAL_ROLE ( '' ) ;
#113 = ADVANCED_FACE ( 'NONE', ( #139, #222 ), #144, .T. ) ;
#114 = CONICAL_SURFACE ( 'NONE', #98, 13.44999999999999929, 0.2613802385101894887 ) ;
#115 = APPROVAL_PERSON_ORGANIZATION ( #227, #142, #228 ) ;
#116 = DIRECTION ( 'NONE',  ( 0.000000000000000000, 0.000000000000000000, 1.000000000000000000 ) ) ;
#117 = ORIENTED_EDGE ( 'NONE', *, *, #213, .T. ) ;
#118 = CIRCLE ( 'NONE', #238, 13.44999999999999929 ) ;
#119 = CARTESIAN_POINT ( 'NONE',  ( 39.48317168948872080, 0.000000000000000000, 11.51793154949053388 ) ) ;
#120 = VERTEX_POINT ( 'NONE', #19 ) ;
#121 = DATE_TIME_ROLE ( 'classification_date' ) ;
#122 = CARTESIAN_POINT ( 'NONE',  ( 0.000000000000000000, -1.478761009970428965E-15, 24.14999999999999858 ) ) ;
#123 = CC_DESIGN_SECURITY_CLASSIFICATION ( #95, ( #87 ) ) ;
#124 = PRODUCT ( '3D_R169-K_48-26_17325310', '3D_R169-K_48-26_17325310', '', ( #209 ) ) ;
#125 = CARTESIAN_POINT ( 'NONE',  ( 40.00000000000000000, 8.235749724265949955E-16, 13.44999999999999929 ) ) ;
#126 = DIRECTION ( 'NONE',  ( 1.000000000000000000, 0.000000000000000000, 0.000000000000000000 ) ) ;
#127 = CALENDAR_DATE ( 2024, 11, 7 ) ;
#128 = COORDINATED_UNIVERSAL_TIME_OFFSET ( 1, 0, .AHEAD. ) ;
#129 = LOCAL_TIME ( 12, 22, 24.00000000000000000, #34 ) ;
#130 = CIRCLE ( 'NONE', #226, 24.14999999999999858 ) ;
#131 = ORIENTED_EDGE ( 'NONE', *, *, #15, .T. ) ;
#132 = APPLICATION_CONTEXT ( 'configuration controlled 3d designs of mechanical parts and assemblies' ) ;
#133 = PERSON_AND_ORGANIZATION ( #77, #81 ) ;
#134 = CC_DESIGN_PERSON_AND_ORGANIZATION_ASSIGNMENT ( #133, #216, ( #87 ) ) ;
#135 = LINE ( 'NONE', #119, #193 ) ;
#136 = ORIENTED_EDGE ( 'NONE', *, *, #24, .F. ) ;
#137 = VERTEX_POINT ( 'NONE', #125 ) ;
#138 = DIRECTION ( 'NONE',  ( 1.000000000000000000, 0.000000000000000000, 0.000000000000000000 ) ) ;
#139 = FACE_BOUND ( 'NONE', #200, .T. ) ;
#140 = DIRECTION ( 'NONE',  ( -0.9660342252547335917, 3.164660680881881125E-17, -0.2584141552556412091 ) ) ;
#141 = PERSON_AND_ORGANIZATION_ROLE ( 'creator' ) ;
#142 = APPROVAL ( #55, 'UNSPECIFIED' ) ;
#143 = CARTESIAN_POINT ( 'NONE',  ( 39.48317168948872080, 0.000000000000000000, 0.000000000000000000 ) ) ;
#144 = PLANE ( 'NONE',  #218 ) ;
#145 = LOCAL_TIME ( 12, 22, 24.00000000000000000, #90 ) ;
#146 = ADVANCED_FACE ( 'NONE', ( #246 ), #114, .T. ) ;
#147 = DATE_TIME_ROLE ( 'creation_date' ) ;
#148 = CC_DESIGN_PERSON_AND_ORGANIZATION_ASSIGNMENT ( #35, #37, ( #124 ) ) ;
#149 = CARTESIAN_POINT ( 'NONE',  ( 40.00000000000000000, 0.000000000000000000, 11.37967997642876483 ) ) ;
#150 = PRODUCT_RELATED_PRODUCT_CATEGORY ( 'detail', '', ( #124 ) ) ;
#151 = CIRCLE ( 'NONE', #50, 22.07967997642876057 ) ;
#152 = DIRECTION ( 'NONE',  ( 1.000000000000000000, 0.000000000000000000, 0.000000000000000000 ) ) ;
#153 = DIRECTION ( 'NONE',  ( -0.9660342252547335917, 3.164660680881881125E-17, -0.2584141552556412091 ) ) ;
#154 = ORIENTED_EDGE ( 'NONE', *, *, #80, .F. ) ;
#155 = APPROVAL_ROLE ( '' ) ;
#156 = EDGE_LOOP ( 'NONE', ( #84, #173 ) ) ;
#157 = VECTOR ( 'NONE', #140, 1000.000000000000114 ) ;
#158 = DIRECTION ( 'NONE',  ( 0.000000000000000000, 0.000000000000000000, 1.000000000000000000 ) ) ;
#159 = CALENDAR_DATE ( 2024, 11, 7 ) ;
#160 = CARTESIAN_POINT ( 'NONE',  ( 40.00000000000000000, 0.000000000000000000, 13.44999999999999929 ) ) ;
#161 = DIRECTION ( 'NONE',  ( -0.9660342252547335917, 0.000000000000000000, 0.2584141552556412091 ) ) ;
#162 = CLOSED_SHELL ( 'NONE', ( #101, #146, #113, #179, #2, #184 ) ) ;
#163 = DIRECTION ( 'NONE',  ( 1.000000000000000000, 0.000000000000000000, 0.000000000000000000 ) ) ;
#164 = DIRECTION ( 'NONE',  ( 0.000000000000000000, 0.000000000000000000, -1.000000000000000000 ) ) ;
#165 = VECTOR ( 'NONE', #153, 1000.000000000000114 ) ;
#166 = APPLICATION_PROTOCOL_DEFINITION ( 'international standard', 'config_control_design', 1994, #232 ) ;
#167 = PERSON_AND_ORGANIZATION_ROLE ( 'classification_officer' ) ;
#168 = MANIFOLD_SOLID_BREP ( 'Wandung2', #162 ) ;
#169 = EDGE_LOOP ( 'NONE', ( #215, #136, #242, #236 ) ) ;
#170 = CIRCLE ( 'NONE', #1, 13.44999999999999929 ) ;
#171 = EDGE_CURVE ( 'NONE', #97, #137, #118, .T. ) ;
#172 = CARTESIAN_POINT ( 'NONE',  ( 39.48317168948872080, 0.000000000000000000, 0.000000000000000000 ) ) ;
#173 = ORIENTED_EDGE ( 'NONE', *, *, #248, .T. ) ;
#174 = APPROVAL ( #205, 'UNSPECIFIED' ) ;
#175 = SHAPE_DEFINITION_REPRESENTATION ( #89, #33 ) ;
#176 = DIRECTION ( 'NONE',  ( 0.000000000000000000, 0.000000000000000000, -1.000000000000000000 ) ) ;
#177 = CALENDAR_DATE ( 2024, 11, 7 ) ;
#178 = ORIENTED_EDGE ( 'NONE', *, *, #213, .F. ) ;
#179 = ADVANCED_FACE ( 'NONE', ( #3, #105 ), #99, .F. ) ;
#180 = PERSON_AND_ORGANIZATION ( #77, #81 ) ;
#181 = DIRECTION ( 'NONE',  ( 0.000000000000000000, 0.000000000000000000, -1.000000000000000000 ) ) ;
#182 = AXIS2_PLACEMENT_3D ( 'NONE', #185, #40, #92 ) ;
#183 = DIRECTION ( 'NONE',  ( 0.000000000000000000, 0.000000000000000000, -1.000000000000000000 ) ) ;
#184 = ADVANCED_FACE ( 'NONE', ( #64 ), #25, .F. ) ;
#185 = CARTESIAN_POINT ( 'NONE',  ( 0.000000000000000000, 0.000000000000000000, 0.000000000000000000 ) ) ;
#186 = CARTESIAN_POINT ( 'NONE',  ( 0.000000000000000000, 0.000000000000000000, 0.000000000000000000 ) ) ;
#187 = EDGE_CURVE ( 'NONE', #219, #48, #135, .T. ) ;
#188 =( GEOMETRIC_REPRESENTATION_CONTEXT ( 3 ) GLOBAL_UNCERTAINTY_ASSIGNED_CONTEXT ( ( #249 ) ) GLOBAL_UNIT_ASSIGNED_CONTEXT ( ( #208, #56, #21 ) ) REPRESENTATION_CONTEXT ( 'NONE', 'WORKASPACE' ) );
#189 = CC_DESIGN_APPROVAL ( #174, ( #95 ) ) ;
#190 = SECURITY_CLASSIFICATION_LEVEL ( 'unclassified' ) ;
#191 = ORIENTED_EDGE ( 'NONE', *, *, #187, .T. ) ;
#192 = AXIS2_PLACEMENT_3D ( 'NONE', #10, #65, #158 ) ;
#193 = VECTOR ( 'NONE', #199, 1000.000000000000114 ) ;
#194 = EDGE_CURVE ( 'NONE', #221, #219, #75, .T. ) ;
#195 = CARTESIAN_POINT ( 'NONE',  ( 40.00000000000000000, 0.000000000000000000, 0.000000000000000000 ) ) ;
#196 = DIRECTION ( 'NONE',  ( 0.000000000000000000, 0.000000000000000000, -1.000000000000000000 ) ) ;
#197 = ORIENTED_EDGE ( 'NONE', *, *, #187, .F. ) ;
#198 = CC_DESIGN_APPROVAL ( #43, ( #53 ) ) ;
#199 = DIRECTION ( 'NONE',  ( -0.9660342252547335917, 0.000000000000000000, 0.2584141552556412091 ) ) ;
#200 = EDGE_LOOP ( 'NONE', ( #178, #237 ) ) ;
#201 = CC_DESIGN_PERSON_AND_ORGANIZATION_ASSIGNMENT ( #96, #167, ( #95 ) ) ;
#202 = CARTESIAN_POINT ( 'NONE',  ( 40.00000000000000000, 1.647149944853189991E-15, -13.44999999999999929 ) ) ;
#203 = APPROVAL_DATE_TIME ( #66, #174 ) ;
#204 = DIRECTION ( 'NONE',  ( 0.000000000000000000, 0.000000000000000000, -1.000000000000000000 ) ) ;
#205 = APPROVAL_STATUS ( 'not_yet_approved' ) ;
#206 = AXIS2_PLACEMENT_3D ( 'NONE', #29, #104, #39 ) ;
#207 = CC_DESIGN_APPROVAL ( #142, ( #87 ) ) ;
#208 =( LENGTH_UNIT ( ) NAMED_UNIT ( * ) SI_UNIT ( .MILLI., .METRE. ) );
#209 = MECHANICAL_CONTEXT ( 'NONE', #232, 'mechanical' ) ;
#210 = DIRECTION ( 'NONE',  ( 0.000000000000000000, 0.000000000000000000, -1.000000000000000000 ) ) ;
#211 = CARTESIAN_POINT ( 'NONE',  ( 40.00000000000000000, 2.048794903389305196E-15, -11.37967997642876483 ) ) ;
#212 = ORIENTED_EDGE ( 'NONE', *, *, #73, .T. ) ;
#213 = EDGE_CURVE ( 'NONE', #219, #221, #17, .T. ) ;
#214 = DIRECTION ( 'NONE',  ( 0.000000000000000000, 0.000000000000000000, -1.000000000000000000 ) ) ;
#215 = ORIENTED_EDGE ( 'NONE', *, *, #15, .F. ) ;
#216 = PERSON_AND_ORGANIZATION_ROLE ( 'design_supplier' ) ;
#217 = ORIENTED_EDGE ( 'NONE', *, *, #73, .F. ) ;
#218 = AXIS2_PLACEMENT_3D ( 'NONE', #225, #54, #49 ) ;
#219 = VERTEX_POINT ( 'NONE', #149 ) ;
#220 = DIRECTION ( 'NONE',  ( 1.000000000000000000, 0.000000000000000000, 0.000000000000000000 ) ) ;
#221 = VERTEX_POINT ( 'NONE', #211 ) ;
#222 = FACE_OUTER_BOUND ( 'NONE', #23, .T. ) ;
#223 = CALENDAR_DATE ( 2024, 11, 7 ) ;
#224 = DIRECTION ( 'NONE',  ( -1.000000000000000000, -0.000000000000000000, -0.000000000000000000 ) ) ;
#225 = CARTESIAN_POINT ( 'NONE',  ( 40.00000000000000000, 0.000000000000000000, 0.000000000000000000 ) ) ;
#226 = AXIS2_PLACEMENT_3D ( 'NONE', #74, #163, #210 ) ;
#227 = PERSON_AND_ORGANIZATION ( #77, #81 ) ;
#228 = APPROVAL_ROLE ( '' ) ;
#229 = AXIS2_PLACEMENT_3D ( 'NONE', #143, #224, #71 ) ;
#230 = CC_DESIGN_DATE_AND_TIME_ASSIGNMENT ( #93, #147, ( #53 ) ) ;
#231 = LOCAL_TIME ( 12, 22, 24.00000000000000000, #241 ) ;
#232 = APPLICATION_CONTEXT ( 'configuration controlled 3d designs of mechanical parts and assemblies' ) ;
#233 = ORIENTED_EDGE ( 'NONE', *, *, #240, .F. ) ;
#234 = PERSON_AND_ORGANIZATION_ROLE ( 'creator' ) ;
#235 = CARTESIAN_POINT ( 'NONE',  ( 40.00000000000000000, 0.000000000000000000, 0.000000000000000000 ) ) ;
#236 = ORIENTED_EDGE ( 'NONE', *, *, #240, .T. ) ;
#237 = ORIENTED_EDGE ( 'NONE', *, *, #194, .F. ) ;
#238 = AXIS2_PLACEMENT_3D ( 'NONE', #195, #220, #214 ) ;
#239 = CARTESIAN_POINT ( 'NONE',  ( 0.000000000000000000, 0.000000000000000000, 0.000000000000000000 ) ) ;
#240 = EDGE_CURVE ( 'NONE', #8, #120, #130, .T. ) ;
#241 = COORDINATED_UNIVERSAL_TIME_OFFSET ( 1, 0, .AHEAD. ) ;
#242 = ORIENTED_EDGE ( 'NONE', *, *, #63, .T. ) ;
#243 = CC_DESIGN_DATE_AND_TIME_ASSIGNMENT ( #103, #121, ( #95 ) ) ;
#244 = CC_DESIGN_PERSON_AND_ORGANIZATION_ASSIGNMENT ( #83, #234, ( #87 ) ) ;
#245 = FACE_OUTER_BOUND ( 'NONE', #88, .T. ) ;
#246 = FACE_OUTER_BOUND ( 'NONE', #42, .T. ) ;
#247 = APPLICATION_PROTOCOL_DEFINITION ( 'international standard', 'config_control_design', 1994, #132 ) ;
#248 = EDGE_CURVE ( 'NONE', #85, #48, #151, .T. ) ;
#249 = UNCERTAINTY_MEASURE_WITH_UNIT (LENGTH_MEASURE( 1.000000000000000082E-05 ), #208, 'distance_accuracy_value', 'NONE');
ENDSEC;
END-ISO-10303-21;
