ISO-10303-21;
HEADER;
/****************************************************************
 * Generated by software with PDElib inside                    *
 * PDElib Version v51a, created Wed 07/06/2011                  *
 * ITI Transcendata (http://www.transcendata.com/)              *
 ****************************************************************/
FILE_DESCRIPTION(('Clamp-Endcap_Fl25_L4,7_V00'),'2;1');
FILE_NAME('Clamp-Endcap_Fl25_L4,7_V00.stp','2013-11-03T18:06:11',('DOCKWEILER AG'),('DOCKWEILER AG'),'Autodesk Inventor 2012','Autodesk Inventor 2012','');
FILE_SCHEMA(('CONFIG_CONTROL_DESIGN'));
ENDSEC;
DATA;
#5=APPLICATION_CONTEXT('configuration controlled 3D designs of mechanical parts and assemblies');
#6=APPLICATION_PROTOCOL_DEFINITION('International Standard','ap203_configuration_controlled_3d_design_of_mechanical_parts_and_assemblies_mim_lf',2004,#5);
#7=PRODUCT_CONTEXT('',#5,'mechanical');
#8=PRODUCT('N0002_004_001','N0002_004_001',$,(#7));
#9=PRODUCT_RELATED_PRODUCT_CATEGORY('part',$,(#8));
#10=PRODUCT_DEFINITION_FORMATION('',$,#8);
#11=PRODUCT_DEFINITION_CONTEXT('part definition',#5,'design');
#12=PRODUCT_DEFINITION('',$,#10,#11);
#18=(NAMED_UNIT(*)PLANE_ANGLE_UNIT()SI_UNIT($,.RADIAN.));
#19=DIMENSIONAL_EXPONENTS(0.0,0.0,0.0,0.0,0.0,0.0,0.0);
#20=PLANE_ANGLE_MEASURE_WITH_UNIT(PLANE_ANGLE_MEASURE(0.0174532925),#18);
#24=(CONVERSION_BASED_UNIT('DEGREE',#20)NAMED_UNIT(#19)PLANE_ANGLE_UNIT());
#28=(NAMED_UNIT(*)SI_UNIT($,.STERADIAN.)SOLID_ANGLE_UNIT());
#32=(LENGTH_UNIT()NAMED_UNIT(*)SI_UNIT(.MILLI.,.METRE.));
#34=UNCERTAINTY_MEASURE_WITH_UNIT(LENGTH_MEASURE(0.01),#32,'DISTANCE_ACCURACY_VALUE','');
#36=(GEOMETRIC_REPRESENTATION_CONTEXT(3)GLOBAL_UNCERTAINTY_ASSIGNED_CONTEXT((#34))GLOBAL_UNIT_ASSIGNED_CONTEXT((#24,#28,#32))REPRESENTATION_CONTEXT('None','None'));
#37=AXIS2_PLACEMENT_3D('',#38,#39,#40);
#38=CARTESIAN_POINT('',(0.0,0.0,0.0));
#39=DIRECTION('',(0.0,0.0,1.0));
#40=DIRECTION('',(1.0,0.0,0.0));
#41=SHAPE_REPRESENTATION('',(#37),#36);
#42=PRODUCT_DEFINITION_SHAPE('','',#12);
#43=SHAPE_DEFINITION_REPRESENTATION(#42,#41);
#49=(NAMED_UNIT(*)PLANE_ANGLE_UNIT()SI_UNIT($,.RADIAN.));
#50=DIMENSIONAL_EXPONENTS(0.0,0.0,0.0,0.0,0.0,0.0,0.0);
#51=PLANE_ANGLE_MEASURE_WITH_UNIT(PLANE_ANGLE_MEASURE(0.0174532925),#49);
#55=(CONVERSION_BASED_UNIT('DEGREE',#51)NAMED_UNIT(#50)PLANE_ANGLE_UNIT());
#59=(NAMED_UNIT(*)SI_UNIT($,.STERADIAN.)SOLID_ANGLE_UNIT());
#63=(LENGTH_UNIT()NAMED_UNIT(*)SI_UNIT(.MILLI.,.METRE.));
#65=UNCERTAINTY_MEASURE_WITH_UNIT(LENGTH_MEASURE(0.000001),#63,'DISTANCE_ACCURACY_VALUE','');
#67=(GEOMETRIC_REPRESENTATION_CONTEXT(3)GLOBAL_UNCERTAINTY_ASSIGNED_CONTEXT((#65))GLOBAL_UNIT_ASSIGNED_CONTEXT((#55,#59,#63))REPRESENTATION_CONTEXT('','3D'));
#68=CARTESIAN_POINT('',(-4.235490291158762,-7.979728E-016,0.0));
#69=DIRECTION('',(0.0,-1.0,0.0));
#70=DIRECTION('',(0.0,0.0,-1.0));
#71=AXIS2_PLACEMENT_3D('',#68,#69,#70);
#72=PLANE('',#71);
#73=CARTESIAN_POINT('',(-8.470980582317523,-1.595946E-015,0.0));
#74=VERTEX_POINT('',#73);
#75=CARTESIAN_POINT('',(-3.944305E-030,-6.661338E-015,0.0));
#76=DIRECTION('',(0.0,1.0,0.0));
#77=DIRECTION('',(-1.0,0.0,0.0));
#78=AXIS2_PLACEMENT_3D('',#75,#76,#77);
#79=CIRCLE('',#78,8.470980582317523);
#80=EDGE_CURVE('',#74,#74,#79,.T.);
#81=ORIENTED_EDGE('',*,*,#80,.F.);
#82=EDGE_LOOP('',(#81));
#83=FACE_OUTER_BOUND('',#82,.T.);
#84=ADVANCED_FACE('',(#83),#72,.T.);
#85=CARTESIAN_POINT('',(0.0,0.499999999999994,0.0));
#86=DIRECTION('',(5.693451E-016,1.0,0.0));
#87=DIRECTION('',(0.0,0.0,1.0));
#88=AXIS2_PLACEMENT_3D('',#85,#86,#87);
#89=TOROIDAL_SURFACE('',#88,8.470980582317523,0.5);
#90=CARTESIAN_POINT('',(-8.880556604462019,0.213211781824475,0.0));
#91=VERTEX_POINT('',#90);
#92=CARTESIAN_POINT('',(1.213911E-016,0.213211781824469,0.0));
#93=DIRECTION('',(0.0,1.0,0.0));
#94=DIRECTION('',(-1.0,0.0,0.0));
#95=AXIS2_PLACEMENT_3D('',#92,#93,#94);
#96=CIRCLE('',#95,8.880556604462019);
#97=EDGE_CURVE('',#91,#91,#96,.T.);
#98=ORIENTED_EDGE('',*,*,#97,.F.);
#99=EDGE_LOOP('',(#98));
#100=FACE_OUTER_BOUND('',#99,.T.);
#101=ORIENTED_EDGE('',*,*,#80,.T.);
#102=EDGE_LOOP('',(#101));
#103=FACE_BOUND('',#102,.T.);
#104=ADVANCED_FACE('',(#100,#103),#89,.T.);
#105=CARTESIAN_POINT('',(3.507374E-016,0.61603646545265,0.0));
#106=DIRECTION('',(5.693451E-016,1.0,0.0));
#107=DIRECTION('',(-1.0,0.0,0.0));
#108=AXIS2_PLACEMENT_3D('',#105,#106,#107);
#109=CONICAL_SURFACE('',#108,9.162617484515412,35.000000000000028);
#110=CARTESIAN_POINT('',(-9.444678364568805,1.018861149080835,0.0));
#111=VERTEX_POINT('',#110);
#112=CARTESIAN_POINT('',(5.800836E-016,1.018861149080829,0.0));
#113=DIRECTION('',(0.0,1.0,0.0));
#114=DIRECTION('',(-1.0,0.0,0.0));
#115=AXIS2_PLACEMENT_3D('',#112,#113,#114);
#116=CIRCLE('',#115,9.444678364568805);
#117=EDGE_CURVE('',#111,#111,#116,.T.);
#118=ORIENTED_EDGE('',*,*,#117,.F.);
#119=EDGE_LOOP('',(#118));
#120=FACE_OUTER_BOUND('',#119,.T.);
#121=ORIENTED_EDGE('',*,*,#97,.T.);
#122=EDGE_LOOP('',(#121));
#123=FACE_BOUND('',#122,.T.);
#124=ADVANCED_FACE('',(#120,#123),#109,.T.);
#125=CARTESIAN_POINT('',(0.0,0.559999999999992,0.0));
#126=DIRECTION('',(5.693451E-016,1.0,0.0));
#127=DIRECTION('',(0.0,0.0,1.0));
#128=AXIS2_PLACEMENT_3D('',#125,#126,#127);
#129=TOROIDAL_SURFACE('',#128,10.099999999999998,0.8);
#130=CARTESIAN_POINT('',(-10.755321635431191,1.018861149080835,0.0));
#131=VERTEX_POINT('',#130);
#132=CARTESIAN_POINT('',(5.800836E-016,1.018861149080829,0.0));
#133=DIRECTION('',(0.0,1.0,0.0));
#134=DIRECTION('',(-1.0,0.0,0.0));
#135=AXIS2_PLACEMENT_3D('',#132,#133,#134);
#136=CIRCLE('',#135,10.755321635431191);
#137=EDGE_CURVE('',#131,#131,#136,.T.);
#138=ORIENTED_EDGE('',*,*,#137,.F.);
#139=EDGE_LOOP('',(#138));
#140=FACE_OUTER_BOUND('',#139,.T.);
#141=ORIENTED_EDGE('',*,*,#117,.T.);
#142=EDGE_LOOP('',(#141));
#143=FACE_BOUND('',#142,.T.);
#144=ADVANCED_FACE('',(#140,#143),#129,.F.);
#145=CARTESIAN_POINT('',(2.046401E-016,0.35943057454041,0.0));
#146=DIRECTION('',(5.693451E-016,1.0,0.0));
#147=DIRECTION('',(-1.0,0.0,0.0));
#148=AXIS2_PLACEMENT_3D('',#145,#146,#147);
#149=CYLINDRICAL_SURFACE('',#148,10.755321635431191);
#150=CARTESIAN_POINT('',(-10.755321635431191,-0.300000000000002,0.0));
#151=VERTEX_POINT('',#150);
#152=CARTESIAN_POINT('',(-1.708035E-016,-0.300000000000009,0.0));
#153=DIRECTION('',(0.0,1.0,0.0));
#154=DIRECTION('',(-1.0,0.0,0.0));
#155=AXIS2_PLACEMENT_3D('',#152,#153,#154);
#156=CIRCLE('',#155,10.755321635431191);
#157=EDGE_CURVE('',#151,#151,#156,.T.);
#158=ORIENTED_EDGE('',*,*,#157,.F.);
#159=EDGE_LOOP('',(#158));
#160=FACE_OUTER_BOUND('',#159,.T.);
#161=ORIENTED_EDGE('',*,*,#137,.T.);
#162=EDGE_LOOP('',(#161));
#163=FACE_BOUND('',#162,.T.);
#164=ADVANCED_FACE('',(#160,#163),#149,.F.);
#165=CARTESIAN_POINT('',(0.0,-0.300000000000009,0.0));
#166=DIRECTION('',(5.693451E-016,1.0,0.0));
#167=DIRECTION('',(0.0,0.0,1.0));
#168=AXIS2_PLACEMENT_3D('',#165,#166,#167);
#169=TOROIDAL_SURFACE('',#168,11.255321635431192,0.5);
#170=CARTESIAN_POINT('',(-11.255321635431192,-0.800000000000002,0.0));
#171=VERTEX_POINT('',#170);
#172=CARTESIAN_POINT('',(-4.554761E-016,-0.800000000000008,0.0));
#173=DIRECTION('',(0.0,1.0,0.0));
#174=DIRECTION('',(-1.0,0.0,0.0));
#175=AXIS2_PLACEMENT_3D('',#172,#173,#174);
#176=CIRCLE('',#175,11.255321635431192);
#177=EDGE_CURVE('',#171,#171,#176,.T.);
#178=ORIENTED_EDGE('',*,*,#177,.F.);
#179=EDGE_LOOP('',(#178));
#180=FACE_OUTER_BOUND('',#179,.T.);
#181=ORIENTED_EDGE('',*,*,#157,.T.);
#182=EDGE_LOOP('',(#181));
#183=FACE_BOUND('',#182,.T.);
#184=ADVANCED_FACE('',(#180,#183),#169,.T.);
#185=CARTESIAN_POINT('',(-11.877660817715597,-0.800000000000002,0.0));
#186=DIRECTION('',(0.0,-1.0,0.0));
#187=DIRECTION('',(0.0,0.0,-1.0));
#188=AXIS2_PLACEMENT_3D('',#185,#186,#187);
#189=PLANE('',#188);
#190=CARTESIAN_POINT('',(-12.499999999999998,-0.800000000000003,0.0));
#191=VERTEX_POINT('',#190);
#192=CARTESIAN_POINT('',(-4.554761E-016,-0.80000000000001,0.0));
#193=DIRECTION('',(0.0,1.0,0.0));
#194=DIRECTION('',(-1.0,0.0,0.0));
#195=AXIS2_PLACEMENT_3D('',#192,#193,#194);
#196=CIRCLE('',#195,12.499999999999998);
#197=EDGE_CURVE('',#191,#191,#196,.T.);
#198=ORIENTED_EDGE('',*,*,#197,.F.);
#199=EDGE_LOOP('',(#198));
#200=FACE_OUTER_BOUND('',#199,.T.);
#201=ORIENTED_EDGE('',*,*,#177,.T.);
#202=EDGE_LOOP('',(#201));
#203=FACE_BOUND('',#202,.T.);
#204=ADVANCED_FACE('',(#200,#203),#189,.T.);
#205=CARTESIAN_POINT('',(4.184214E-016,0.734916984716107,0.0));
#206=DIRECTION('',(5.693451E-016,1.0,0.0));
#207=DIRECTION('',(-1.0,0.0,0.0));
#208=AXIS2_PLACEMENT_3D('',#205,#206,#207);
#209=CYLINDRICAL_SURFACE('',#208,12.5);
#210=CARTESIAN_POINT('',(-12.5,2.269833969432231,0.0));
#211=VERTEX_POINT('',#210);
#212=CARTESIAN_POINT('',(1.292319E-015,2.269833969432224,0.0));
#213=DIRECTION('',(0.0,1.0,0.0));
#214=DIRECTION('',(-1.0,0.0,0.0));
#215=AXIS2_PLACEMENT_3D('',#212,#213,#214);
#216=CIRCLE('',#215,12.500000000000002);
#217=EDGE_CURVE('',#211,#211,#216,.T.);
#218=ORIENTED_EDGE('',*,*,#217,.F.);
#219=EDGE_LOOP('',(#218));
#220=FACE_OUTER_BOUND('',#219,.T.);
#221=ORIENTED_EDGE('',*,*,#197,.T.);
#222=EDGE_LOOP('',(#221));
#223=FACE_BOUND('',#222,.T.);
#224=ADVANCED_FACE('',(#220,#223),#209,.T.);
#225=CARTESIAN_POINT('',(2.220446E-015,2.269833969432224,0.0));
#226=DIRECTION('',(5.693451E-016,1.0,0.0));
#227=DIRECTION('',(0.0,0.0,1.0));
#228=AXIS2_PLACEMENT_3D('',#225,#226,#227);
#229=TOROIDAL_SURFACE('',#228,11.699999999999999,0.8);
#230=CARTESIAN_POINT('',(-11.973616114660533,3.021588066060957,0.0));
#231=VERTEX_POINT('',#230);
#232=CARTESIAN_POINT('',(1.720326E-015,3.021588066060951,0.0));
#233=DIRECTION('',(0.0,1.0,0.0));
#234=DIRECTION('',(-1.0,0.0,0.0));
#235=AXIS2_PLACEMENT_3D('',#232,#233,#234);
#236=CIRCLE('',#235,11.973616114660535);
#237=EDGE_CURVE('',#231,#231,#236,.T.);
#238=ORIENTED_EDGE('',*,*,#237,.F.);
#239=EDGE_LOOP('',(#238));
#240=FACE_OUTER_BOUND('',#239,.T.);
#241=ORIENTED_EDGE('',*,*,#217,.T.);
#242=EDGE_LOOP('',(#241));
#243=FACE_BOUND('',#242,.T.);
#244=ADVANCED_FACE('',(#240,#243),#229,.T.);
#245=CARTESIAN_POINT('',(1.970386E-015,3.460794033030472,0.0));
#246=DIRECTION('',(-5.693451E-016,-1.0,0.0));
#247=DIRECTION('',(-1.0,0.0,0.0));
#248=AXIS2_PLACEMENT_3D('',#245,#246,#247);
#249=CONICAL_SURFACE('',#248,10.766907637922046,69.999999999999957);
#250=CARTESIAN_POINT('',(-9.560199161183556,3.899999999999998,0.0));
#251=VERTEX_POINT('',#250);
#252=CARTESIAN_POINT('',(2.220446E-015,3.899999999999992,0.0));
#253=DIRECTION('',(0.0,1.0,0.0));
#254=DIRECTION('',(-1.0,0.0,0.0));
#255=AXIS2_PLACEMENT_3D('',#252,#253,#254);
#256=CIRCLE('',#255,9.560199161183558);
#257=EDGE_CURVE('',#251,#251,#256,.T.);
#258=ORIENTED_EDGE('',*,*,#257,.F.);
#259=EDGE_LOOP('',(#258));
#260=FACE_OUTER_BOUND('',#259,.T.);
#261=ORIENTED_EDGE('',*,*,#237,.T.);
#262=EDGE_LOOP('',(#261));
#263=FACE_BOUND('',#262,.T.);
#264=ADVANCED_FACE('',(#260,#263),#249,.T.);
#265=CARTESIAN_POINT('',(-4.780099580591777,3.9,0.0));
#266=DIRECTION('',(0.0,1.0,0.0));
#267=DIRECTION('',(0.0,0.0,1.0));
#268=AXIS2_PLACEMENT_3D('',#265,#266,#267);
#269=PLANE('',#268);
#270=ORIENTED_EDGE('',*,*,#257,.T.);
#271=EDGE_LOOP('',(#270));
#272=FACE_OUTER_BOUND('',#271,.T.);
#273=ADVANCED_FACE('',(#272),#269,.T.);
#274=CLOSED_SHELL('',(#84,#104,#124,#144,#164,#184,#204,#224,#244,#264,#273));
#275=MANIFOLD_SOLID_BREP('Volumenk\S\vrper1',#274);
#276=COLOUR_RGB('Metall - Stahl',0.639216005802155,0.639216005802155,0.686275005340576);
#277=FILL_AREA_STYLE_COLOUR('Metall - Stahl',#276);
#278=FILL_AREA_STYLE('Metall - Stahl',(#277));
#279=SURFACE_STYLE_FILL_AREA(#278);
#280=SURFACE_SIDE_STYLE('Metall - Stahl',(#279));
#281=SURFACE_STYLE_USAGE(.BOTH.,#280);
#282=PRESENTATION_STYLE_ASSIGNMENT((#281));
#283=STYLED_ITEM('',(#282),#275);
#284=MECHANICAL_DESIGN_GEOMETRIC_PRESENTATION_REPRESENTATION('',(#283),#36);
#285=ADVANCED_BREP_SHAPE_REPRESENTATION('ABSR',(#275),#36);
#286=SHAPE_REPRESENTATION_RELATIONSHIP('SRR','None',#285,#41);
ENDSEC;
END-ISO-10303-21;
