ISO-10303-21;
HEADER;
FILE_DESCRIPTION (( 'STEP AP203' ),
    '1' );
FILE_NAME ('3D_R-159_DN32_1780132.STEP',
    '2024-08-12T06:41:16',
    ( '' ),
    ( '' ),
    'SwSTEP 2.0',
    'SolidWorks 2024',
    '' );
FILE_SCHEMA (( 'CONFIG_CONTROL_DESIGN' ));
ENDSEC;

DATA;
#1 = FACE_OUTER_BOUND ( 'NONE', #326, .T. ) ;
#2 = DIRECTION ( 'NONE',  ( -0.9999999997022959164, -2.440099081145985212E-05, -0.000000000000000000 ) ) ;
#3 = DATE_AND_TIME ( #121, #285 ) ;
#4 = PRODUCT_RELATED_PRODUCT_CATEGORY ( 'detail', '', ( #20 ) ) ;
#5 = CARTESIAN_POINT ( 'NONE',  ( -56.45460952032375701, 5.278950995385496725, 0.000000000000000000 ) ) ;
#6 = DIRECTION ( 'NONE',  ( -0.9999999997022959164, -2.440099081145985212E-05, -0.000000000000000000 ) ) ;
#7 = CARTESIAN_POINT ( 'NONE',  ( -106.4543947916046562, 5.277730951084153688, 0.000000000000000000 ) ) ;
#8 = CARTESIAN_POINT ( 'NONE',  ( -56.45456071834215095, 5.278950996576313059, 0.000000000000000000 ) ) ;
#9 = EDGE_CURVE ( 'NONE', #234, #58, #386, .T. ) ;
#10 = PERSON_AND_ORGANIZATION ( #219, #295 ) ;
#11 = APPROVAL_PERSON_ORGANIZATION ( #75, #128, #25 ) ;
#12 = FACE_OUTER_BOUND ( 'NONE', #286, .T. ) ;
#13 = VECTOR ( 'NONE', #34, 1000.000000000000114 ) ;
#14 = PERSON_AND_ORGANIZATION ( #219, #295 ) ;
#15 = EDGE_CURVE ( 'NONE', #58, #316, #99, .T. ) ;
#16 = ORIENTED_EDGE ( 'NONE', *, *, #376, .F. ) ;
#17 = ORIENTED_EDGE ( 'NONE', *, *, #15, .F. ) ;
#18 = ORIENTED_EDGE ( 'NONE', *, *, #267, .F. ) ;
#19 = DIRECTION ( 'NONE',  ( -0.9999999997022959164, -2.440099081145985212E-05, -0.000000000000000000 ) ) ;
#20 = PRODUCT ( '3D_R-159_DN32_1780132', '3D_R-159_DN32_1780132', '', ( #65 ) ) ;
#21 = EDGE_CURVE ( 'NONE', #58, #234, #315, .T. ) ;
#22 = CARTESIAN_POINT ( 'NONE',  ( -108.4537115614802900, -22.72236664443952847, 3.429017014118933481E-15 ) ) ;
#23 = LOCAL_TIME ( 8, 41, 16.00000000000000000, #127 ) ;
#24 = CARTESIAN_POINT ( 'NONE',  ( -106.4540433577961238, -15.92348909619276753, 2.596400627168854761E-15 ) ) ;
#25 = APPROVAL_ROLE ( '' ) ;
#26 = FACE_OUTER_BOUND ( 'NONE', #387, .T. ) ;
#27 = EDGE_LOOP ( 'NONE', ( #86, #252, #299, #298 ) ) ;
#28 = CIRCLE ( 'NONE', #262, 19.20126885211760026 ) ;
#29 = DESIGN_CONTEXT ( 'detailed design', #180, 'design' ) ;
#30 = LINE ( 'NONE', #171, #93 ) ;
#31 = VERTEX_POINT ( 'NONE', #40 ) ;
#32 = ORIENTED_EDGE ( 'NONE', *, *, #9, .T. ) ;
#33 = AXIS2_PLACEMENT_3D ( 'NONE', #129, #248, #125 ) ;
#34 = DIRECTION ( 'NONE',  ( 4.880198160937017896E-05, -0.9999999988091832215, 1.224646798782770786E-16 ) ) ;
#35 = DIRECTION ( 'NONE',  ( -7.973256657776289780E-16, 1.000000000000000000, 0.000000000000000000 ) ) ;
#36 = CARTESIAN_POINT ( 'NONE',  ( -56.45414102130015976, -13.92104899949398877, 2.351321854435834859E-15 ) ) ;
#37 = DIRECTION ( 'NONE',  ( -0.9999999988091832215, -4.880198160831108963E-05, 0.000000000000000000 ) ) ;
#38 = DIRECTION ( 'NONE',  ( -0.9999999997022959164, -2.440099081145985212E-05, -0.000000000000000000 ) ) ;
#39 = APPROVAL_STATUS ( 'not_yet_approved' ) ;
#40 = CARTESIAN_POINT ( 'NONE',  ( -56.45414102130015976, -13.92104899949398877, 2.473786534314112406E-15 ) ) ;
#41 =( NAMED_UNIT ( * ) SI_UNIT ( $, .STERADIAN. ) SOLID_ANGLE_UNIT ( ) );
#42 = ORIENTED_EDGE ( 'NONE', *, *, #300, .F. ) ;
#43 = PERSON_AND_ORGANIZATION_ROLE ( 'creator' ) ;
#44 = ORIENTED_EDGE ( 'NONE', *, *, #200, .T. ) ;
#45 = CC_DESIGN_PERSON_AND_ORGANIZATION_ASSIGNMENT ( #312, #342, ( #379 ) ) ;
#46 = CLOSED_SHELL ( 'NONE', ( #82, #256, #288, #133, #260, #120, #214, #328, #371, #60, #50, #296 ) ) ;
#47 = ORIENTED_EDGE ( 'NONE', *, *, #310, .T. ) ;
#48 = AXIS2_PLACEMENT_3D ( 'NONE', #7, #2, #123 ) ;
#49 = APPROVAL_PERSON_ORGANIZATION ( #280, #195, #105 ) ;
#50 = ADVANCED_FACE ( 'NONE', ( #12 ), #348, .F. ) ;
#51 = DIRECTION ( 'NONE',  ( 2.440099081117304676E-05, -0.9999999997022958054, 0.000000000000000000 ) ) ;
#52 = DATE_TIME_ROLE ( 'classification_date' ) ;
#53 = CARTESIAN_POINT ( 'NONE',  ( -106.4537115638619298, -22.72226904058013019, 0.000000000000000000 ) ) ;
#54 = DIRECTION ( 'NONE',  ( 2.440099081117304676E-05, -0.9999999997022958054, 0.000000000000000000 ) ) ;
#55 = DIRECTION ( 'NONE',  ( -0.9999999997022959164, -2.440099081145985212E-05, -0.000000000000000000 ) ) ;
#56 = ORIENTED_EDGE ( 'NONE', *, *, #300, .T. ) ;
#57 = CC_DESIGN_PERSON_AND_ORGANIZATION_ASSIGNMENT ( #10, #340, ( #192 ) ) ;
#58 = VERTEX_POINT ( 'NONE', #369 ) ;
#59 = VECTOR ( 'NONE', #37, 1000.000000000000114 ) ;
#60 = ADVANCED_FACE ( 'NONE', ( #102 ), #370, .T. ) ;
#61 = CONICAL_SURFACE ( 'NONE', #80, 21.20000000000000284, 2.440099081366777902E-05 ) ;
#62 = CONICAL_SURFACE ( 'NONE', #333, 19.20126885211760026, 2.440099081380121720E-05 ) ;
#63 = DIRECTION ( 'NONE',  ( -2.440099081155032201E-05, 0.9999999997022958054, 0.000000000000000000 ) ) ;
#64 = DIRECTION ( 'NONE',  ( -0.9999999997022959164, -2.440099081145985212E-05, -0.000000000000000000 ) ) ;
#65 = MECHANICAL_CONTEXT ( 'NONE', #154, 'mechanical' ) ;
#66 = FACE_OUTER_BOUND ( 'NONE', #222, .T. ) ;
#67 = DIRECTION ( 'NONE',  ( -0.9999999988091832215, -4.880198160817773276E-05, 0.000000000000000000 ) ) ;
#68 = ORIENTED_EDGE ( 'NONE', *, *, #88, .F. ) ;
#69 = PERSON_AND_ORGANIZATION ( #219, #295 ) ;
#70 = LINE ( 'NONE', #271, #59 ) ;
#71 = DATE_AND_TIME ( #246, #23 ) ;
#72 = CC_DESIGN_DATE_AND_TIME_ASSIGNMENT ( #104, #241, ( #237 ) ) ;
#73 = ORIENTED_EDGE ( 'NONE', *, *, #150, .F. ) ;
#74 = EDGE_CURVE ( 'NONE', #31, #188, #70, .T. ) ;
#75 = PERSON_AND_ORGANIZATION ( #219, #295 ) ;
#76 = VERTEX_POINT ( 'NONE', #122 ) ;
#77 = VECTOR ( 'NONE', #156, 1000.000000000000000 ) ;
#78 = FACE_OUTER_BOUND ( 'NONE', #161, .T. ) ;
#79 = AXIS2_PLACEMENT_3D ( 'NONE', #367, #38, #245 ) ;
#80 = AXIS2_PLACEMENT_3D ( 'NONE', #141, #259, #347 ) ;
#81 = CARTESIAN_POINT ( 'NONE',  ( -108.4546094893625394, 5.277682143863678732, 0.000000000000000000 ) ) ;
#82 = ADVANCED_FACE ( 'NONE', ( #90 ), #216, .T. ) ;
#83 = DATE_AND_TIME ( #322, #109 ) ;
#84 = DIRECTION ( 'NONE',  ( -1.000000000000000000, -2.134082569948264618E-16, 2.988259529301693772E-21 ) ) ;
#85 = CARTESIAN_POINT ( 'NONE',  ( -106.4550780193473685, 26.47895099026498045, 0.000000000000000000 ) ) ;
#86 = ORIENTED_EDGE ( 'NONE', *, *, #267, .T. ) ;
#87 = ORIENTED_EDGE ( 'NONE', *, *, #356, .F. ) ;
#88 = EDGE_CURVE ( 'NONE', #220, #206, #361, .T. ) ;
#89 = CC_DESIGN_APPROVAL ( #128, ( #379 ) ) ;
#90 = FACE_OUTER_BOUND ( 'NONE', #194, .T. ) ;
#91 = DIRECTION ( 'NONE',  ( 9.085275392249625437E-17, 1.000000000000000000, 0.000000000000000000 ) ) ;
#92 =( LENGTH_UNIT ( ) NAMED_UNIT ( * ) SI_UNIT ( .MILLI., .METRE. ) );
#93 = VECTOR ( 'NONE', #201, 1000.000000000000114 ) ;
#94 = CARTESIAN_POINT ( 'NONE',  ( -108.4550780193473685, 24.47895099026498045, 2.351477243931359127E-15 ) ) ;
#95 = DIRECTION ( 'NONE',  ( 0.9999999997022959164, 2.440099081145985212E-05, 0.000000000000000000 ) ) ;
#96 = COORDINATED_UNIVERSAL_TIME_OFFSET ( 1, 0, .AHEAD. ) ;
#97 = DIRECTION ( 'NONE',  ( 2.440099081157366285E-05, -0.9999999997022958054, 0.000000000000000000 ) ) ;
#98 = VECTOR ( 'NONE', #277, 1000.000000000000000 ) ;
#99 = LINE ( 'NONE', #160, #98 ) ;
#100 = CARTESIAN_POINT ( 'NONE',  ( -56.45507801934735426, 24.47895099026498400, 0.000000000000000000 ) ) ;
#101 = CIRCLE ( 'NONE', #132, 19.20000000059540923 ) ;
#102 = FACE_OUTER_BOUND ( 'NONE', #282, .T. ) ;
#103 = CONICAL_SURFACE ( 'NONE', #217, 28.00000000000000000, 2.440099081366786711E-05 ) ;
#104 = DATE_AND_TIME ( #238, #360 ) ;
#105 = APPROVAL_ROLE ( '' ) ;
#106 = ORIENTED_EDGE ( 'NONE', *, *, #359, .F. ) ;
#107 = ORIENTED_EDGE ( 'NONE', *, *, #15, .T. ) ;
#108 = DIRECTION ( 'NONE',  ( 2.440099081124635577E-05, -0.9999999997022958054, 0.000000000000000000 ) ) ;
#109 = LOCAL_TIME ( 8, 41, 16.00000000000000000, #191 ) ;
#110 = CARTESIAN_POINT ( 'NONE',  ( -106.4550780193473685, 33.27773094274844112, 3.429011037612589670E-15 ) ) ;
#111 = AXIS2_PLACEMENT_3D ( 'NONE', #263, #199, #352 ) ;
#112 = AXIS2_PLACEMENT_3D ( 'NONE', #325, #297, #147 ) ;
#113 = DIRECTION ( 'NONE',  ( 4.880198160759382213E-05, -0.9999999988091832215, 1.224646798782770786E-16 ) ) ;
#114 = CARTESIAN_POINT ( 'NONE',  ( -108.4546094893625394, 5.277682143863678732, 0.000000000000000000 ) ) ;
#115 = ORIENTED_EDGE ( 'NONE', *, *, #343, .F. ) ;
#116 = APPROVAL ( #158, 'UNSPECIFIED' ) ;
#117 = CONICAL_SURFACE ( 'NONE', #268, 19.20000000059540568, 1.570771925804082647 ) ;
#118 = ORIENTED_EDGE ( 'NONE', *, *, #74, .F. ) ;
#119 = EDGE_CURVE ( 'NONE', #188, #289, #304, .T. ) ;
#120 = ADVANCED_FACE ( 'NONE', ( #1 ), #117, .F. ) ;
#121 = CALENDAR_DATE ( 2024, 12, 8 ) ;
#122 = CARTESIAN_POINT ( 'NONE',  ( -106.4550780193473685, 33.27773094274844112, 3.429014025872118217E-15 ) ) ;
#123 = DIRECTION ( 'NONE',  ( 2.440099081124635577E-05, -0.9999999997022958054, 0.000000000000000000 ) ) ;
#124 = DIRECTION ( 'NONE',  ( 0.9999999997022959164, 2.440099081145985212E-05, 0.000000000000000000 ) ) ;
#125 = DIRECTION ( 'NONE',  ( -2.440099081146379929E-05, 0.9999999997022959164, 0.000000000000000000 ) ) ;
#126 = CARTESIAN_POINT ( 'NONE',  ( -108.4550780193473685, 24.47895099026498045, 2.351477243931359127E-15 ) ) ;
#127 = COORDINATED_UNIVERSAL_TIME_OFFSET ( 1, 0, .AHEAD. ) ;
#128 = APPROVAL ( #232, 'UNSPECIFIED' ) ;
#129 = CARTESIAN_POINT ( 'NONE',  ( -106.4545606885717461, 5.277730947036103792, 0.000000000000000000 ) ) ;
#130 = CARTESIAN_POINT ( 'NONE',  ( 0.000000000000000000, 0.000000000000000000, 0.000000000000000000 ) ) ;
#131 = CIRCLE ( 'NONE', #339, 19.20000000059540923 ) ;
#132 = AXIS2_PLACEMENT_3D ( 'NONE', #240, #64, #363 ) ;
#133 = ADVANCED_FACE ( 'NONE', ( #66 ), #388, .T. ) ;
#134 = APPLICATION_PROTOCOL_DEFINITION ( 'international standard', 'config_control_design', 1994, #154 ) ;
#135 = AXIS2_PLACEMENT_3D ( 'NONE', #321, #19, #173 ) ;
#136 = ORIENTED_EDGE ( 'NONE', *, *, #151, .T. ) ;
#137 = ORIENTED_EDGE ( 'NONE', *, *, #189, .F. ) ;
#138 = EDGE_LOOP ( 'NONE', ( #318, #345, #205, #118 ) ) ;
#139 = DIRECTION ( 'NONE',  ( -0.9999999997022959164, -2.440099081145985212E-05, -0.000000000000000000 ) ) ;
#140 = DIRECTION ( 'NONE',  ( 0.9999999997022959164, 2.440099081145985212E-05, 0.000000000000000000 ) ) ;
#141 = CARTESIAN_POINT ( 'NONE',  ( -56.45456071834215095, 5.278950996576313059, 0.000000000000000000 ) ) ;
#142 = CC_DESIGN_PERSON_AND_ORGANIZATION_ASSIGNMENT ( #14, #43, ( #237 ) ) ;
#143 = CIRCLE ( 'NONE', #135, 19.20126885211760026 ) ;
#144 = FACE_OUTER_BOUND ( 'NONE', #375, .T. ) ;
#145 = ORIENTED_EDGE ( 'NONE', *, *, #119, .F. ) ;
#146 = MANIFOLD_SOLID_BREP ( 'Rotation1', #46 ) ;
#147 = DIRECTION ( 'NONE',  ( -2.440099081155032201E-05, 0.9999999997022958054, 0.000000000000000000 ) ) ;
#148 = AXIS2_PLACEMENT_3D ( 'NONE', #244, #311, #338 ) ;
#149 = ORIENTED_EDGE ( 'NONE', *, *, #376, .T. ) ;
#150 = EDGE_CURVE ( 'NONE', #206, #236, #243, .T. ) ;
#151 = EDGE_CURVE ( 'NONE', #31, #220, #131, .T. ) ;
#152 = CARTESIAN_POINT ( 'NONE',  ( -108.4537115614802900, -22.72236664454334587, 3.429017014131647947E-15 ) ) ;
#153 = CARTESIAN_POINT ( 'NONE',  ( -106.4550780193473685, 26.47895099026497689, 0.000000000000000000 ) ) ;
#154 = APPLICATION_CONTEXT ( 'configuration controlled 3d designs of mechanical parts and assemblies' ) ;
#155 = DIRECTION ( 'NONE',  ( 1.000000000000000000, 0.000000000000000000, 0.000000000000000000 ) ) ;
#156 = DIRECTION ( 'NONE',  ( 9.790311736226214867E-16, 1.000000000000000000, 0.000000000000000000 ) ) ;
#157 = LINE ( 'NONE', #100, #350 ) ;
#158 = APPROVAL_STATUS ( 'not_yet_approved' ) ;
#159 = CC_DESIGN_DATE_AND_TIME_ASSIGNMENT ( #83, #52, ( #379 ) ) ;
#160 = CARTESIAN_POINT ( 'NONE',  ( -56.45507801934735426, 26.47895099026498400, 2.596251214192389558E-15 ) ) ;
#161 = EDGE_LOOP ( 'NONE', ( #17, #284, #355, #327 ) ) ;
#162 = EDGE_CURVE ( 'NONE', #344, #289, #272, .T. ) ;
#163 = CC_DESIGN_SECURITY_CLASSIFICATION ( #379, ( #192 ) ) ;
#164 = SECURITY_CLASSIFICATION_LEVEL ( 'unclassified' ) ;
#165 = AXIS2_PLACEMENT_3D ( 'NONE', #209, #334, #229 ) ;
#166 = CIRCLE ( 'NONE', #303, 28.00004880198162738 ) ;
#167 = ORIENTED_EDGE ( 'NONE', *, *, #193, .F. ) ;
#168 = AXIS2_PLACEMENT_3D ( 'NONE', #8, #6, #309 ) ;
#169 = ORIENTED_EDGE ( 'NONE', *, *, #359, .T. ) ;
#170 = CIRCLE ( 'NONE', #48, 28.00000000000000355 ) ;
#171 = CARTESIAN_POINT ( 'NONE',  ( -56.45404341733694764, -15.92104899711236143, 0.000000000000000000 ) ) ;
#172 = CALENDAR_DATE ( 2024, 12, 8 ) ;
#173 = DIRECTION ( 'NONE',  ( 2.440099081117304676E-05, -0.9999999997022958054, 0.000000000000000000 ) ) ;
#174 = DIRECTION ( 'NONE',  ( -0.9999999997022959164, -2.440099081145985212E-05, -0.000000000000000000 ) ) ;
#175 = LINE ( 'NONE', #110, #283 ) ;
#176 = ORIENTED_EDGE ( 'NONE', *, *, #119, .T. ) ;
#177 = ORIENTED_EDGE ( 'NONE', *, *, #331, .F. ) ;
#178 = VECTOR ( 'NONE', #67, 1000.000000000000114 ) ;
#179 = CIRCLE ( 'NONE', #382, 28.00000000000000355 ) ;
#180 = APPLICATION_CONTEXT ( 'configuration controlled 3d designs of mechanical parts and assemblies' ) ;
#181 = CONICAL_SURFACE ( 'NONE', #112, 28.00004880198162738, 1.570771925804081759 ) ;
#182 = CARTESIAN_POINT ( 'NONE',  ( -56.45456071834215095, 5.278950996576313059, 0.000000000000000000 ) ) ;
#183 = CARTESIAN_POINT ( 'NONE',  ( -106.4537115638619298, -22.72226904058013019, 0.000000000000000000 ) ) ;
#184 = DIRECTION ( 'NONE',  ( 0.9999999997022959164, 2.440099081145985212E-05, 0.000000000000000000 ) ) ;
#185 = CC_DESIGN_PERSON_AND_ORGANIZATION_ASSIGNMENT ( #69, #372, ( #192 ) ) ;
#186 = CARTESIAN_POINT ( 'NONE',  ( -56.45460952032375701, 5.278950995385496725, 0.000000000000000000 ) ) ;
#187 = APPLICATION_PROTOCOL_DEFINITION ( 'international standard', 'config_control_design', 1994, #180 ) ;
#188 = VERTEX_POINT ( 'NONE', #275 ) ;
#189 = EDGE_CURVE ( 'NONE', #316, #76, #305, .T. ) ;
#190 = CARTESIAN_POINT ( 'NONE',  ( -106.4543947916046562, 5.277730951084153688, 0.000000000000000000 ) ) ;
#191 = COORDINATED_UNIVERSAL_TIME_OFFSET ( 1, 0, .AHEAD. ) ;
#192 = PRODUCT_DEFINITION_FORMATION_WITH_SPECIFIED_SOURCE ( 'ANY', '', #20, .NOT_KNOWN. ) ;
#193 = EDGE_CURVE ( 'NONE', #76, #344, #170, .T. ) ;
#194 = EDGE_LOOP ( 'NONE', ( #32, #107, #225, #115 ) ) ;
#195 = APPROVAL ( #39, 'UNSPECIFIED' ) ;
#196 = ORIENTED_EDGE ( 'NONE', *, *, #193, .T. ) ;
#197 = VECTOR ( 'NONE', #35, 1000.000000000000000 ) ;
#198 = CIRCLE ( 'NONE', #79, 21.20122004954056649 ) ;
#199 = DIRECTION ( 'NONE',  ( -0.9999999997022959164, -2.440099081145985212E-05, -0.000000000000000000 ) ) ;
#200 = EDGE_CURVE ( 'NONE', #220, #31, #101, .T. ) ;
#201 = DIRECTION ( 'NONE',  ( -0.9999999988091832215, -4.880198160817765144E-05, 0.000000000000000000 ) ) ;
#202 = DATE_AND_TIME ( #172, #329 ) ;
#203 = CARTESIAN_POINT ( 'NONE',  ( -106.4543947916046562, 5.277730951084153688, 0.000000000000000000 ) ) ;
#204 = LINE ( 'NONE', #24, #362 ) ;
#205 = ORIENTED_EDGE ( 'NONE', *, *, #356, .T. ) ;
#206 = VERTEX_POINT ( 'NONE', #126 ) ;
#207 = CIRCLE ( 'NONE', #389, 28.00004880198162738 ) ;
#208 = DIRECTION ( 'NONE',  ( -0.9999999997022959164, -2.440099081145985212E-05, -0.000000000000000000 ) ) ;
#209 = CARTESIAN_POINT ( 'NONE',  ( -106.4545606885717461, 5.277730947036103792, 0.000000000000000000 ) ) ;
#210 = DIRECTION ( 'NONE',  ( -1.000000000000000000, -8.005816604268745085E-17, 2.988259529318024304E-21 ) ) ;
#211 = DIRECTION ( 'NONE',  ( -2.440099081157386953E-05, 0.9999999997022959164, 0.000000000000000000 ) ) ;
#212 = PERSON_AND_ORGANIZATION ( #219, #295 ) ;
#213 = ORIENTED_EDGE ( 'NONE', *, *, #21, .F. ) ;
#214 = ADVANCED_FACE ( 'NONE', ( #307 ), #269, .F. ) ;
#215 = APPROVAL_DATE_TIME ( #71, #116 ) ;
#216 = CONICAL_SURFACE ( 'NONE', #250, 21.20000000000000284, 2.440099081366777902E-05 ) ;
#217 = AXIS2_PLACEMENT_3D ( 'NONE', #203, #291, #351 ) ;
#218 = DIRECTION ( 'NONE',  ( -0.9999999997022959164, -2.440099081145985212E-05, -0.000000000000000000 ) ) ;
#219 = PERSON ( 'UNSPECIFIED', 'UNSPECIFIED', 'UNSPECIFIED', ('UNSPECIFIED'), ('UNSPECIFIED'), ('UNSPECIFIED') ) ;
#220 = VERTEX_POINT ( 'NONE', #336 ) ;
#221 = EDGE_CURVE ( 'NONE', #357, #316, #198, .T. ) ;
#222 = EDGE_LOOP ( 'NONE', ( #42, #176, #253, #73 ) ) ;
#223 = ORIENTED_EDGE ( 'NONE', *, *, #162, .T. ) ;
#224 = EDGE_CURVE ( 'NONE', #220, #58, #157, .T. ) ;
#225 = ORIENTED_EDGE ( 'NONE', *, *, #221, .F. ) ;
#226 = ORIENTED_EDGE ( 'NONE', *, *, #227, .T. ) ;
#227 = EDGE_CURVE ( 'NONE', #316, #357, #251, .T. ) ;
#228 = CARTESIAN_POINT ( 'NONE',  ( -56.45404341733695475, -15.92104899702436249, 2.596251214181612930E-15 ) ) ;
#229 = DIRECTION ( 'NONE',  ( 2.440099081146379252E-05, -0.9999999997022959164, 0.000000000000000000 ) ) ;
#230 = VECTOR ( 'NONE', #368, 1000.000000000000114 ) ;
#231 = FACE_OUTER_BOUND ( 'NONE', #138, .T. ) ;
#232 = APPROVAL_STATUS ( 'not_yet_approved' ) ;
#233 = FACE_OUTER_BOUND ( 'NONE', #27, .T. ) ;
#234 = VERTEX_POINT ( 'NONE', #228 ) ;
#235 = VECTOR ( 'NONE', #210, 1000.000000000000000 ) ;
#236 = VERTEX_POINT ( 'NONE', #381 ) ;
#237 = PRODUCT_DEFINITION ( 'UNKNOWN', '', #192, #29 ) ;
#238 = CALENDAR_DATE ( 2024, 12, 8 ) ;
#239 = DIRECTION ( 'NONE',  ( -0.9999999997022959164, -2.440099081145985212E-05, -0.000000000000000000 ) ) ;
#240 = CARTESIAN_POINT ( 'NONE',  ( -56.45460952032375701, 5.278950995385496725, 0.000000000000000000 ) ) ;
#241 = DATE_TIME_ROLE ( 'creation_date' ) ;
#242 = AXIS2_PLACEMENT_3D ( 'NONE', #130, #249, #155 ) ;
#243 = LINE ( 'NONE', #306, #77 ) ;
#244 = CARTESIAN_POINT ( 'NONE',  ( -56.45456071834215095, 5.278950996576313059, 0.000000000000000000 ) ) ;
#245 = DIRECTION ( 'NONE',  ( 2.440099081146379252E-05, -0.9999999997022959164, 0.000000000000000000 ) ) ;
#246 = CALENDAR_DATE ( 2024, 12, 8 ) ;
#247 = CC_DESIGN_APPROVAL ( #195, ( #237 ) ) ;
#248 = DIRECTION ( 'NONE',  ( 0.9999999997022959164, 2.440099081145985212E-05, 0.000000000000000000 ) ) ;
#249 = DIRECTION ( 'NONE',  ( 0.000000000000000000, 0.000000000000000000, 1.000000000000000000 ) ) ;
#250 = AXIS2_PLACEMENT_3D ( 'NONE', #182, #239, #97 ) ;
#251 = CIRCLE ( 'NONE', #165, 21.20122004954056649 ) ;
#252 = ORIENTED_EDGE ( 'NONE', *, *, #331, .T. ) ;
#253 = ORIENTED_EDGE ( 'NONE', *, *, #270, .T. ) ;
#254 = ORIENTED_EDGE ( 'NONE', *, *, #74, .T. ) ;
#255 = ORIENTED_EDGE ( 'NONE', *, *, #150, .T. ) ;
#256 = ADVANCED_FACE ( 'NONE', ( #294 ), #330, .F. ) ;
#257 = CARTESIAN_POINT ( 'NONE',  ( -106.4543947916046562, 5.277730951084153688, 0.000000000000000000 ) ) ;
#258 = CC_DESIGN_APPROVAL ( #116, ( #192 ) ) ;
#259 = DIRECTION ( 'NONE',  ( -0.9999999997022959164, -2.440099081145985212E-05, -0.000000000000000000 ) ) ;
#260 = ADVANCED_FACE ( 'NONE', ( #231 ), #319, .F. ) ;
#261 = DIRECTION ( 'NONE',  ( -0.9999999997022959164, -2.440099081145985212E-05, -0.000000000000000000 ) ) ;
#262 = AXIS2_PLACEMENT_3D ( 'NONE', #114, #55, #51 ) ;
#263 = CARTESIAN_POINT ( 'NONE',  ( -108.4546094893625394, 5.277682143863678732, 0.000000000000000000 ) ) ;
#264 = ORIENTED_EDGE ( 'NONE', *, *, #224, .T. ) ;
#265 = LINE ( 'NONE', #36, #230 ) ;
#266 = ORIENTED_EDGE ( 'NONE', *, *, #224, .F. ) ;
#267 = EDGE_CURVE ( 'NONE', #344, #76, #179, .T. ) ;
#268 = AXIS2_PLACEMENT_3D ( 'NONE', #5, #184, #335 ) ;
#269 = CONICAL_SURFACE ( 'NONE', #281, 19.20000000059540568, 1.570771925804082647 ) ;
#270 = EDGE_CURVE ( 'NONE', #289, #236, #207, .T. ) ;
#271 = CARTESIAN_POINT ( 'NONE',  ( -108.4541409593777246, -13.92358670253762121, 0.000000000000000000 ) ) ;
#272 = LINE ( 'NONE', #183, #178 ) ;
#273 = COORDINATED_UNIVERSAL_TIME_OFFSET ( 1, 0, .AHEAD. ) ;
#274 = CARTESIAN_POINT ( 'NONE',  ( -56.45460952032375701, 5.278950995385496725, 0.000000000000000000 ) ) ;
#275 = CARTESIAN_POINT ( 'NONE',  ( -108.4541409593777246, -13.92358670253762121, 0.000000000000000000 ) ) ;
#276 = APPROVAL_ROLE ( '' ) ;
#277 = DIRECTION ( 'NONE',  ( -1.000000000000000000, -2.134963484213409091E-16, 2.988259529301682864E-21 ) ) ;
#278 = APPROVAL_PERSON_ORGANIZATION ( #337, #116, #276 ) ;
#279 = EDGE_LOOP ( 'NONE', ( #226, #169, #167, #137 ) ) ;
#280 = PERSON_AND_ORGANIZATION ( #219, #295 ) ;
#281 = AXIS2_PLACEMENT_3D ( 'NONE', #186, #95, #211 ) ;
#282 = EDGE_LOOP ( 'NONE', ( #177, #196, #223, #346 ) ) ;
#283 = VECTOR ( 'NONE', #84, 1000.000000000000000 ) ;
#284 = ORIENTED_EDGE ( 'NONE', *, *, #21, .T. ) ;
#285 = LOCAL_TIME ( 8, 41, 16.00000000000000000, #273 ) ;
#286 = EDGE_LOOP ( 'NONE', ( #106, #374, #366, #18 ) ) ;
#287 = PRODUCT_DEFINITION_SHAPE ( 'NONE', 'NONE',  #237 ) ;
#288 = ADVANCED_FACE ( 'NONE', ( #233 ), #103, .T. ) ;
#289 = VERTEX_POINT ( 'NONE', #22 ) ;
#290 = CARTESIAN_POINT ( 'NONE',  ( -106.4545606885717461, 5.277730947036103792, 0.000000000000000000 ) ) ;
#291 = DIRECTION ( 'NONE',  ( -0.9999999997022959164, -2.440099081145985212E-05, -0.000000000000000000 ) ) ;
#292 = APPROVAL_DATE_TIME ( #202, #128 ) ;
#293 = CARTESIAN_POINT ( 'NONE',  ( -106.4540433577961238, -15.92348909619277109, 3.012705832390722610E-15 ) ) ;
#294 = FACE_OUTER_BOUND ( 'NONE', #279, .T. ) ;
#295 = ORGANIZATION ( 'UNSPECIFIED', 'UNSPECIFIED', '' ) ;
#296 = ADVANCED_FACE ( 'NONE', ( #78 ), #61, .T. ) ;
#297 = DIRECTION ( 'NONE',  ( 0.9999999997022959164, 2.440099081145985212E-05, 0.000000000000000000 ) ) ;
#298 = ORIENTED_EDGE ( 'NONE', *, *, #162, .F. ) ;
#299 = ORIENTED_EDGE ( 'NONE', *, *, #270, .F. ) ;
#300 = EDGE_CURVE ( 'NONE', #188, #206, #28, .T. ) ;
#301 = AXIS2_PLACEMENT_3D ( 'NONE', #332, #124, #63 ) ;
#302 = AXIS2_PLACEMENT_3D ( 'NONE', #290, #140, #378 ) ;
#303 = AXIS2_PLACEMENT_3D ( 'NONE', #383, #139, #354 ) ;
#304 = LINE ( 'NONE', #152, #13 ) ;
#305 = LINE ( 'NONE', #153, #197 ) ;
#306 = CARTESIAN_POINT ( 'NONE',  ( -108.4550780193473685, 33.27773094274844112, 0.000000000000000000 ) ) ;
#307 = FACE_OUTER_BOUND ( 'NONE', #314, .T. ) ;
#308 =( NAMED_UNIT ( * ) PLANE_ANGLE_UNIT ( ) SI_UNIT ( $, .RADIAN. ) );
#309 = DIRECTION ( 'NONE',  ( 2.440099081157366285E-05, -0.9999999997022958054, 0.000000000000000000 ) ) ;
#310 = EDGE_CURVE ( 'NONE', #236, #289, #166, .T. ) ;
#311 = DIRECTION ( 'NONE',  ( -0.9999999997022959164, -2.440099081145985212E-05, -0.000000000000000000 ) ) ;
#312 = PERSON_AND_ORGANIZATION ( #219, #295 ) ;
#313 =( GEOMETRIC_REPRESENTATION_CONTEXT ( 3 ) GLOBAL_UNCERTAINTY_ASSIGNED_CONTEXT ( ( #380 ) ) GLOBAL_UNIT_ASSIGNED_CONTEXT ( ( #92, #308, #41 ) ) REPRESENTATION_CONTEXT ( 'NONE', 'WORKASPACE' ) );
#314 = EDGE_LOOP ( 'NONE', ( #16, #136, #264, #385 ) ) ;
#315 = CIRCLE ( 'NONE', #148, 21.20000000000000284 ) ;
#316 = VERTEX_POINT ( 'NONE', #85 ) ;
#317 = AXIS2_PLACEMENT_3D ( 'NONE', #190, #218, #341 ) ;
#318 = ORIENTED_EDGE ( 'NONE', *, *, #200, .F. ) ;
#319 = CONICAL_SURFACE ( 'NONE', #111, 19.20126885211760026, 2.440099081380121720E-05 ) ;
#320 = CARTESIAN_POINT ( 'NONE',  ( -108.4543947904138292, 5.277682149102544962, 0.000000000000000000 ) ) ;
#321 = CARTESIAN_POINT ( 'NONE',  ( -108.4546094893625394, 5.277682143863678732, 0.000000000000000000 ) ) ;
#322 = CALENDAR_DATE ( 2024, 12, 8 ) ;
#323 = DIRECTION ( 'NONE',  ( -0.9999999997022959164, -2.440099081145985212E-05, -0.000000000000000000 ) ) ;
#324 = CC_DESIGN_PERSON_AND_ORGANIZATION_ASSIGNMENT ( #212, #373, ( #20 ) ) ;
#325 = CARTESIAN_POINT ( 'NONE',  ( -108.4543947904138292, 5.277682149102544962, 0.000000000000000000 ) ) ;
#326 = EDGE_LOOP ( 'NONE', ( #44, #149, #213, #266 ) ) ;
#327 = ORIENTED_EDGE ( 'NONE', *, *, #227, .F. ) ;
#328 = ADVANCED_FACE ( 'NONE', ( #26 ), #62, .F. ) ;
#329 = LOCAL_TIME ( 8, 41, 16.00000000000000000, #349 ) ;
#330 = CONICAL_SURFACE ( 'NONE', #302, 21.20122004954056294, 1.570771925804083535 ) ;
#331 = EDGE_CURVE ( 'NONE', #76, #236, #175, .T. ) ;
#332 = CARTESIAN_POINT ( 'NONE',  ( -108.4543947904138292, 5.277682149102544962, 0.000000000000000000 ) ) ;
#333 = AXIS2_PLACEMENT_3D ( 'NONE', #81, #323, #54 ) ;
#334 = DIRECTION ( 'NONE',  ( -0.9999999997022959164, -2.440099081145985212E-05, -0.000000000000000000 ) ) ;
#335 = DIRECTION ( 'NONE',  ( -2.440099081157386953E-05, 0.9999999997022959164, 0.000000000000000000 ) ) ;
#336 = CARTESIAN_POINT ( 'NONE',  ( -56.45507801934735426, 24.47895099026498400, 0.000000000000000000 ) ) ;
#337 = PERSON_AND_ORGANIZATION ( #219, #295 ) ;
#338 = DIRECTION ( 'NONE',  ( 2.440099081157366285E-05, -0.9999999997022958054, 0.000000000000000000 ) ) ;
#339 = AXIS2_PLACEMENT_3D ( 'NONE', #274, #208, #365 ) ;
#340 = PERSON_AND_ORGANIZATION_ROLE ( 'creator' ) ;
#341 = DIRECTION ( 'NONE',  ( 2.440099081124635916E-05, -0.9999999997022958054, 0.000000000000000000 ) ) ;
#342 = PERSON_AND_ORGANIZATION_ROLE ( 'classification_officer' ) ;
#343 = EDGE_CURVE ( 'NONE', #234, #357, #30, .T. ) ;
#344 = VERTEX_POINT ( 'NONE', #53 ) ;
#345 = ORIENTED_EDGE ( 'NONE', *, *, #88, .T. ) ;
#346 = ORIENTED_EDGE ( 'NONE', *, *, #310, .F. ) ;
#347 = DIRECTION ( 'NONE',  ( 2.440099081157366285E-05, -0.9999999997022958054, 0.000000000000000000 ) ) ;
#348 = CONICAL_SURFACE ( 'NONE', #33, 21.20122004954056294, 1.570771925804083535 ) ;
#349 = COORDINATED_UNIVERSAL_TIME_OFFSET ( 1, 0, .AHEAD. ) ;
#350 = VECTOR ( 'NONE', #91, 1000.000000000000000 ) ;
#351 = DIRECTION ( 'NONE',  ( 2.440099081124635916E-05, -0.9999999997022958054, 0.000000000000000000 ) ) ;
#352 = DIRECTION ( 'NONE',  ( 2.440099081117304676E-05, -0.9999999997022958054, 0.000000000000000000 ) ) ;
#353 = SHAPE_DEFINITION_REPRESENTATION ( #287, #358 ) ;
#354 = DIRECTION ( 'NONE',  ( 2.440099081155032201E-05, -0.9999999997022958054, 0.000000000000000000 ) ) ;
#355 = ORIENTED_EDGE ( 'NONE', *, *, #343, .T. ) ;
#356 = EDGE_CURVE ( 'NONE', #206, #188, #143, .T. ) ;
#357 = VERTEX_POINT ( 'NONE', #293 ) ;
#358 = ADVANCED_BREP_SHAPE_REPRESENTATION ( '3D_R-159_DN32_1780132', ( #146, #242 ), #313 ) ;
#359 = EDGE_CURVE ( 'NONE', #357, #344, #204, .T. ) ;
#360 = LOCAL_TIME ( 8, 41, 16.00000000000000000, #96 ) ;
#361 = LINE ( 'NONE', #94, #235 ) ;
#362 = VECTOR ( 'NONE', #113, 1000.000000000000114 ) ;
#363 = DIRECTION ( 'NONE',  ( 2.440099081157386614E-05, -0.9999999997022959164, 0.000000000000000000 ) ) ;
#364 = APPROVAL_DATE_TIME ( #3, #195 ) ;
#365 = DIRECTION ( 'NONE',  ( 2.440099081157386614E-05, -0.9999999997022959164, 0.000000000000000000 ) ) ;
#366 = ORIENTED_EDGE ( 'NONE', *, *, #189, .T. ) ;
#367 = CARTESIAN_POINT ( 'NONE',  ( -106.4545606885717461, 5.277730947036103792, 0.000000000000000000 ) ) ;
#368 = DIRECTION ( 'NONE',  ( 4.880198160848200055E-05, -0.9999999988091832215, 1.224646798782770786E-16 ) ) ;
#369 = CARTESIAN_POINT ( 'NONE',  ( -56.45507801934735426, 26.47895099035642019, 0.000000000000000000 ) ) ;
#370 = CONICAL_SURFACE ( 'NONE', #317, 28.00000000000000000, 2.440099081366786711E-05 ) ;
#371 = ADVANCED_FACE ( 'NONE', ( #144 ), #181, .T. ) ;
#372 = PERSON_AND_ORGANIZATION_ROLE ( 'design_supplier' ) ;
#373 = PERSON_AND_ORGANIZATION_ROLE ( 'design_owner' ) ;
#374 = ORIENTED_EDGE ( 'NONE', *, *, #221, .T. ) ;
#375 = EDGE_LOOP ( 'NONE', ( #145, #87, #255, #47 ) ) ;
#376 = EDGE_CURVE ( 'NONE', #31, #234, #265, .T. ) ;
#377 = ORIENTED_EDGE ( 'NONE', *, *, #151, .F. ) ;
#378 = DIRECTION ( 'NONE',  ( -2.440099081146379929E-05, 0.9999999997022959164, 0.000000000000000000 ) ) ;
#379 = SECURITY_CLASSIFICATION ( '', '', #164 ) ;
#380 = UNCERTAINTY_MEASURE_WITH_UNIT (LENGTH_MEASURE( 1.000000000000000082E-05 ), #92, 'distance_accuracy_value', 'NONE');
#381 = CARTESIAN_POINT ( 'NONE',  ( -108.4550780193473685, 33.27773094285225852, 0.000000000000000000 ) ) ;
#382 = AXIS2_PLACEMENT_3D ( 'NONE', #257, #174, #108 ) ;
#383 = CARTESIAN_POINT ( 'NONE',  ( -108.4543947904138292, 5.277682149102544962, 0.000000000000000000 ) ) ;
#384 = DIRECTION ( 'NONE',  ( 2.440099081155032201E-05, -0.9999999997022958054, 0.000000000000000000 ) ) ;
#385 = ORIENTED_EDGE ( 'NONE', *, *, #9, .F. ) ;
#386 = CIRCLE ( 'NONE', #168, 21.20000000000000284 ) ;
#387 = EDGE_LOOP ( 'NONE', ( #68, #377, #254, #56 ) ) ;
#388 = CONICAL_SURFACE ( 'NONE', #301, 28.00004880198162738, 1.570771925804081759 ) ;
#389 = AXIS2_PLACEMENT_3D ( 'NONE', #320, #261, #384 ) ;
ENDSEC;
END-ISO-10303-21;
