ISO-10303-21;
HEADER;
FILE_DESCRIPTION (( 'STEP AP203' ),
    '1' );
FILE_NAME ('3D_R175_DN30x2_17336180.STEP',
    '2024-07-18T10:03:16',
    ( '' ),
    ( '' ),
    'SwSTEP 2.0',
    'SolidWorks 2024',
    '' );
FILE_SCHEMA (( 'CONFIG_CONTROL_DESIGN' ));
ENDSEC;

DATA;
#1 = DIRECTION ( 'NONE',  ( -0.000000000000000000, 0.000000000000000000, -1.000000000000000000 ) ) ;
#2 = DATE_TIME_ROLE ( 'creation_date' ) ;
#3 = CARTESIAN_POINT ( 'NONE',  ( 9.602712912277830010E-16, 7.966629547095926966, 0.000000000000000000 ) ) ;
#4 = APPROVAL_STATUS ( 'not_yet_approved' ) ;
#5 = TOROIDAL_SURFACE ( 'NONE', #125, 12.50000000000000000, 0.4999999999999987232 ) ;
#6 = PERSON ( 'UNSPECIFIED', 'UNSPECIFIED', 'UNSPECIFIED', ('UNSPECIFIED'), ('UNSPECIFIED'), ('UNSPECIFIED') ) ;
#7 = ORIENTED_EDGE ( 'NONE', *, *, #279, .F. ) ;
#8 = AXIS2_PLACEMENT_3D ( 'NONE', #17, #210, #136 ) ;
#9 = ORIENTED_EDGE ( 'NONE', *, *, #328, .F. ) ;
#10 = CARTESIAN_POINT ( 'NONE',  ( 15.00000000000000178, -6.895474638810515108E-17, 1.836970198721029589E-15 ) ) ;
#11 = ORIENTED_EDGE ( 'NONE', *, *, #126, .T. ) ;
#12 = EDGE_CURVE ( 'NONE', #138, #300, #117, .T. ) ;
#13 = FACE_BOUND ( 'NONE', #329, .T. ) ;
#14 = CC_DESIGN_PERSON_AND_ORGANIZATION_ASSIGNMENT ( #320, #29, ( #251 ) ) ;
#15 = CIRCLE ( 'NONE', #139, 22.00000000000000000 ) ;
#16 = DIRECTION ( 'NONE',  ( 1.000000000000000000, 0.000000000000000000, 1.224646799147353207E-16 ) ) ;
#17 = CARTESIAN_POINT ( 'NONE',  ( 2.571758278209380130E-15, -6.999999999999999112, 0.000000000000000000 ) ) ;
#18 = DIRECTION ( 'NONE',  ( -1.000000000000000000, 0.000000000000000000, 0.000000000000000000 ) ) ;
#19 = ORIENTED_EDGE ( 'NONE', *, *, #173, .T. ) ;
#20 = CIRCLE ( 'NONE', #240, 14.10256410256410220 ) ;
#21 = DIRECTION ( 'NONE',  ( 4.596983092540343816E-18, 1.000000000000000000, -0.000000000000000000 ) ) ;
#22 = DIRECTION ( 'NONE',  ( -1.000000000000000000, 0.000000000000000000, 0.000000000000000000 ) ) ;
#23 = ORIENTED_EDGE ( 'NONE', *, *, #250, .F. ) ;
#24 = AXIS2_PLACEMENT_3D ( 'NONE', #405, #305, #267 ) ;
#25 = ADVANCED_FACE ( 'NONE', ( #297 ), #171, .T. ) ;
#26 = CARTESIAN_POINT ( 'NONE',  ( 1.387778780781445676E-14, 2817.965330118411202, 0.000000000000000000 ) ) ;
#27 = EDGE_CURVE ( 'NONE', #229, #343, #409, .T. ) ;
#28 = CARTESIAN_POINT ( 'NONE',  ( 2.571758278209380130E-15, -6.999999999999999112, 0.000000000000000000 ) ) ;
#29 = PERSON_AND_ORGANIZATION_ROLE ( 'design_supplier' ) ;
#30 = VERTEX_POINT ( 'NONE', #386 ) ;
#31 = DIRECTION ( 'NONE',  ( 4.596983092540343816E-18, 1.000000000000000000, -0.000000000000000000 ) ) ;
#32 = AXIS2_PLACEMENT_3D ( 'NONE', #28, #82, #309 ) ;
#33 = ORIENTED_EDGE ( 'NONE', *, *, #371, .F. ) ;
#34 = UNCERTAINTY_MEASURE_WITH_UNIT (LENGTH_MEASURE( 1.000000000000000082E-05 ), #357, 'distance_accuracy_value', 'NONE');
#35 = DIRECTION ( 'NONE',  ( -1.000000000000000000, 0.000000000000000000, 0.000000000000000000 ) ) ;
#36 = EDGE_CURVE ( 'NONE', #30, #290, #278, .T. ) ;
#37 = DATE_AND_TIME ( #103, #356 ) ;
#38 = SECURITY_CLASSIFICATION ( '', '', #156 ) ;
#39 = CARTESIAN_POINT ( 'NONE',  ( 2.642323758189189537E-15, 8.350389279072564008, 0.000000000000000000 ) ) ;
#40 = EDGE_CURVE ( 'NONE', #170, #195, #169, .T. ) ;
#41 = DIRECTION ( 'NONE',  ( -1.000000000000000000, 0.000000000000000000, 0.000000000000000000 ) ) ;
#42 = ORIENTED_EDGE ( 'NONE', *, *, #36, .T. ) ;
#43 = AXIS2_PLACEMENT_3D ( 'NONE', #369, #168, #16 ) ;
#44 = EDGE_CURVE ( 'NONE', #93, #170, #77, .T. ) ;
#45 = AXIS2_PLACEMENT_3D ( 'NONE', #104, #73, #236 ) ;
#46 = DIRECTION ( 'NONE',  ( 4.596983092540343816E-18, 1.000000000000000000, -0.000000000000000000 ) ) ;
#47 = ORIENTED_EDGE ( 'NONE', *, *, #100, .F. ) ;
#48 = CARTESIAN_POINT ( 'NONE',  ( 2.571758278209380130E-15, -6.999999999999999112, 0.000000000000000000 ) ) ;
#49 = EDGE_LOOP ( 'NONE', ( #157, #198, #214 ) ) ;
#50 = CARTESIAN_POINT ( 'NONE',  ( 1.734723475976807094E-15, 7.966629547095765318, 0.000000000000000000 ) ) ;
#51 = CARTESIAN_POINT ( 'NONE',  ( -12.82051282051283358, 8.350389279072564008, 0.000000000000000000 ) ) ;
#52 = APPLICATION_CONTEXT ( 'configuration controlled 3d designs of mechanical parts and assemblies' ) ;
#53 = DIRECTION ( 'NONE',  ( 4.596983092540343816E-18, 1.000000000000000000, -0.000000000000000000 ) ) ;
#54 = MANIFOLD_SOLID_BREP ( 'Wandung1', #96 ) ;
#55 = CIRCLE ( 'NONE', #147, 0.4999999999999987232 ) ;
#56 = DIRECTION ( 'NONE',  ( 4.596983092540343816E-18, 1.000000000000000000, -0.000000000000000000 ) ) ;
#57 = ORIENTED_EDGE ( 'NONE', *, *, #142, .F. ) ;
#58 = APPROVAL ( #317, 'UNSPECIFIED' ) ;
#59 = CC_DESIGN_PERSON_AND_ORGANIZATION_ASSIGNMENT ( #94, #105, ( #38 ) ) ;
#60 = DIRECTION ( 'NONE',  ( -1.000000000000000000, 4.596983092540343046E-18, 0.000000000000000000 ) ) ;
#61 = CIRCLE ( 'NONE', #230, 2.499999999999998668 ) ;
#62 = DIRECTION ( 'NONE',  ( 4.596983092540343816E-18, 1.000000000000000000, -0.000000000000000000 ) ) ;
#63 = SHAPE_DEFINITION_REPRESENTATION ( #260, #134 ) ;
#64 = ORIENTED_EDGE ( 'NONE', *, *, #173, .F. ) ;
#65 = CYLINDRICAL_SURFACE ( 'NONE', #175, 15.00000000000000000 ) ;
#66 = DIRECTION ( 'NONE',  ( 1.000000000000000000, 0.000000000000000000, 0.000000000000000000 ) ) ;
#67 = DIRECTION ( 'NONE',  ( 4.596983092540343816E-18, 1.000000000000000000, -0.000000000000000000 ) ) ;
#68 = AXIS2_PLACEMENT_3D ( 'NONE', #3, #113, #110 ) ;
#69 = CARTESIAN_POINT ( 'NONE',  ( 9.236488298952508525E-16, 0.000000000000000000, 0.000000000000000000 ) ) ;
#70 = APPROVAL_PERSON_ORGANIZATION ( #234, #118, #259 ) ;
#71 = APPROVAL_STATUS ( 'not_yet_approved' ) ;
#72 = ORIENTED_EDGE ( 'NONE', *, *, #27, .T. ) ;
#73 = DIRECTION ( 'NONE',  ( 4.596983092540343816E-18, 1.000000000000000000, -0.000000000000000000 ) ) ;
#74 = DIRECTION ( 'NONE',  ( -0.000000000000000000, 0.000000000000000000, -1.000000000000000000 ) ) ;
#75 = FACE_OUTER_BOUND ( 'NONE', #270, .T. ) ;
#76 = TOROIDAL_SURFACE ( 'NONE', #315, 12.50000000000000000, 2.499999999999998668 ) ;
#77 = LINE ( 'NONE', #245, #130 ) ;
#78 = ORIENTED_EDGE ( 'NONE', *, *, #381, .F. ) ;
#79 = LOCAL_TIME ( 12, 3, 16.00000000000000000, #349 ) ;
#80 = FACE_OUTER_BOUND ( 'NONE', #246, .T. ) ;
#81 = APPLICATION_CONTEXT ( 'configuration controlled 3d designs of mechanical parts and assemblies' ) ;
#82 = DIRECTION ( 'NONE',  ( 0.000000000000000000, 0.000000000000000000, 1.000000000000000000 ) ) ;
#83 = CARTESIAN_POINT ( 'NONE',  ( 13.00000000000000178, 7.966629547095798181, 1.592040838891559095E-15 ) ) ;
#84 = AXIS2_PLACEMENT_3D ( 'NONE', #164, #287, #66 ) ;
#85 = CC_DESIGN_PERSON_AND_ORGANIZATION_ASSIGNMENT ( #191, #388, ( #251 ) ) ;
#86 = CIRCLE ( 'NONE', #109, 14.10256410256410220 ) ;
#87 = CARTESIAN_POINT ( 'NONE',  ( 1.387778780781445676E-14, 2817.965330118411202, 0.000000000000000000 ) ) ;
#88 = DATE_TIME_ROLE ( 'classification_date' ) ;
#89 = CYLINDRICAL_SURFACE ( 'NONE', #310, 15.00000000000000000 ) ;
#90 = DIRECTION ( 'NONE',  ( 4.596983092540343816E-18, 1.000000000000000000, -0.000000000000000000 ) ) ;
#91 = ORIENTED_EDGE ( 'NONE', *, *, #359, .F. ) ;
#92 = ORIENTED_EDGE ( 'NONE', *, *, #27, .F. ) ;
#93 = VERTEX_POINT ( 'NONE', #10 ) ;
#94 = PERSON_AND_ORGANIZATION ( #6, #107 ) ;
#95 = AXIS2_PLACEMENT_3D ( 'NONE', #213, #366, #341 ) ;
#96 = CLOSED_SHELL ( 'NONE', ( #98, #239, #358, #144, #219, #402, #160, #325, #25, #311, #306, #242, #111 ) ) ;
#97 = APPLICATION_PROTOCOL_DEFINITION ( 'international standard', 'config_control_design', 1994, #52 ) ;
#98 = ADVANCED_FACE ( 'NONE', ( #243 ), #212, .F. ) ;
#99 = ORIENTED_EDGE ( 'NONE', *, *, #253, .F. ) ;
#100 = EDGE_CURVE ( 'NONE', #133, #195, #376, .T. ) ;
#101 = DATE_AND_TIME ( #192, #215 ) ;
#102 = EDGE_LOOP ( 'NONE', ( #57, #364, #211, #23 ) ) ;
#103 = CALENDAR_DATE ( 2024, 18, 7 ) ;
#104 = CARTESIAN_POINT ( 'NONE',  ( 1.734723475976807094E-15, 7.966629547095765318, 0.000000000000000000 ) ) ;
#105 = PERSON_AND_ORGANIZATION_ROLE ( 'classification_officer' ) ;
#106 = CARTESIAN_POINT ( 'NONE',  ( -14.99999999999998579, 2817.965330118411202, 0.000000000000000000 ) ) ;
#107 = ORGANIZATION ( 'UNSPECIFIED', 'UNSPECIFIED', '' ) ;
#108 = DIRECTION ( 'NONE',  ( -1.000000000000000000, 0.000000000000000000, 0.000000000000000000 ) ) ;
#109 = AXIS2_PLACEMENT_3D ( 'NONE', #408, #53, #189 ) ;
#110 = DIRECTION ( 'NONE',  ( -1.000000000000000000, 0.000000000000000000, 0.000000000000000000 ) ) ;
#111 = ADVANCED_FACE ( 'NONE', ( #137 ), #166, .F. ) ;
#112 = CARTESIAN_POINT ( 'NONE',  ( 12.82051282051284069, 8.350389279072564008, 1.581050418899212298E-15 ) ) ;
#113 = DIRECTION ( 'NONE',  ( 4.596983092540343816E-18, 1.000000000000000000, -0.000000000000000000 ) ) ;
#114 = DIRECTION ( 'NONE',  ( 4.596983092540343816E-18, 1.000000000000000000, -0.000000000000000000 ) ) ;
#115 = CIRCLE ( 'NONE', #149, 15.00000000000000000 ) ;
#116 = DIRECTION ( 'NONE',  ( -1.000000000000000000, 0.000000000000000000, 0.000000000000000000 ) ) ;
#117 = CIRCLE ( 'NONE', #151, 12.82051282051283714 ) ;
#118 = APPROVAL ( #4, 'UNSPECIFIED' ) ;
#119 = CARTESIAN_POINT ( 'NONE',  ( 9.236488298952508525E-16, 0.000000000000000000, 0.000000000000000000 ) ) ;
#120 = CIRCLE ( 'NONE', #161, 15.00000000000000000 ) ;
#121 = ORIENTED_EDGE ( 'NONE', *, *, #263, .T. ) ;
#122 = DIRECTION ( 'NONE',  ( 4.596983092540343816E-18, 1.000000000000000000, -0.000000000000000000 ) ) ;
#123 = DIRECTION ( 'NONE',  ( -1.000000000000000000, 0.000000000000000000, 0.000000000000000000 ) ) ;
#124 = EDGE_LOOP ( 'NONE', ( #33, #11, #127, #143 ) ) ;
#125 = AXIS2_PLACEMENT_3D ( 'NONE', #153, #62, #377 ) ;
#126 = EDGE_CURVE ( 'NONE', #343, #290, #395, .T. ) ;
#127 = ORIENTED_EDGE ( 'NONE', *, *, #400, .T. ) ;
#128 = APPLICATION_PROTOCOL_DEFINITION ( 'international standard', 'config_control_design', 1994, #81 ) ;
#129 = EDGE_LOOP ( 'NONE', ( #334, #340, #298, #321 ) ) ;
#130 = VECTOR ( 'NONE', #145, 1000.000000000000000 ) ;
#131 = CC_DESIGN_PERSON_AND_ORGANIZATION_ASSIGNMENT ( #285, #322, ( #295 ) ) ;
#132 = DESIGN_CONTEXT ( 'detailed design', #52, 'design' ) ;
#133 = VERTEX_POINT ( 'NONE', #176 ) ;
#134 = ADVANCED_BREP_SHAPE_REPRESENTATION ( '3D_R175_DN30x2_17336180', ( #54, #84 ), #196 ) ;
#135 = CARTESIAN_POINT ( 'NONE',  ( 9.236488298952508525E-16, 0.000000000000000000, 0.000000000000000000 ) ) ;
#136 = DIRECTION ( 'NONE',  ( -1.000000000000000000, 0.000000000000000000, 0.000000000000000000 ) ) ;
#137 = FACE_OUTER_BOUND ( 'NONE', #368, .T. ) ;
#138 = VERTEX_POINT ( 'NONE', #112 ) ;
#139 = AXIS2_PLACEMENT_3D ( 'NONE', #256, #384, #18 ) ;
#140 = CARTESIAN_POINT ( 'NONE',  ( 1.439051140912834120E-15, 12.99999999999999822, 0.000000000000000000 ) ) ;
#141 = TOROIDAL_SURFACE ( 'NONE', #326, 12.50000000000000000, 0.4999999999999987232 ) ;
#142 = EDGE_CURVE ( 'NONE', #170, #396, #61, .T. ) ;
#143 = ORIENTED_EDGE ( 'NONE', *, *, #337, .F. ) ;
#144 = ADVANCED_FACE ( 'NONE', ( #274 ), #397, .T. ) ;
#145 = DIRECTION ( 'NONE',  ( 4.596983092540343816E-18, 1.000000000000000000, -0.000000000000000000 ) ) ;
#146 = CARTESIAN_POINT ( 'NONE',  ( 9.236488298952508525E-16, 0.000000000000000000, 0.000000000000000000 ) ) ;
#147 = AXIS2_PLACEMENT_3D ( 'NONE', #182, #378, #185 ) ;
#148 = ORIENTED_EDGE ( 'NONE', *, *, #177, .T. ) ;
#149 = AXIS2_PLACEMENT_3D ( 'NONE', #237, #333, #241 ) ;
#150 = LINE ( 'NONE', #223, #367 ) ;
#151 = AXIS2_PLACEMENT_3D ( 'NONE', #39, #393, #363 ) ;
#152 = CALENDAR_DATE ( 2024, 18, 7 ) ;
#153 = CARTESIAN_POINT ( 'NONE',  ( 1.734723475976807094E-15, 7.966629547095765318, 0.000000000000000000 ) ) ;
#154 = CC_DESIGN_APPROVAL ( #58, ( #38 ) ) ;
#155 = FACE_OUTER_BOUND ( 'NONE', #286, .T. ) ;
#156 = SECURITY_CLASSIFICATION_LEVEL ( 'unclassified' ) ;
#157 = ORIENTED_EDGE ( 'NONE', *, *, #209, .F. ) ;
#158 = CALENDAR_DATE ( 2024, 18, 7 ) ;
#159 = PRODUCT ( '3D_R175_DN30x2_17336180', '3D_R175_DN30x2_17336180', '', ( #231 ) ) ;
#160 = ADVANCED_FACE ( 'NONE', ( #13, #80 ), #206, .T. ) ;
#161 = AXIS2_PLACEMENT_3D ( 'NONE', #69, #327, #392 ) ;
#162 = DIRECTION ( 'NONE',  ( 4.596983092540343816E-18, 1.000000000000000000, -0.000000000000000000 ) ) ;
#163 = EDGE_CURVE ( 'NONE', #195, #294, #187, .T. ) ;
#164 = CARTESIAN_POINT ( 'NONE',  ( 0.000000000000000000, 0.000000000000000000, 0.000000000000000000 ) ) ;
#165 = ORIENTED_EDGE ( 'NONE', *, *, #44, .F. ) ;
#166 = SPHERICAL_SURFACE ( 'NONE', #8, 19.99999999999999645 ) ;
#167 = ORIENTED_EDGE ( 'NONE', *, *, #221, .F. ) ;
#168 = DIRECTION ( 'NONE',  ( -1.224646799147353207E-16, 5.629680630014033300E-34, 1.000000000000000000 ) ) ;
#169 = CIRCLE ( 'NONE', #68, 15.00000000000000000 ) ;
#170 = VERTEX_POINT ( 'NONE', #303 ) ;
#171 = TOROIDAL_SURFACE ( 'NONE', #45, 12.50000000000000000, 2.499999999999998668 ) ;
#172 = CARTESIAN_POINT ( 'NONE',  ( 12.50000000000000178, 7.966629547095765318, 1.530808498934191521E-15 ) ) ;
#173 = EDGE_CURVE ( 'NONE', #138, #217, #335, .T. ) ;
#174 = ORIENTED_EDGE ( 'NONE', *, *, #337, .T. ) ;
#175 = AXIS2_PLACEMENT_3D ( 'NONE', #194, #162, #257 ) ;
#176 = CARTESIAN_POINT ( 'NONE',  ( -14.99999999999999822, 6.895474638810515108E-17, 0.000000000000000000 ) ) ;
#177 = EDGE_CURVE ( 'NONE', #195, #170, #115, .T. ) ;
#178 = CARTESIAN_POINT ( 'NONE',  ( 12.50000000000000178, 7.966629547095765318, 1.530808498934191521E-15 ) ) ;
#179 = DIRECTION ( 'NONE',  ( 4.596983092540343816E-18, 1.000000000000000000, -0.000000000000000000 ) ) ;
#180 = PRODUCT_RELATED_PRODUCT_CATEGORY ( 'detail', '', ( #159 ) ) ;
#181 = AXIS2_PLACEMENT_3D ( 'NONE', #26, #90, #283 ) ;
#182 = CARTESIAN_POINT ( 'NONE',  ( -12.49999999999999822, 7.966629547095765318, 0.000000000000000000 ) ) ;
#183 = EDGE_LOOP ( 'NONE', ( #167, #227, #387, #238 ) ) ;
#184 = AXIS2_PLACEMENT_3D ( 'NONE', #252, #114, #22 ) ;
#185 = DIRECTION ( 'NONE',  ( -1.000000000000000000, 0.000000000000000000, 0.000000000000000000 ) ) ;
#186 = ORIENTED_EDGE ( 'NONE', *, *, #381, .T. ) ;
#187 = CIRCLE ( 'NONE', #301, 2.499999999999998668 ) ;
#188 = CYLINDRICAL_SURFACE ( 'NONE', #288, 13.00000000000000000 ) ;
#189 = DIRECTION ( 'NONE',  ( -1.000000000000000000, 0.000000000000000000, 0.000000000000000000 ) ) ;
#190 = ORIENTED_EDGE ( 'NONE', *, *, #100, .T. ) ;
#191 = PERSON_AND_ORGANIZATION ( #6, #107 ) ;
#192 = CALENDAR_DATE ( 2024, 18, 7 ) ;
#193 = APPROVAL ( #71, 'UNSPECIFIED' ) ;
#194 = CARTESIAN_POINT ( 'NONE',  ( 1.387778780781445676E-14, 2817.965330118411202, 0.000000000000000000 ) ) ;
#195 = VERTEX_POINT ( 'NONE', #401 ) ;
#196 =( GEOMETRIC_REPRESENTATION_CONTEXT ( 3 ) GLOBAL_UNCERTAINTY_ASSIGNED_CONTEXT ( ( #34 ) ) GLOBAL_UNIT_ASSIGNED_CONTEXT ( ( #357, #289, #362 ) ) REPRESENTATION_CONTEXT ( 'NONE', 'WORKASPACE' ) );
#197 = APPROVAL_DATE_TIME ( #101, #193 ) ;
#198 = ORIENTED_EDGE ( 'NONE', *, *, #250, .T. ) ;
#199 = ORIENTED_EDGE ( 'NONE', *, *, #44, .T. ) ;
#200 = ORIENTED_EDGE ( 'NONE', *, *, #12, .F. ) ;
#201 = CARTESIAN_POINT ( 'NONE',  ( 1.734723475976807094E-15, 7.966629547095798181, 0.000000000000000000 ) ) ;
#202 = ORIENTED_EDGE ( 'NONE', *, *, #371, .T. ) ;
#203 = AXIS2_PLACEMENT_3D ( 'NONE', #178, #307, #336 ) ;
#204 = DIRECTION ( 'NONE',  ( 0.000000000000000000, 0.000000000000000000, 1.000000000000000000 ) ) ;
#205 = EDGE_LOOP ( 'NONE', ( #200, #19, #9 ) ) ;
#206 = PLANE ( 'NONE',  #95 ) ;
#207 = VECTOR ( 'NONE', #247, 1000.000000000000000 ) ;
#208 = ORIENTED_EDGE ( 'NONE', *, *, #209, .T. ) ;
#209 = EDGE_CURVE ( 'NONE', #396, #373, #355, .T. ) ;
#210 = DIRECTION ( 'NONE',  ( 0.000000000000000000, 0.000000000000000000, 1.000000000000000000 ) ) ;
#211 = ORIENTED_EDGE ( 'NONE', *, *, #163, .T. ) ;
#212 = SPHERICAL_SURFACE ( 'NONE', #389, 19.99999999999999645 ) ;
#213 = CARTESIAN_POINT ( 'NONE',  ( -1.584919016482633683E-34, -3.447737319405257554E-17, 0.000000000000000000 ) ) ;
#214 = ORIENTED_EDGE ( 'NONE', *, *, #359, .T. ) ;
#215 = LOCAL_TIME ( 12, 3, 16.00000000000000000, #391 ) ;
#216 = FACE_OUTER_BOUND ( 'NONE', #49, .T. ) ;
#217 = VERTEX_POINT ( 'NONE', #140 ) ;
#218 = AXIS2_PLACEMENT_3D ( 'NONE', #119, #249, #60 ) ;
#219 = ADVANCED_FACE ( 'NONE', ( #75 ), #76, .T. ) ;
#220 = FACE_OUTER_BOUND ( 'NONE', #124, .T. ) ;
#221 = EDGE_CURVE ( 'NONE', #290, #138, #385, .T. ) ;
#222 = PERSON_AND_ORGANIZATION ( #6, #107 ) ;
#223 = CARTESIAN_POINT ( 'NONE',  ( -12.99999999999998579, 2817.965330118411202, 0.000000000000000000 ) ) ;
#224 = DATE_AND_TIME ( #383, #79 ) ;
#225 = CARTESIAN_POINT ( 'NONE',  ( 1.734723475976807094E-15, 7.966629547095765318, 0.000000000000000000 ) ) ;
#226 = APPROVAL_PERSON_ORGANIZATION ( #222, #58, #319 ) ;
#227 = ORIENTED_EDGE ( 'NONE', *, *, #36, .F. ) ;
#228 = PERSON_AND_ORGANIZATION_ROLE ( 'design_owner' ) ;
#229 = VERTEX_POINT ( 'NONE', #342 ) ;
#230 = AXIS2_PLACEMENT_3D ( 'NONE', #172, #275, #302 ) ;
#231 = MECHANICAL_CONTEXT ( 'NONE', #81, 'mechanical' ) ;
#232 = PERSON_AND_ORGANIZATION ( #6, #107 ) ;
#233 = EDGE_LOOP ( 'NONE', ( #186, #199, #264, #47 ) ) ;
#234 = PERSON_AND_ORGANIZATION ( #6, #107 ) ;
#235 = ORIENTED_EDGE ( 'NONE', *, *, #142, .T. ) ;
#236 = DIRECTION ( 'NONE',  ( -1.000000000000000000, 4.596983092540343816E-18, 0.000000000000000000 ) ) ;
#237 = CARTESIAN_POINT ( 'NONE',  ( 9.602712912277830010E-16, 7.966629547095926966, 0.000000000000000000 ) ) ;
#238 = ORIENTED_EDGE ( 'NONE', *, *, #253, .T. ) ;
#239 = ADVANCED_FACE ( 'NONE', ( #345 ), #5, .F. ) ;
#240 = AXIS2_PLACEMENT_3D ( 'NONE', #255, #410, #116 ) ;
#241 = DIRECTION ( 'NONE',  ( -1.000000000000000000, 0.000000000000000000, 0.000000000000000000 ) ) ;
#242 = ADVANCED_FACE ( 'NONE', ( #282 ), #141, .F. ) ;
#243 = FACE_OUTER_BOUND ( 'NONE', #205, .T. ) ;
#244 = AXIS2_PLACEMENT_3D ( 'NONE', #135, #365, #354 ) ;
#245 = CARTESIAN_POINT ( 'NONE',  ( 15.00000000000001421, 2817.965330118411202, 1.836970198721029589E-15 ) ) ;
#246 = EDGE_LOOP ( 'NONE', ( #78, #7 ) ) ;
#247 = DIRECTION ( 'NONE',  ( 4.596983092540343816E-18, 1.000000000000000000, -0.000000000000000000 ) ) ;
#248 = DIRECTION ( 'NONE',  ( -1.000000000000000000, 4.596983092540343816E-18, 0.000000000000000000 ) ) ;
#249 = DIRECTION ( 'NONE',  ( 4.596983092540343816E-18, 1.000000000000000000, -0.000000000000000000 ) ) ;
#250 = EDGE_CURVE ( 'NONE', #396, #294, #20, .T. ) ;
#251 = PRODUCT_DEFINITION_FORMATION_WITH_SPECIFIED_SOURCE ( 'ANY', '', #159, .NOT_KNOWN. ) ;
#252 = CARTESIAN_POINT ( 'NONE',  ( 2.642323758189189537E-15, 8.350389279072564008, 0.000000000000000000 ) ) ;
#253 = EDGE_CURVE ( 'NONE', #300, #138, #258, .T. ) ;
#254 = DATE_AND_TIME ( #152, #339 ) ;
#255 = CARTESIAN_POINT ( 'NONE',  ( 9.690919762252589304E-16, 9.885428206979796073, 0.000000000000000000 ) ) ;
#256 = CARTESIAN_POINT ( 'NONE',  ( 2.571758278209380130E-15, -6.999999999999999112, 0.000000000000000000 ) ) ;
#257 = DIRECTION ( 'NONE',  ( -1.000000000000000000, 0.000000000000000000, 0.000000000000000000 ) ) ;
#258 = CIRCLE ( 'NONE', #184, 12.82051282051283714 ) ;
#259 = APPROVAL_ROLE ( '' ) ;
#260 = PRODUCT_DEFINITION_SHAPE ( 'NONE', 'NONE',  #295 ) ;
#261 = AXIS2_PLACEMENT_3D ( 'NONE', #48, #204, #108 ) ;
#262 = PERSON_AND_ORGANIZATION ( #6, #107 ) ;
#263 = EDGE_CURVE ( 'NONE', #294, #396, #86, .T. ) ;
#264 = ORIENTED_EDGE ( 'NONE', *, *, #177, .F. ) ;
#265 = APPROVAL_ROLE ( '' ) ;
#266 = COORDINATED_UNIVERSAL_TIME_OFFSET ( 1, 0, .AHEAD. ) ;
#267 = DIRECTION ( 'NONE',  ( 1.000000000000000000, 0.000000000000000000, 1.224646799147353207E-16 ) ) ;
#268 = CARTESIAN_POINT ( 'NONE',  ( -12.49999999999999822, 7.966629547095765318, 0.000000000000000000 ) ) ;
#269 = CIRCLE ( 'NONE', #361, 13.00000000000000000 ) ;
#270 = EDGE_LOOP ( 'NONE', ( #148, #235, #346, #314 ) ) ;
#271 = CIRCLE ( 'NONE', #347, 19.99999999999999645 ) ;
#272 = DIRECTION ( 'NONE',  ( -1.000000000000000000, 0.000000000000000000, 0.000000000000000000 ) ) ;
#273 = EDGE_LOOP ( 'NONE', ( #121, #208, #91 ) ) ;
#274 = FACE_OUTER_BOUND ( 'NONE', #273, .T. ) ;
#275 = DIRECTION ( 'NONE',  ( -1.224646799147353207E-16, 5.629680630014033300E-34, 1.000000000000000000 ) ) ;
#276 = CARTESIAN_POINT ( 'NONE',  ( 2.571758278209380130E-15, -6.999999999999999112, 0.000000000000000000 ) ) ;
#277 = DIRECTION ( 'NONE',  ( 1.000000000000000000, -4.596983092540343046E-18, 0.000000000000000000 ) ) ;
#278 = CIRCLE ( 'NONE', #292, 13.00000000000000000 ) ;
#279 = EDGE_CURVE ( 'NONE', #93, #133, #399, .T. ) ;
#280 = CARTESIAN_POINT ( 'NONE',  ( 1.387778780781445676E-14, 2817.965330118411202, 0.000000000000000000 ) ) ;
#281 = CC_DESIGN_DATE_AND_TIME_ASSIGNMENT ( #254, #88, ( #38 ) ) ;
#282 = FACE_OUTER_BOUND ( 'NONE', #183, .T. ) ;
#283 = DIRECTION ( 'NONE',  ( -1.000000000000000000, 0.000000000000000000, 0.000000000000000000 ) ) ;
#284 = ORIENTED_EDGE ( 'NONE', *, *, #126, .F. ) ;
#285 = PERSON_AND_ORGANIZATION ( #6, #107 ) ;
#286 = EDGE_LOOP ( 'NONE', ( #165, #403, #190, #332 ) ) ;
#287 = DIRECTION ( 'NONE',  ( 0.000000000000000000, 0.000000000000000000, 1.000000000000000000 ) ) ;
#288 = AXIS2_PLACEMENT_3D ( 'NONE', #280, #308, #380 ) ;
#289 =( NAMED_UNIT ( * ) PLANE_ANGLE_UNIT ( ) SI_UNIT ( $, .RADIAN. ) );
#290 = VERTEX_POINT ( 'NONE', #83 ) ;
#291 = EDGE_CURVE ( 'NONE', #30, #300, #55, .T. ) ;
#292 = AXIS2_PLACEMENT_3D ( 'NONE', #201, #67, #331 ) ;
#293 = DATE_AND_TIME ( #158, #379 ) ;
#294 = VERTEX_POINT ( 'NONE', #382 ) ;
#295 = PRODUCT_DEFINITION ( 'UNKNOWN', '', #251, #132 ) ;
#296 = CC_DESIGN_SECURITY_CLASSIFICATION ( #38, ( #251 ) ) ;
#297 = FACE_OUTER_BOUND ( 'NONE', #102, .T. ) ;
#298 = ORIENTED_EDGE ( 'NONE', *, *, #12, .T. ) ;
#299 = DIRECTION ( 'NONE',  ( 4.596983092540343816E-18, 1.000000000000000000, -0.000000000000000000 ) ) ;
#300 = VERTEX_POINT ( 'NONE', #51 ) ;
#301 = AXIS2_PLACEMENT_3D ( 'NONE', #268, #74, #41 ) ;
#302 = DIRECTION ( 'NONE',  ( 1.000000000000000000, 0.000000000000000000, 1.224646799147352714E-16 ) ) ;
#303 = CARTESIAN_POINT ( 'NONE',  ( 15.00000000000000178, 7.966629547095926966, 1.836970198721029589E-15 ) ) ;
#304 = CIRCLE ( 'NONE', #398, 13.00000000000000000 ) ;
#305 = DIRECTION ( 'NONE',  ( -1.224646799147353207E-16, 5.629680630014033300E-34, 1.000000000000000000 ) ) ;
#306 = ADVANCED_FACE ( 'NONE', ( #318 ), #188, .F. ) ;
#307 = DIRECTION ( 'NONE',  ( -1.224646799147353207E-16, 5.629680630014033300E-34, 1.000000000000000000 ) ) ;
#308 = DIRECTION ( 'NONE',  ( 4.596983092540343816E-18, 1.000000000000000000, -0.000000000000000000 ) ) ;
#309 = DIRECTION ( 'NONE',  ( -1.000000000000000000, 0.000000000000000000, 0.000000000000000000 ) ) ;
#310 = AXIS2_PLACEMENT_3D ( 'NONE', #87, #56, #316 ) ;
#311 = ADVANCED_FACE ( 'NONE', ( #216 ), #411, .T. ) ;
#312 = CC_DESIGN_DATE_AND_TIME_ASSIGNMENT ( #293, #2, ( #295 ) ) ;
#313 = CARTESIAN_POINT ( 'NONE',  ( 13.00000000000000178, -5.976078020302446345E-17, 1.592040838891559095E-15 ) ) ;
#314 = ORIENTED_EDGE ( 'NONE', *, *, #163, .F. ) ;
#315 = AXIS2_PLACEMENT_3D ( 'NONE', #50, #46, #404 ) ;
#316 = DIRECTION ( 'NONE',  ( -1.000000000000000000, 0.000000000000000000, 0.000000000000000000 ) ) ;
#317 = APPROVAL_STATUS ( 'not_yet_approved' ) ;
#318 = FACE_OUTER_BOUND ( 'NONE', #353, .T. ) ;
#319 = APPROVAL_ROLE ( '' ) ;
#320 = PERSON_AND_ORGANIZATION ( #6, #107 ) ;
#321 = ORIENTED_EDGE ( 'NONE', *, *, #291, .F. ) ;
#322 = PERSON_AND_ORGANIZATION_ROLE ( 'creator' ) ;
#323 = CARTESIAN_POINT ( 'NONE',  ( 14.10256410256410398, 9.885428206979796073, 1.782018098759289094E-15 ) ) ;
#324 = CC_DESIGN_APPROVAL ( #193, ( #295 ) ) ;
#325 = ADVANCED_FACE ( 'NONE', ( #155 ), #89, .T. ) ;
#326 = AXIS2_PLACEMENT_3D ( 'NONE', #225, #122, #248 ) ;
#327 = DIRECTION ( 'NONE',  ( 4.596983092540343816E-18, 1.000000000000000000, -0.000000000000000000 ) ) ;
#328 = EDGE_CURVE ( 'NONE', #300, #217, #271, .T. ) ;
#329 = EDGE_LOOP ( 'NONE', ( #72, #202 ) ) ;
#330 = COORDINATED_UNIVERSAL_TIME_OFFSET ( 1, 0, .AHEAD. ) ;
#331 = DIRECTION ( 'NONE',  ( -1.000000000000000000, 0.000000000000000000, 0.000000000000000000 ) ) ;
#332 = ORIENTED_EDGE ( 'NONE', *, *, #40, .F. ) ;
#333 = DIRECTION ( 'NONE',  ( 4.596983092540343816E-18, 1.000000000000000000, -0.000000000000000000 ) ) ;
#334 = ORIENTED_EDGE ( 'NONE', *, *, #400, .F. ) ;
#335 = CIRCLE ( 'NONE', #24, 19.99999999999999645 ) ;
#336 = DIRECTION ( 'NONE',  ( 1.000000000000000000, 0.000000000000000000, 1.224646799147353700E-16 ) ) ;
#337 = EDGE_CURVE ( 'NONE', #229, #30, #150, .T. ) ;
#338 = CARTESIAN_POINT ( 'NONE',  ( 13.00000000000001243, 2817.965330118411202, 1.592040838891559095E-15 ) ) ;
#339 = LOCAL_TIME ( 12, 3, 16.00000000000000000, #352 ) ;
#340 = ORIENTED_EDGE ( 'NONE', *, *, #221, .T. ) ;
#341 = DIRECTION ( 'NONE',  ( 1.000000000000000000, -4.596983092540343816E-18, 0.000000000000000000 ) ) ;
#342 = CARTESIAN_POINT ( 'NONE',  ( -12.99999999999999822, 5.976078020302446345E-17, 0.000000000000000000 ) ) ;
#343 = VERTEX_POINT ( 'NONE', #313 ) ;
#344 = APPROVAL_PERSON_ORGANIZATION ( #232, #193, #265 ) ;
#345 = FACE_OUTER_BOUND ( 'NONE', #129, .T. ) ;
#346 = ORIENTED_EDGE ( 'NONE', *, *, #263, .F. ) ;
#347 = AXIS2_PLACEMENT_3D ( 'NONE', #276, #1, #123 ) ;
#348 = CYLINDRICAL_SURFACE ( 'NONE', #181, 13.00000000000000000 ) ;
#349 = COORDINATED_UNIVERSAL_TIME_OFFSET ( 1, 0, .AHEAD. ) ;
#350 = APPROVAL_DATE_TIME ( #224, #58 ) ;
#351 = APPROVAL_DATE_TIME ( #37, #118 ) ;
#352 = COORDINATED_UNIVERSAL_TIME_OFFSET ( 1, 0, .AHEAD. ) ;
#353 = EDGE_LOOP ( 'NONE', ( #284, #92, #174, #42 ) ) ;
#354 = DIRECTION ( 'NONE',  ( 1.000000000000000000, -4.596983092540343046E-18, 0.000000000000000000 ) ) ;
#355 = CIRCLE ( 'NONE', #43, 22.00000000000000000 ) ;
#356 = LOCAL_TIME ( 12, 3, 16.00000000000000000, #330 ) ;
#357 =( LENGTH_UNIT ( ) NAMED_UNIT ( * ) SI_UNIT ( .MILLI., .METRE. ) );
#358 = ADVANCED_FACE ( 'NONE', ( #220 ), #348, .F. ) ;
#359 = EDGE_CURVE ( 'NONE', #294, #373, #15, .T. ) ;
#360 = FACE_OUTER_BOUND ( 'NONE', #233, .T. ) ;
#361 = AXIS2_PLACEMENT_3D ( 'NONE', #390, #31, #35 ) ;
#362 =( NAMED_UNIT ( * ) SI_UNIT ( $, .STERADIAN. ) SOLID_ANGLE_UNIT ( ) );
#363 = DIRECTION ( 'NONE',  ( -1.000000000000000000, 0.000000000000000000, 0.000000000000000000 ) ) ;
#364 = ORIENTED_EDGE ( 'NONE', *, *, #40, .T. ) ;
#365 = DIRECTION ( 'NONE',  ( 4.596983092540343816E-18, 1.000000000000000000, -0.000000000000000000 ) ) ;
#366 = DIRECTION ( 'NONE',  ( -4.596983092540343816E-18, -1.000000000000000000, 0.000000000000000000 ) ) ;
#367 = VECTOR ( 'NONE', #179, 1000.000000000000000 ) ;
#368 = EDGE_LOOP ( 'NONE', ( #64, #99, #394 ) ) ;
#369 = CARTESIAN_POINT ( 'NONE',  ( 2.571758278209380130E-15, -6.999999999999999112, 0.000000000000000000 ) ) ;
#370 = VECTOR ( 'NONE', #299, 1000.000000000000000 ) ;
#371 = EDGE_CURVE ( 'NONE', #343, #229, #304, .T. ) ;
#372 = DIRECTION ( 'NONE',  ( 0.000000000000000000, 0.000000000000000000, 1.000000000000000000 ) ) ;
#373 = VERTEX_POINT ( 'NONE', #407 ) ;
#374 = CC_DESIGN_PERSON_AND_ORGANIZATION_ASSIGNMENT ( #262, #228, ( #159 ) ) ;
#375 = CARTESIAN_POINT ( 'NONE',  ( 2.571758278209380130E-15, -6.999999999999999112, 0.000000000000000000 ) ) ;
#376 = LINE ( 'NONE', #106, #207 ) ;
#377 = DIRECTION ( 'NONE',  ( -1.000000000000000000, 4.596983092540343816E-18, 0.000000000000000000 ) ) ;
#378 = DIRECTION ( 'NONE',  ( -0.000000000000000000, 0.000000000000000000, -1.000000000000000000 ) ) ;
#379 = LOCAL_TIME ( 12, 3, 16.00000000000000000, #266 ) ;
#380 = DIRECTION ( 'NONE',  ( -1.000000000000000000, 0.000000000000000000, 0.000000000000000000 ) ) ;
#381 = EDGE_CURVE ( 'NONE', #133, #93, #120, .T. ) ;
#382 = CARTESIAN_POINT ( 'NONE',  ( -14.10256410256410042, 9.885428206979796073, 0.000000000000000000 ) ) ;
#383 = CALENDAR_DATE ( 2024, 18, 7 ) ;
#384 = DIRECTION ( 'NONE',  ( -0.000000000000000000, 0.000000000000000000, -1.000000000000000000 ) ) ;
#385 = CIRCLE ( 'NONE', #203, 0.4999999999999987232 ) ;
#386 = CARTESIAN_POINT ( 'NONE',  ( -12.99999999999999822, 7.966629547095798181, 0.000000000000000000 ) ) ;
#387 = ORIENTED_EDGE ( 'NONE', *, *, #291, .T. ) ;
#388 = PERSON_AND_ORGANIZATION_ROLE ( 'creator' ) ;
#389 = AXIS2_PLACEMENT_3D ( 'NONE', #375, #372, #272 ) ;
#390 = CARTESIAN_POINT ( 'NONE',  ( 1.734723475976807094E-15, 7.966629547095798181, 0.000000000000000000 ) ) ;
#391 = COORDINATED_UNIVERSAL_TIME_OFFSET ( 1, 0, .AHEAD. ) ;
#392 = DIRECTION ( 'NONE',  ( -1.000000000000000000, 4.596983092540343046E-18, 0.000000000000000000 ) ) ;
#393 = DIRECTION ( 'NONE',  ( 4.596983092540343816E-18, 1.000000000000000000, -0.000000000000000000 ) ) ;
#394 = ORIENTED_EDGE ( 'NONE', *, *, #328, .T. ) ;
#395 = LINE ( 'NONE', #338, #370 ) ;
#396 = VERTEX_POINT ( 'NONE', #323 ) ;
#397 = SPHERICAL_SURFACE ( 'NONE', #261, 22.00000000000000000 ) ;
#398 = AXIS2_PLACEMENT_3D ( 'NONE', #146, #21, #277 ) ;
#399 = CIRCLE ( 'NONE', #218, 15.00000000000000000 ) ;
#400 = EDGE_CURVE ( 'NONE', #290, #30, #269, .T. ) ;
#401 = CARTESIAN_POINT ( 'NONE',  ( -14.99999999999999822, 7.966629547095926966, 0.000000000000000000 ) ) ;
#402 = ADVANCED_FACE ( 'NONE', ( #360 ), #65, .T. ) ;
#403 = ORIENTED_EDGE ( 'NONE', *, *, #279, .T. ) ;
#404 = DIRECTION ( 'NONE',  ( -1.000000000000000000, 4.596983092540343816E-18, 0.000000000000000000 ) ) ;
#405 = CARTESIAN_POINT ( 'NONE',  ( 2.571758278209380130E-15, -6.999999999999999112, 0.000000000000000000 ) ) ;
#406 = CC_DESIGN_APPROVAL ( #118, ( #251 ) ) ;
#407 = CARTESIAN_POINT ( 'NONE',  ( 1.325780427183179400E-15, 15.00000000000000000, 0.000000000000000000 ) ) ;
#408 = CARTESIAN_POINT ( 'NONE',  ( 9.690919762252589304E-16, 9.885428206979796073, 0.000000000000000000 ) ) ;
#409 = CIRCLE ( 'NONE', #244, 13.00000000000000000 ) ;
#410 = DIRECTION ( 'NONE',  ( 4.596983092540343816E-18, 1.000000000000000000, -0.000000000000000000 ) ) ;
#411 = SPHERICAL_SURFACE ( 'NONE', #32, 22.00000000000000000 ) ;
ENDSEC;
END-ISO-10303-21;
