ISO-10303-21;
HEADER;
FILE_DESCRIPTION (( 'STEP AP203' ),
    '1' );
FILE_NAME ('11-0201-06_outokumpu.step',
    '2015-08-10T12:14:42',
    ( '' ),
    ( '' ),
    'SwSTEP 2.0',
    'SolidWorks 2008',
    '' );
FILE_SCHEMA (( 'CONFIG_CONTROL_DESIGN' ));
ENDSEC;

DATA;
#1 = EDGE_LOOP ( 'NONE', ( #90, #91 ) ) ;
#2 = ORIENTED_EDGE ( 'NONE', *, *, #74, .T. ) ;
#3 = ORIENTED_EDGE ( 'NONE', *, *, #99, .T. ) ;
#4 = ORIENTED_EDGE ( 'NONE', *, *, #5, .F. ) ;
#5 = EDGE_CURVE ( 'NONE', #64, #63, #266, .T. ) ;
#6 = EDGE_LOOP ( 'NONE', ( #23, #20, #21, #22, #78 ) ) ;
#7 = VERTEX_POINT ( 'NONE', #267 ) ;
#8 = EDGE_CURVE ( 'NONE', #75, #7, #202, .T. ) ;
#9 = VERTEX_POINT ( 'NONE', #301 ) ;
#10 = EDGE_CURVE ( 'NONE', #7, #115, #271, .T. ) ;
#11 = ORIENTED_EDGE ( 'NONE', *, *, #16, .T. ) ;
#12 = EDGE_CURVE ( 'NONE', #9, #57, #237, .T. ) ;
#13 = ORIENTED_EDGE ( 'NONE', *, *, #8, .T. ) ;
#14 = ADVANCED_FACE ( 'NONE', ( #238 ), #209, .F. ) ;
#15 = ADVANCED_FACE ( 'NONE', ( #292 ), #291, .F. ) ;
#16 = EDGE_CURVE ( 'NONE', #7, #9, #279, .T. ) ;
#17 = EDGE_CURVE ( 'NONE', #42, #47, #163, .T. ) ;
#18 = ORIENTED_EDGE ( 'NONE', *, *, #114, .T. ) ;
#19 = EDGE_LOOP ( 'NONE', ( #40, #36, #13, #11, #27, #26 ) ) ;
#20 = ORIENTED_EDGE ( 'NONE', *, *, #29, .T. ) ;
#21 = ORIENTED_EDGE ( 'NONE', *, *, #12, .T. ) ;
#22 = ORIENTED_EDGE ( 'NONE', *, *, #56, .T. ) ;
#23 = ORIENTED_EDGE ( 'NONE', *, *, #50, .F. ) ;
#24 = ORIENTED_EDGE ( 'NONE', *, *, #17, .T. ) ;
#25 = EDGE_LOOP ( 'NONE', ( #32, #33, #34, #2, #3 ) ) ;
#26 = ORIENTED_EDGE ( 'NONE', *, *, #46, .F. ) ;
#27 = ORIENTED_EDGE ( 'NONE', *, *, #29, .F. ) ;
#28 = ORIENTED_EDGE ( 'NONE', *, *, #62, .F. ) ;
#29 = EDGE_CURVE ( 'NONE', #48, #9, #122, .T. ) ;
#30 = EDGE_LOOP ( 'NONE', ( #28, #4 ) ) ;
#31 = ADVANCED_FACE ( 'NONE', ( #123 ), #224, .F. ) ;
#32 = ORIENTED_EDGE ( 'NONE', *, *, #68, .F. ) ;
#33 = ORIENTED_EDGE ( 'NONE', *, *, #10, .F. ) ;
#34 = ORIENTED_EDGE ( 'NONE', *, *, #8, .F. ) ;
#35 = ADVANCED_FACE ( 'NONE', ( #226, #225 ), #220, .F. ) ;
#36 = ORIENTED_EDGE ( 'NONE', *, *, #77, .T. ) ;
#37 = ORIENTED_EDGE ( 'NONE', *, *, #108, .F. ) ;
#38 = DIRECTION ( 'NONE',  ( 1.000000000000000000, 0.0000000000000000000, 0.0000000000000000000 ) ) ;
#39 = DIRECTION ( 'NONE',  ( -0.0000000000000000000, -0.0000000000000000000, 1.000000000000000000 ) ) ;
#40 = ORIENTED_EDGE ( 'NONE', *, *, #17, .F. ) ;
#41 = CARTESIAN_POINT ( 'NONE',  ( 0.0000000000000000000, 0.0000000000000000000, -0.5805403324154403400 ) ) ;
#42 = VERTEX_POINT ( 'NONE', #168 ) ;
#43 = ORIENTED_EDGE ( 'NONE', *, *, #68, .T. ) ;
#44 = ADVANCED_FACE ( 'NONE', ( #158 ), #156, .F. ) ;
#45 = ORIENTED_EDGE ( 'NONE', *, *, #46, .T. ) ;
#46 = EDGE_CURVE ( 'NONE', #47, #48, #285, .T. ) ;
#47 = VERTEX_POINT ( 'NONE', #286 ) ;
#48 = VERTEX_POINT ( 'NONE', #201 ) ;
#49 = ORIENTED_EDGE ( 'NONE', *, *, #50, .T. ) ;
#50 = EDGE_CURVE ( 'NONE', #48, #51, #200, .T. ) ;
#51 = VERTEX_POINT ( 'NONE', #196 ) ;
#52 = ORIENTED_EDGE ( 'NONE', *, *, #54, .F. ) ;
#53 = VERTEX_POINT ( 'NONE', #208 ) ;
#54 = EDGE_CURVE ( 'NONE', #53, #51, #207, .T. ) ;
#55 = ORIENTED_EDGE ( 'NONE', *, *, #56, .F. ) ;
#56 = EDGE_CURVE ( 'NONE', #57, #53, #219, .T. ) ;
#57 = VERTEX_POINT ( 'NONE', #215 ) ;
#58 = EDGE_LOOP ( 'NONE', ( #113, #43, #70, #73, #76 ) ) ;
#59 = ADVANCED_FACE ( 'NONE', ( #214 ), #213, .T. ) ;
#60 = EDGE_LOOP ( 'NONE', ( #61, #65, #88, #83 ) ) ;
#61 = ORIENTED_EDGE ( 'NONE', *, *, #62, .T. ) ;
#62 = EDGE_CURVE ( 'NONE', #63, #64, #293, .T. ) ;
#63 = VERTEX_POINT ( 'NONE', #174 ) ;
#64 = VERTEX_POINT ( 'NONE', #173 ) ;
#65 = ORIENTED_EDGE ( 'NONE', *, *, #66, .T. ) ;
#66 = EDGE_CURVE ( 'NONE', #64, #67, #172, .T. ) ;
#67 = VERTEX_POINT ( 'NONE', #233 ) ;
#68 = EDGE_CURVE ( 'NONE', #115, #69, #232, .T. ) ;
#69 = VERTEX_POINT ( 'NONE', #228 ) ;
#70 = ORIENTED_EDGE ( 'NONE', *, *, #71, .T. ) ;
#71 = EDGE_CURVE ( 'NONE', #69, #72, #138, .T. ) ;
#72 = VERTEX_POINT ( 'NONE', #134 ) ;
#73 = ORIENTED_EDGE ( 'NONE', *, *, #74, .F. ) ;
#74 = EDGE_CURVE ( 'NONE', #75, #72, #133, .T. ) ;
#75 = VERTEX_POINT ( 'NONE', #129 ) ;
#76 = ORIENTED_EDGE ( 'NONE', *, *, #77, .F. ) ;
#77 = EDGE_CURVE ( 'NONE', #42, #75, #128, .T. ) ;
#78 = ORIENTED_EDGE ( 'NONE', *, *, #92, .F. ) ;
#79 = CLOSED_SHELL ( 'NONE', ( #44, #112, #59, #85, #15, #35, #93, #101, #31, #14 ) ) ;
#80 = MANIFOLD_SOLID_BREP ( 'NONE', #79 ) ;
#81 = EDGE_LOOP ( 'NONE', ( #45, #49, #52, #55, #110 ) ) ;
#82 = EDGE_CURVE ( 'NONE', #87, #67, #265, .T. ) ;
#83 = ORIENTED_EDGE ( 'NONE', *, *, #84, .F. ) ;
#84 = EDGE_CURVE ( 'NONE', #63, #87, #260, .T. ) ;
#85 = ADVANCED_FACE ( 'NONE', ( #256 ), #154, .F. ) ;
#86 = EDGE_LOOP ( 'NONE', ( #89, #18, #24, #96, #97, #95 ) ) ;
#87 = VERTEX_POINT ( 'NONE', #255 ) ;
#88 = ORIENTED_EDGE ( 'NONE', *, *, #82, .F. ) ;
#89 = ORIENTED_EDGE ( 'NONE', *, *, #10, .T. ) ;
#90 = ORIENTED_EDGE ( 'NONE', *, *, #54, .T. ) ;
#91 = ORIENTED_EDGE ( 'NONE', *, *, #92, .T. ) ;
#92 = EDGE_CURVE ( 'NONE', #51, #53, #150, .T. ) ;
#93 = ADVANCED_FACE ( 'NONE', ( #145, #144 ), #143, .F. ) ;
#94 = EDGE_LOOP ( 'NONE', ( #106, #107 ) ) ;
#95 = ORIENTED_EDGE ( 'NONE', *, *, #16, .F. ) ;
#96 = ORIENTED_EDGE ( 'NONE', *, *, #111, .F. ) ;
#97 = ORIENTED_EDGE ( 'NONE', *, *, #12, .F. ) ;
#98 = ORIENTED_EDGE ( 'NONE', *, *, #99, .F. ) ;
#99 = EDGE_CURVE ( 'NONE', #72, #69, #193, .T. ) ;
#100 = ORIENTED_EDGE ( 'NONE', *, *, #71, .F. ) ;
#101 = ADVANCED_FACE ( 'NONE', ( #189 ), #188, .T. ) ;
#102 = EDGE_LOOP ( 'NONE', ( #103, #104, #105, #37 ) ) ;
#103 = ORIENTED_EDGE ( 'NONE', *, *, #66, .F. ) ;
#104 = ORIENTED_EDGE ( 'NONE', *, *, #5, .T. ) ;
#105 = ORIENTED_EDGE ( 'NONE', *, *, #84, .T. ) ;
#106 = ORIENTED_EDGE ( 'NONE', *, *, #82, .T. ) ;
#107 = ORIENTED_EDGE ( 'NONE', *, *, #108, .T. ) ;
#108 = EDGE_CURVE ( 'NONE', #67, #87, #183, .T. ) ;
#109 = EDGE_LOOP ( 'NONE', ( #98, #100 ) ) ;
#110 = ORIENTED_EDGE ( 'NONE', *, *, #111, .T. ) ;
#111 = EDGE_CURVE ( 'NONE', #57, #47, #252, .T. ) ;
#112 = ADVANCED_FACE ( 'NONE', ( #247 ), #246, .F. ) ;
#113 = ORIENTED_EDGE ( 'NONE', *, *, #114, .F. ) ;
#114 = EDGE_CURVE ( 'NONE', #115, #42, #240, .T. ) ;
#115 = VERTEX_POINT ( 'NONE', #372 ) ;
#116 = CARTESIAN_POINT ( 'NONE',  ( 0.0000000000000000000, 3.184081677783123700E-015, -43.00000000000005000 ) ) ;
#117 = AXIS2_PLACEMENT_3D ( 'NONE', #116, #278, #277 ) ;
#118 = CARTESIAN_POINT ( 'NONE',  ( 0.0000000000000000000, 0.0000000000000000000, -0.5805403324154403400 ) ) ;
#119 = DIRECTION ( 'NONE',  ( 1.000000000000000000, 0.0000000000000000000, 0.0000000000000000000 ) ) ;
#120 = DIRECTION ( 'NONE',  ( -0.0000000000000000000, -0.0000000000000000000, 1.000000000000000000 ) ) ;
#121 = AXIS2_PLACEMENT_3D ( 'NONE', #159, #120, #119 ) ;
#122 = CIRCLE ( 'NONE', #121, 16.62449999999999800 ) ;
#123 = FACE_OUTER_BOUND ( 'NONE', #25, .T. ) ;
#124 = DIRECTION ( 'NONE',  ( 1.000000000000000000, 0.0000000000000000000, 0.0000000000000000000 ) ) ;
#125 = DIRECTION ( 'NONE',  ( -0.0000000000000000000, -0.0000000000000000000, 1.000000000000000000 ) ) ;
#126 = CARTESIAN_POINT ( 'NONE',  ( 0.0000000000000000000, 0.0000000000000000000, -0.5805403324154403400 ) ) ;
#127 = AXIS2_PLACEMENT_3D ( 'NONE', #126, #125, #124 ) ;
#128 = CIRCLE ( 'NONE', #127, 16.62449999999999400 ) ;
#129 = CARTESIAN_POINT ( 'NONE',  ( 16.62449999999999400, 0.0000000000000000000, -0.5805403324154403400 ) ) ;
#130 = DIRECTION ( 'NONE',  ( 0.7071067811865536800, 0.0000000000000000000, 0.7071067811865414700 ) ) ;
#131 = VECTOR ( 'NONE', #130, 999.9999999999998900 ) ;
#132 = CARTESIAN_POINT ( 'NONE',  ( 16.62449999999999400, 0.0000000000000000000, -0.5805403324154403400 ) ) ;
#133 = LINE ( 'NONE', #132, #131 ) ;
#134 = CARTESIAN_POINT ( 'NONE',  ( 17.20504033241544300, 0.0000000000000000000, 5.813330856004549000E-018 ) ) ;
#135 = DIRECTION ( 'NONE',  ( 1.000000000000000000, 0.0000000000000000000, 0.0000000000000000000 ) ) ;
#136 = DIRECTION ( 'NONE',  ( -0.0000000000000000000, -0.0000000000000000000, 1.000000000000000000 ) ) ;
#137 = AXIS2_PLACEMENT_3D ( 'NONE', #227, #136, #135 ) ;
#138 = CIRCLE ( 'NONE', #137, 17.20504033241544300 ) ;
#139 = CARTESIAN_POINT ( 'NONE',  ( 0.0000000000000000000, 0.0000000000000000000, -0.5805403324154403400 ) ) ;
#140 = CARTESIAN_POINT ( 'NONE',  ( 0.0000000000000000000, 20.00000000000000000, -2.168404344971008900E-016 ) ) ;
#141 = AXIS2_PLACEMENT_3D ( 'NONE', #140, #142, #194 ) ;
#142 = DIRECTION ( 'NONE',  ( 0.0000000000000000000, 0.0000000000000000000, -1.000000000000000000 ) ) ;
#143 = PLANE ( 'NONE',  #141 ) ;
#144 = FACE_BOUND ( 'NONE', #109, .T. ) ;
#145 = FACE_OUTER_BOUND ( 'NONE', #94, .T. ) ;
#146 = DIRECTION ( 'NONE',  ( 1.000000000000000000, 0.0000000000000000000, 0.0000000000000000000 ) ) ;
#147 = DIRECTION ( 'NONE',  ( -0.0000000000000000000, -0.0000000000000000000, 1.000000000000000000 ) ) ;
#148 = CARTESIAN_POINT ( 'NONE',  ( 0.0000000000000000000, 0.0000000000000000000, -43.00000000000000000 ) ) ;
#149 = AXIS2_PLACEMENT_3D ( 'NONE', #148, #147, #146 ) ;
#150 = CIRCLE ( 'NONE', #149, 17.20504033241545000 ) ;
#151 = DIRECTION ( 'NONE',  ( 0.0000000000000000000, 1.000000000000000000, 0.0000000000000000000 ) ) ;
#152 = DIRECTION ( 'NONE',  ( -0.0000000000000000000, 1.547332239473658400E-016, -1.000000000000000000 ) ) ;
#153 = AXIS2_PLACEMENT_3D ( 'NONE', #254, #152, #151 ) ;
#154 = CYLINDRICAL_SURFACE ( 'NONE', #153, 16.62450000000000100 ) ;
#155 = AXIS2_PLACEMENT_3D ( 'NONE', #157, #288, #287 ) ;
#156 = CONICAL_SURFACE ( 'NONE', #155, 17.20504033241545000, 0.7853981633974542700 ) ;
#157 = CARTESIAN_POINT ( 'NONE',  ( 0.0000000000000000000, 0.0000000000000000000, -43.00000000000000000 ) ) ;
#158 = FACE_OUTER_BOUND ( 'NONE', #81, .T. ) ;
#159 = CARTESIAN_POINT ( 'NONE',  ( 0.0000000000000000000, 0.0000000000000000000, -42.41945966758454700 ) ) ;
#160 = DIRECTION ( 'NONE',  ( -0.0000000000000000000, 1.547332239473658100E-016, -1.000000000000000000 ) ) ;
#161 = VECTOR ( 'NONE', #160, 1000.000000000000000 ) ;
#162 = CARTESIAN_POINT ( 'NONE',  ( 2.035846832912011300E-015, -16.62449999999999800, -43.00000000000005000 ) ) ;
#163 = LINE ( 'NONE', #162, #161 ) ;
#164 = AXIS2_PLACEMENT_3D ( 'NONE', #280, #239, #272 ) ;
#165 = DIRECTION ( 'NONE',  ( 1.000000000000000000, 0.0000000000000000000, 0.0000000000000000000 ) ) ;
#166 = DIRECTION ( 'NONE',  ( 0.0000000000000000000, -0.0000000000000000000, 1.000000000000000000 ) ) ;
#167 = CARTESIAN_POINT ( 'NONE',  ( 0.0000000000000000000, 20.00000000000000000, -43.00000000000000000 ) ) ;
#168 = CARTESIAN_POINT ( 'NONE',  ( 2.035846832912011300E-015, -16.62449999999999400, -0.5805403324154403400 ) ) ;
#169 = AXIS2_PLACEMENT_3D ( 'NONE', #167, #166, #165 ) ;
#170 = DIRECTION ( 'NONE',  ( -0.0000000000000000000, -0.0000000000000000000, 1.000000000000000000 ) ) ;
#171 = CARTESIAN_POINT ( 'NONE',  ( -20.00000000000000000, 2.449212707644754500E-015, -4.336808689942017700E-016 ) ) ;
#172 = LINE ( 'NONE', #171, #234 ) ;
#173 = CARTESIAN_POINT ( 'NONE',  ( -20.00000000000000000, 2.449212707644754500E-015, -43.00000000000000000 ) ) ;
#174 = CARTESIAN_POINT ( 'NONE',  ( 20.00000000000000000, 0.0000000000000000000, -43.00000000000000000 ) ) ;
#175 = DIRECTION ( 'NONE',  ( 1.000000000000000000, 0.0000000000000000000, 0.0000000000000000000 ) ) ;
#176 = DIRECTION ( 'NONE',  ( -0.0000000000000000000, -0.0000000000000000000, 1.000000000000000000 ) ) ;
#177 = CARTESIAN_POINT ( 'NONE',  ( 0.0000000000000000000, 0.0000000000000000000, -43.00000000000000000 ) ) ;
#178 = AXIS2_PLACEMENT_3D ( 'NONE', #177, #176, #175 ) ;
#179 = DIRECTION ( 'NONE',  ( 1.000000000000000000, 0.0000000000000000000, 0.0000000000000000000 ) ) ;
#180 = DIRECTION ( 'NONE',  ( -0.0000000000000000000, -0.0000000000000000000, 1.000000000000000000 ) ) ;
#181 = CARTESIAN_POINT ( 'NONE',  ( 0.0000000000000000000, 0.0000000000000000000, 0.0000000000000000000 ) ) ;
#182 = AXIS2_PLACEMENT_3D ( 'NONE', #181, #180, #179 ) ;
#183 = CIRCLE ( 'NONE', #182, 20.00000000000000000 ) ;
#184 = DIRECTION ( 'NONE',  ( 1.000000000000000000, 0.0000000000000000000, 0.0000000000000000000 ) ) ;
#185 = DIRECTION ( 'NONE',  ( -0.0000000000000000000, -0.0000000000000000000, 1.000000000000000000 ) ) ;
#186 = CARTESIAN_POINT ( 'NONE',  ( 0.0000000000000000000, 0.0000000000000000000, -4.336808689942017700E-016 ) ) ;
#187 = AXIS2_PLACEMENT_3D ( 'NONE', #186, #185, #184 ) ;
#188 = CYLINDRICAL_SURFACE ( 'NONE', #187, 20.00000000000000000 ) ;
#189 = FACE_OUTER_BOUND ( 'NONE', #102, .T. ) ;
#190 = DIRECTION ( 'NONE',  ( 1.000000000000000000, 0.0000000000000000000, 0.0000000000000000000 ) ) ;
#191 = DIRECTION ( 'NONE',  ( -0.0000000000000000000, -0.0000000000000000000, 1.000000000000000000 ) ) ;
#192 = AXIS2_PLACEMENT_3D ( 'NONE', #195, #191, #190 ) ;
#193 = CIRCLE ( 'NONE', #192, 17.20504033241544300 ) ;
#194 = DIRECTION ( 'NONE',  ( -1.000000000000000000, 0.0000000000000000000, -0.0000000000000000000 ) ) ;
#195 = CARTESIAN_POINT ( 'NONE',  ( 0.0000000000000000000, 0.0000000000000000000, 5.813330856004549000E-018 ) ) ;
#196 = CARTESIAN_POINT ( 'NONE',  ( 17.20504033241545000, 2.106940170884622900E-015, -43.00000000000000000 ) ) ;
#197 = DIRECTION ( 'NONE',  ( 0.7071067811865517900, 8.659274570719408400E-017, -0.7071067811865433500 ) ) ;
#198 = VECTOR ( 'NONE', #197, 1000.000000000000000 ) ;
#199 = CARTESIAN_POINT ( 'NONE',  ( 17.20504033241545000, 2.106940170884622900E-015, -43.00000000000000000 ) ) ;
#200 = LINE ( 'NONE', #199, #198 ) ;
#201 = CARTESIAN_POINT ( 'NONE',  ( 16.62449999999999800, 2.071393501898316900E-015, -42.41945966758454700 ) ) ;
#202 = CIRCLE ( 'NONE', #300, 16.62449999999999400 ) ;
#203 = DIRECTION ( 'NONE',  ( 1.000000000000000000, 0.0000000000000000000, 0.0000000000000000000 ) ) ;
#204 = DIRECTION ( 'NONE',  ( -0.0000000000000000000, -0.0000000000000000000, 1.000000000000000000 ) ) ;
#205 = CARTESIAN_POINT ( 'NONE',  ( 0.0000000000000000000, 0.0000000000000000000, -43.00000000000000000 ) ) ;
#206 = AXIS2_PLACEMENT_3D ( 'NONE', #205, #204, #203 ) ;
#207 = CIRCLE ( 'NONE', #206, 17.20504033241545000 ) ;
#208 = CARTESIAN_POINT ( 'NONE',  ( -17.20504033241545000, 0.0000000000000000000, -43.00000000000000000 ) ) ;
#209 = CONICAL_SURFACE ( 'NONE', #274, 17.20504033241545000, 0.7853981633974542700 ) ;
#210 = DIRECTION ( 'NONE',  ( -0.0000000000000000000, 1.547332239473658100E-016, -1.000000000000000000 ) ) ;
#211 = VECTOR ( 'NONE', #210, 1000.000000000000000 ) ;
#212 = CARTESIAN_POINT ( 'NONE',  ( 0.0000000000000000000, 16.62450000000000500, -43.00000000000005000 ) ) ;
#213 = CYLINDRICAL_SURFACE ( 'NONE', #297, 20.00000000000000000 ) ;
#214 = FACE_OUTER_BOUND ( 'NONE', #60, .T. ) ;
#215 = CARTESIAN_POINT ( 'NONE',  ( -16.62449999999999800, 0.0000000000000000000, -42.41945966758454700 ) ) ;
#216 = DIRECTION ( 'NONE',  ( -0.7071067811865517900, 0.0000000000000000000, -0.7071067811865433500 ) ) ;
#217 = VECTOR ( 'NONE', #216, 1000.000000000000000 ) ;
#218 = CARTESIAN_POINT ( 'NONE',  ( -17.20504033241545000, 0.0000000000000000000, -43.00000000000000000 ) ) ;
#219 = LINE ( 'NONE', #218, #217 ) ;
#220 = PLANE ( 'NONE',  #169 ) ;
#221 = DIRECTION ( 'NONE',  ( 1.000000000000000000, 0.0000000000000000000, 0.0000000000000000000 ) ) ;
#222 = DIRECTION ( 'NONE',  ( -0.0000000000000000000, -0.0000000000000000000, 1.000000000000000000 ) ) ;
#223 = AXIS2_PLACEMENT_3D ( 'NONE', #118, #222, #221 ) ;
#224 = CONICAL_SURFACE ( 'NONE', #223, 16.62449999999999400, 0.7853981633974568300 ) ;
#225 = FACE_BOUND ( 'NONE', #1, .T. ) ;
#226 = FACE_OUTER_BOUND ( 'NONE', #30, .T. ) ;
#227 = CARTESIAN_POINT ( 'NONE',  ( 0.0000000000000000000, 0.0000000000000000000, 5.813330856004549000E-018 ) ) ;
#228 = CARTESIAN_POINT ( 'NONE',  ( -17.20504033241544300, 2.106940170884622200E-015, 5.813330856004549000E-018 ) ) ;
#229 = DIRECTION ( 'NONE',  ( -0.7071067811865536800, 8.659274570719430600E-017, 0.7071067811865414700 ) ) ;
#230 = VECTOR ( 'NONE', #229, 999.9999999999998900 ) ;
#231 = CARTESIAN_POINT ( 'NONE',  ( -16.62449999999999400, 2.035846832912010500E-015, -0.5805403324154403400 ) ) ;
#232 = LINE ( 'NONE', #231, #230 ) ;
#233 = CARTESIAN_POINT ( 'NONE',  ( -20.00000000000000000, 2.449212707644754500E-015, 0.0000000000000000000 ) ) ;
#234 = VECTOR ( 'NONE', #170, 1000.000000000000000 ) ;
#235 = CARTESIAN_POINT ( 'NONE',  ( 0.0000000000000000000, 0.0000000000000000000, -42.41945966758454700 ) ) ;
#236 = AXIS2_PLACEMENT_3D ( 'NONE', #235, #276, #275 ) ;
#237 = CIRCLE ( 'NONE', #236, 16.62449999999999800 ) ;
#238 = FACE_OUTER_BOUND ( 'NONE', #6, .T. ) ;
#239 = DIRECTION ( 'NONE',  ( -0.0000000000000000000, -0.0000000000000000000, 1.000000000000000000 ) ) ;
#240 = CIRCLE ( 'NONE', #245, 16.62449999999999400 ) ;
#241 = DIRECTION ( 'NONE',  ( 1.000000000000000000, 0.0000000000000000000, 0.0000000000000000000 ) ) ;
#242 = DIRECTION ( 'NONE',  ( -0.0000000000000000000, -0.0000000000000000000, 1.000000000000000000 ) ) ;
#243 = CARTESIAN_POINT ( 'NONE',  ( 0.0000000000000000000, 0.0000000000000000000, -0.5805403324154403400 ) ) ;
#244 = AXIS2_PLACEMENT_3D ( 'NONE', #243, #242, #241 ) ;
#245 = AXIS2_PLACEMENT_3D ( 'NONE', #41, #39, #38 ) ;
#246 = CONICAL_SURFACE ( 'NONE', #244, 16.62449999999999400, 0.7853981633974568300 ) ;
#247 = FACE_OUTER_BOUND ( 'NONE', #58, .T. ) ;
#248 = DIRECTION ( 'NONE',  ( 1.000000000000000000, 0.0000000000000000000, 0.0000000000000000000 ) ) ;
#249 = DIRECTION ( 'NONE',  ( -0.0000000000000000000, -0.0000000000000000000, 1.000000000000000000 ) ) ;
#250 = CARTESIAN_POINT ( 'NONE',  ( 0.0000000000000000000, 0.0000000000000000000, -42.41945966758454700 ) ) ;
#251 = AXIS2_PLACEMENT_3D ( 'NONE', #250, #249, #248 ) ;
#252 = CIRCLE ( 'NONE', #251, 16.62449999999999800 ) ;
#253 = DIRECTION ( 'NONE',  ( 1.000000000000000000, 0.0000000000000000000, 0.0000000000000000000 ) ) ;
#254 = CARTESIAN_POINT ( 'NONE',  ( 0.0000000000000000000, 3.184081677783123700E-015, -43.00000000000005000 ) ) ;
#255 = CARTESIAN_POINT ( 'NONE',  ( 20.00000000000000000, 0.0000000000000000000, 0.0000000000000000000 ) ) ;
#256 = FACE_OUTER_BOUND ( 'NONE', #86, .T. ) ;
#257 = DIRECTION ( 'NONE',  ( -0.0000000000000000000, -0.0000000000000000000, 1.000000000000000000 ) ) ;
#258 = VECTOR ( 'NONE', #257, 1000.000000000000000 ) ;
#259 = CARTESIAN_POINT ( 'NONE',  ( 20.00000000000000000, 0.0000000000000000000, -4.336808689942017700E-016 ) ) ;
#260 = LINE ( 'NONE', #259, #258 ) ;
#261 = DIRECTION ( 'NONE',  ( 1.000000000000000000, 0.0000000000000000000, 0.0000000000000000000 ) ) ;
#262 = DIRECTION ( 'NONE',  ( -0.0000000000000000000, -0.0000000000000000000, 1.000000000000000000 ) ) ;
#263 = CARTESIAN_POINT ( 'NONE',  ( 0.0000000000000000000, 0.0000000000000000000, 0.0000000000000000000 ) ) ;
#264 = AXIS2_PLACEMENT_3D ( 'NONE', #263, #262, #261 ) ;
#265 = CIRCLE ( 'NONE', #264, 20.00000000000000000 ) ;
#266 = CIRCLE ( 'NONE', #164, 20.00000000000000000 ) ;
#267 = CARTESIAN_POINT ( 'NONE',  ( 0.0000000000000000000, 16.62449999999999400, -0.5805403324154403400 ) ) ;
#268 = DIRECTION ( 'NONE',  ( -0.0000000000000000000, -0.0000000000000000000, 1.000000000000000000 ) ) ;
#269 = CARTESIAN_POINT ( 'NONE',  ( 0.0000000000000000000, 0.0000000000000000000, -0.5805403324154403400 ) ) ;
#270 = AXIS2_PLACEMENT_3D ( 'NONE', #269, #268, #253 ) ;
#271 = CIRCLE ( 'NONE', #270, 16.62449999999999400 ) ;
#272 = DIRECTION ( 'NONE',  ( 1.000000000000000000, 0.0000000000000000000, 0.0000000000000000000 ) ) ;
#273 = CARTESIAN_POINT ( 'NONE',  ( 0.0000000000000000000, 0.0000000000000000000, -43.00000000000000000 ) ) ;
#274 = AXIS2_PLACEMENT_3D ( 'NONE', #273, #290, #289 ) ;
#275 = DIRECTION ( 'NONE',  ( 1.000000000000000000, 0.0000000000000000000, 0.0000000000000000000 ) ) ;
#276 = DIRECTION ( 'NONE',  ( -0.0000000000000000000, -0.0000000000000000000, 1.000000000000000000 ) ) ;
#277 = DIRECTION ( 'NONE',  ( 0.0000000000000000000, 1.000000000000000000, 0.0000000000000000000 ) ) ;
#278 = DIRECTION ( 'NONE',  ( -0.0000000000000000000, 1.547332239473658400E-016, -1.000000000000000000 ) ) ;
#279 = LINE ( 'NONE', #212, #211 ) ;
#280 = CARTESIAN_POINT ( 'NONE',  ( 0.0000000000000000000, 0.0000000000000000000, -43.00000000000000000 ) ) ;
#281 = DIRECTION ( 'NONE',  ( 1.000000000000000000, 0.0000000000000000000, 0.0000000000000000000 ) ) ;
#282 = DIRECTION ( 'NONE',  ( -0.0000000000000000000, -0.0000000000000000000, 1.000000000000000000 ) ) ;
#283 = CARTESIAN_POINT ( 'NONE',  ( 0.0000000000000000000, 0.0000000000000000000, -42.41945966758454700 ) ) ;
#284 = AXIS2_PLACEMENT_3D ( 'NONE', #283, #282, #281 ) ;
#285 = CIRCLE ( 'NONE', #284, 16.62449999999999800 ) ;
#286 = CARTESIAN_POINT ( 'NONE',  ( 2.035846832912011300E-015, -16.62449999999999800, -42.41945966758454700 ) ) ;
#287 = DIRECTION ( 'NONE',  ( -1.000000000000000000, 0.0000000000000000000, 0.0000000000000000000 ) ) ;
#288 = DIRECTION ( 'NONE',  ( 0.0000000000000000000, 0.0000000000000000000, -1.000000000000000000 ) ) ;
#289 = DIRECTION ( 'NONE',  ( -1.000000000000000000, 0.0000000000000000000, 0.0000000000000000000 ) ) ;
#290 = DIRECTION ( 'NONE',  ( 0.0000000000000000000, 0.0000000000000000000, -1.000000000000000000 ) ) ;
#291 = CYLINDRICAL_SURFACE ( 'NONE', #117, 16.62450000000000100 ) ;
#292 = FACE_OUTER_BOUND ( 'NONE', #19, .T. ) ;
#293 = CIRCLE ( 'NONE', #178, 20.00000000000000000 ) ;
#294 = DIRECTION ( 'NONE',  ( 1.000000000000000000, 0.0000000000000000000, 0.0000000000000000000 ) ) ;
#295 = DIRECTION ( 'NONE',  ( -0.0000000000000000000, -0.0000000000000000000, 1.000000000000000000 ) ) ;
#296 = CARTESIAN_POINT ( 'NONE',  ( 0.0000000000000000000, 0.0000000000000000000, -4.336808689942017700E-016 ) ) ;
#297 = AXIS2_PLACEMENT_3D ( 'NONE', #296, #295, #294 ) ;
#298 = DIRECTION ( 'NONE',  ( 1.000000000000000000, 0.0000000000000000000, 0.0000000000000000000 ) ) ;
#299 = DIRECTION ( 'NONE',  ( -0.0000000000000000000, -0.0000000000000000000, 1.000000000000000000 ) ) ;
#300 = AXIS2_PLACEMENT_3D ( 'NONE', #139, #299, #298 ) ;
#301 = CARTESIAN_POINT ( 'NONE',  ( 0.0000000000000000000, 16.62449999999999800, -42.41945966758454700 ) ) ;
#302 = APPLICATION_CONTEXT ( 'configuration controlled 3d designs of mechanical parts and assemblies' ) ;
#303 = ADVANCED_BREP_SHAPE_REPRESENTATION ( '11-0201-06_outokumpu', ( #80, #357 ), #358 ) ;
#304 = PRODUCT_DEFINITION_SHAPE ( 'NONE', 'NONE',  #362 ) ;
#305 = PRODUCT_RELATED_PRODUCT_CATEGORY ( 'detail', '', ( #369 ) ) ;
#306 = CC_DESIGN_SECURITY_CLASSIFICATION ( #349, ( #340 ) ) ;
#307 = CC_DESIGN_PERSON_AND_ORGANIZATION_ASSIGNMENT ( #309, #308, ( #369 ) ) ;
#308 = PERSON_AND_ORGANIZATION_ROLE ( 'design_owner' ) ;
#309 = PERSON_AND_ORGANIZATION ( #368, #310 ) ;
#310 = ORGANIZATION ( 'UNSPECIFIED', 'UNSPECIFIED', '' ) ;
#311 = LOCAL_TIME ( 14, 14, 42.00000000000000000, #312 ) ;
#312 = COORDINATED_UNIVERSAL_TIME_OFFSET ( 1, 0, .AHEAD. ) ;
#313 = CC_DESIGN_PERSON_AND_ORGANIZATION_ASSIGNMENT ( #315, #314, ( #362 ) ) ;
#314 = PERSON_AND_ORGANIZATION_ROLE ( 'creator' ) ;
#315 = PERSON_AND_ORGANIZATION ( #368, #310 ) ;
#316 = CC_DESIGN_APPROVAL ( #359, ( #362 ) ) ;
#317 = APPROVAL_DATE_TIME ( #318, #359 ) ;
#318 = DATE_AND_TIME ( #319, #320 ) ;
#319 = CALENDAR_DATE ( 2015, 10, 8 ) ;
#320 = LOCAL_TIME ( 14, 14, 42.00000000000000000, #321 ) ;
#321 = COORDINATED_UNIVERSAL_TIME_OFFSET ( 1, 0, .AHEAD. ) ;
#322 = APPROVAL_PERSON_ORGANIZATION ( #361, #359, #323 ) ;
#323 = APPROVAL_ROLE ( '' ) ;
#324 = SHAPE_DEFINITION_REPRESENTATION ( #304, #303 ) ;
#325 = DIRECTION ( 'NONE',  ( 1.000000000000000000, 0.0000000000000000000, 0.0000000000000000000 ) ) ;
#326 =( LENGTH_UNIT ( ) NAMED_UNIT ( * ) SI_UNIT ( .MILLI., .METRE. ) );
#327 = CARTESIAN_POINT ( 'NONE',  ( 0.0000000000000000000, 0.0000000000000000000, 0.0000000000000000000 ) ) ;
#328 = PERSON_AND_ORGANIZATION ( #368, #310 ) ;
#329 = CC_DESIGN_APPROVAL ( #337, ( #340 ) ) ;
#330 = APPROVAL_DATE_TIME ( #331, #337 ) ;
#331 = DATE_AND_TIME ( #332, #333 ) ;
#332 = CALENDAR_DATE ( 2015, 10, 8 ) ;
#333 = LOCAL_TIME ( 14, 14, 42.00000000000000000, #334 ) ;
#334 = COORDINATED_UNIVERSAL_TIME_OFFSET ( 1, 0, .AHEAD. ) ;
#335 = APPROVAL_PERSON_ORGANIZATION ( #339, #337, #336 ) ;
#336 = APPROVAL_ROLE ( '' ) ;
#337 = APPROVAL ( #338, 'UNSPECIFIED' ) ;
#338 = APPROVAL_STATUS ( 'not_yet_approved' ) ;
#339 = PERSON_AND_ORGANIZATION ( #368, #310 ) ;
#340 = PRODUCT_DEFINITION_FORMATION_WITH_SPECIFIED_SOURCE ( 'ANY', '', #369, .NOT_KNOWN. ) ;
#341 = CC_DESIGN_DATE_AND_TIME_ASSIGNMENT ( #343, #342, ( #362 ) ) ;
#342 = DATE_TIME_ROLE ( 'creation_date' ) ;
#343 = DATE_AND_TIME ( #344, #311 ) ;
#344 = CALENDAR_DATE ( 2015, 10, 8 ) ;
#345 = COORDINATED_UNIVERSAL_TIME_OFFSET ( 1, 0, .AHEAD. ) ;
#346 = CC_DESIGN_PERSON_AND_ORGANIZATION_ASSIGNMENT ( #348, #347, ( #349 ) ) ;
#347 = PERSON_AND_ORGANIZATION_ROLE ( 'classification_officer' ) ;
#348 = PERSON_AND_ORGANIZATION ( #368, #310 ) ;
#349 = SECURITY_CLASSIFICATION ( '', '', #350 ) ;
#350 = SECURITY_CLASSIFICATION_LEVEL ( 'unclassified' ) ;
#351 = CC_DESIGN_PERSON_AND_ORGANIZATION_ASSIGNMENT ( #353, #352, ( #340 ) ) ;
#352 = PERSON_AND_ORGANIZATION_ROLE ( 'design_supplier' ) ;
#353 = PERSON_AND_ORGANIZATION ( #368, #310 ) ;
#354 = CC_DESIGN_PERSON_AND_ORGANIZATION_ASSIGNMENT ( #328, #355, ( #340 ) ) ;
#355 = PERSON_AND_ORGANIZATION_ROLE ( 'creator' ) ;
#356 = DIRECTION ( 'NONE',  ( 0.0000000000000000000, 0.0000000000000000000, 1.000000000000000000 ) ) ;
#357 = AXIS2_PLACEMENT_3D ( 'NONE', #327, #356, #325 ) ;
#358 =( GEOMETRIC_REPRESENTATION_CONTEXT ( 3 ) GLOBAL_UNCERTAINTY_ASSIGNED_CONTEXT ( ( #366 ) ) GLOBAL_UNIT_ASSIGNED_CONTEXT ( ( #326, #389, #367 ) ) REPRESENTATION_CONTEXT ( 'NONE', 'WORKASPACE' ) );
#359 = APPROVAL ( #360, 'UNSPECIFIED' ) ;
#360 = APPROVAL_STATUS ( 'not_yet_approved' ) ;
#361 = PERSON_AND_ORGANIZATION ( #368, #310 ) ;
#362 = PRODUCT_DEFINITION ( 'UNKNOWN', '', #340, #363 ) ;
#363 = DESIGN_CONTEXT ( 'detailed design', #365, 'design' ) ;
#364 = APPLICATION_PROTOCOL_DEFINITION ( 'international standard', 'config_control_design', 1994, #365 ) ;
#365 = APPLICATION_CONTEXT ( 'configuration controlled 3d designs of mechanical parts and assemblies' ) ;
#366 = UNCERTAINTY_MEASURE_WITH_UNIT (LENGTH_MEASURE( 1.000000000000000100E-005 ), #326, 'distance_accuracy_value', 'NONE');
#367 =( NAMED_UNIT ( * ) SI_UNIT ( $, .STERADIAN. ) SOLID_ANGLE_UNIT ( ) );
#368 = PERSON ( 'UNSPECIFIED', 'UNSPECIFIED', 'UNSPECIFIED', ('UNSPECIFIED'), ('UNSPECIFIED'), ('UNSPECIFIED') ) ;
#369 = PRODUCT ( '11-0201-06_outokumpu', '11-0201-06_outokumpu', '', ( #370 ) ) ;
#370 = MECHANICAL_CONTEXT ( 'NONE', #302, 'mechanical' ) ;
#371 = APPLICATION_PROTOCOL_DEFINITION ( 'international standard', 'config_control_design', 1994, #302 ) ;
#372 = CARTESIAN_POINT ( 'NONE',  ( -16.62449999999999400, 2.071393501898316100E-015, -0.5805403324154403400 ) ) ;
#373 = CC_DESIGN_APPROVAL ( #381, ( #349 ) ) ;
#374 = APPROVAL_DATE_TIME ( #375, #381 ) ;
#375 = DATE_AND_TIME ( #376, #377 ) ;
#376 = CALENDAR_DATE ( 2015, 10, 8 ) ;
#377 = LOCAL_TIME ( 14, 14, 42.00000000000000000, #378 ) ;
#378 = COORDINATED_UNIVERSAL_TIME_OFFSET ( 1, 0, .AHEAD. ) ;
#379 = APPROVAL_PERSON_ORGANIZATION ( #383, #381, #380 ) ;
#380 = APPROVAL_ROLE ( '' ) ;
#381 = APPROVAL ( #382, 'UNSPECIFIED' ) ;
#382 = APPROVAL_STATUS ( 'not_yet_approved' ) ;
#383 = PERSON_AND_ORGANIZATION ( #368, #310 ) ;
#384 = CC_DESIGN_DATE_AND_TIME_ASSIGNMENT ( #386, #385, ( #349 ) ) ;
#385 = DATE_TIME_ROLE ( 'classification_date' ) ;
#386 = DATE_AND_TIME ( #387, #388 ) ;
#387 = CALENDAR_DATE ( 2015, 10, 8 ) ;
#388 = LOCAL_TIME ( 14, 14, 42.00000000000000000, #345 ) ;
#389 =( NAMED_UNIT ( * ) PLANE_ANGLE_UNIT ( ) SI_UNIT ( $, .RADIAN. ) );
ENDSEC;
END-ISO-10303-21;
